Oops, an error
Loading. Please wait.

Recipe For Hate Warhorse Tab

ver2
ver2

Whole song

Interactive

More versions @911Tabs.com
852 views 1 this week
no commentswrite comment
1 2 3 4 5
please rate
Autoscroll
+/-
esc
set tempo
stop
Contributor
WARNING: You are trying to view
                                    content from Ultimate-Guitar.com
                                    in an unauthorized application,
                                    which is prohibited.

                                    Please use an official Ultimate
                                    Guitar Tabs application for iPhone,
                                    iPad or Android to access legitimate
                                    chords, guitar, bass, and drum tabs
                                    from Ultimate-Guitar.com database.

                                    Type "ultimate guitar tabs" in Apple
                                    App Store's or Android Market's
                                    search to find the application.
#----------------------------------PLEASE NOTE---------------------------------#
#This file is the author's own work and represents their interpretation of the #
#song. You may only use this file for private study, scholarship, or research. #
#------------------------------------------------------------------------------#

RECIPE FOR HATE...WARHORSE
As recorded by Megadeth
(From the 2001 Album THE WORLD NEEDS A HERO)

Transcribed by Fenian
        

Words and Music by Dave Mustaine


Gtr I (E A D G B E) - 'Untitled'
Gtr II (E A D G B E) - 'Untitled'
Gtr III (E A D G B E) - 'Bass arr. 4 Guitar'
Gtr IV (E A D G B E) - 'Untitled'
Gtr V (E A D G B E) - 'Untitled'
Gtr VI (E A D G B E) - 'Untitled'

   Intro
    Fast Rock Q=180
    Bb5               B5                  C5                D5      D#5
   4/4
    Gtrs I, II
    PM--------------------------------------------------|
    E E E E E E E E   E E E E E E E E  3x E E E E E E E E   E E E E E E E E
||------------------|------------------||-----------------|------------------||
||o-----------------|-----------------o||-----------------|------------------||
||------------------|------------------||-----------------|------------------||
||--3-----3-----3---|-4-----4-----4----||-5-----5-----5---|-7-----7-8-----8--||
||o---1-1---1-1---1-|---2-2---2-2---2-o||---3-3---3-3---3-|---5-5-----6-6----||
||------------------|------------------||-----------------|------------------||


 Verse I
  Q=90
  E5
  Gtrs I, II
  W                   +W
|-------------------|-----------------------|
|-------------------|-----------------------|
|-------------------|-----------------------|
|-2-----------------|-(2)-------------------|
|-2-----------------|-(2)-------------------|
|-0-----------------|-(0)-------------------|
|
| Gtr III
| E E E E E E S S E    E  E E E S S E S S E
|-------------------|-----------------------|
|---3---------------|-----1-----------------|
|-----4-------3h4-3-|-------2-------4-----7-|
|-------5---4-------|---------3-1s2---4h5---|
|-------------------|-----------------------|
|-0-------0---------|--0--------------------|


   >
  +W                    +W
|---------------------|-----------------------|
|---------------------|-----------------------|
|---------------------|-----------------------|
|-(2)-----------------|-(2)-------------------|
|-(2)-----------------|-(2)-------------------|
|-(0)-----------------|-(0)-------------------|
|
|  E  E E E E E S S E    E  E E E S S E S S E
|---------------------|-----------------------|
|-----3---------------|-----1-----------------|
|-------4-------3h4-3-|-------2-------4-----7-|
|---------5---4-------|---------3-1s2---4h5---|
|---------------------|-----------------------|
|--0--------0---------|--0--------------------|


                      <
  W                   W
|-------------------|---------------------|
|-------------------|---------------------|
|-------------------|---------------------|
|-------------------|-2-------------------|
|-------------------|-2-------------------|
|-------------------|-0-------------------|
|
| E E E E E E S S E   E E E E S S E S S E
|-------------------|---------------------|
|---3---------------|---1-----------------|
|-----4-------3h4-3-|-----2-------4-----7-|
|-------5---4-------|-------3-1s2---4h5---|
|-------------------|---------------------|
|-0-------0---------|-0-------------------|


  +W                    +W
|---------------------|-----------------------|
|---------------------|-----------------------|
|---------------------|-----------------------|
|-(2)-----------------|-(2)-------------------|
|-(2)-----------------|-(2)-------------------|
|-(0)-----------------|-(0)-------------------|
|
|  E  E E E E E S S E    E  E E E S S E S S E
|---------------------|-----------------------|
|-----3---------------|-----1-----------------|
|-------4-------3h4-3-|-------2-------4-----7-|
|---------5---4-------|---------3-1s2---4h5---|
|---------------------|-----------------------|
|--0--------0---------|--0--------------------|


  G/E          F#7/E          F/E         E5      G5
  Gtr I
  E   E   Q    E   E   Q      E   E  E  E S S  E   S  S   E
|---------------------------|--------------------------------|
|--------15-----------14----|-------13--------12---------15--|
|---/16-(16)-----/15-(15)---|---/14----14-8s9-(9)-11s12-(12)-|
|---------------------------|--------------------------------|
|---------------------------|--------------------------------|
|---------------------------|--------------------------------|
|
| Gtr II
| E   E   E  E E   E   E  E   E   E  E  E S S  E   S  S   E
|----------------------2--0-|--------------------------------|
|------------3--------------|-----------1--------------------|
|---------4--------3--------|--------2---------4----------7--|
|-----5--------4------------|-----3-------1s2-(2)--4h=5--(5)-|
|---------------------------|--------------------------------|
|-0-------------------------|-0------------------------------|


  G/E          F#7/E          F/E         E5      G5
  E   E   E  E E   E   E  E   E   E  E  E S S  E   S  S   E
|----------------------2--0-|--------------------------------|
|------------3--------------|-----------1--------------------|
|---------4--------3--------|--------2---------4----------7--|
|-----5--------4------------|-----3-------1s2-(2)--4h=5--(5)-|
|---------------------------|--------------------------------|
|-0-------------------------|-0------------------------------|
|
| E   E   Q    E   E   Q      E   E  E  E S S  E   S  S   E
|---------------------------|--------------------------------|
|--------15-----------14----|-------13--------12---------15--|
|---/16-(16)-----/15-(15)---|---/14----14-8s9-(9)-11s12-(12)-|
|---------------------------|--------------------------------|
|---------------------------|--------------------------------|
|---------------------------|--------------------------------|


  G/E          F#7/E          F/E         E5      G5
  E   E   Q    E   E   Q      E   E  E  E S S  E   S  S   E
|---------------------------|--------------------------------|
|--------15-----------14----|-------13--------12---------15--|
|---/16-(16)-----/15-(15)---|---/14----14-8s9-(9)-11s12-(12)-|
|---------------------------|--------------------------------|
|---------------------------|--------------------------------|
|---------------------------|--------------------------------|
|
| E   E   E  E E   E   E  E   E   E  E  E S S  E   S  S   E
|----------------------2--0-|--------------------------------|
|------------3--------------|-----------1--------------------|
|---------4--------3--------|--------2---------4----------7--|
|-----5--------4------------|-----3-------1s2-(2)--4h=5--(5)-|
|---------------------------|--------------------------------|
|-0-------------------------|-0------------------------------|


  G/E          F#7/E          F/E          E
  E   E   E  E E   E   E  E   E   E  E  E  E  E  E E
|----------------------2--0-|--------------------------||
|------------3--------------|-----------1--------0-1---||
|---------4--------3--------|--------2--------1--------||
|-----5--------4------------|-----3--------2-----------||
|---------------------------|--------------------------||
|-0-------------------------|-0------------------------||
|
| E   E   Q    E   E   Q      E   E  E  E  E  E  E E
|---------------------------|--------------------7-8---||
|--------15-----------14----|-------13--------9--------||
|---/16-(16)-----/15-(15)---|---/14----14\-9-(9)-------||
|---------------------------|--------------------------||
|---------------------------|--------------------------||
|---------------------------|--------------------------||


 Acoustic Guitar Solo
  Am7           F#°/A            F/A       E5
  Gtr IV
                                  ~~~
                                                |-3-| |-----6-----|
  E  S  S  E  E  E  S  S  E  E    Q.     E  S S S S S S S   S S S S
|---12-13-12-------------------|----------------------5-7---8-7-5---|
|------------15-13-12-13-------|--------------------5-------------8-|
|------------------------14-13-|-14---------------5-----------------|
|------------------------------|--------------4-7-------------------|
|------------------------------|-----------/5-----------------------|
|------------------------------|------------------------------------|
|
| Gtrs I, II
|                                           PM------------|
| E  E     E  E  E  E     E  E    E  E E E  E   E     S   S   E
|------------------------------|------------------------------------|
|------------------------------|------------------------------------|
|----------5--4-----------5--4-|-------5-4--------------------------|
|----5--------------4----------|-----3------------------------------|
|-0--------------0-------------|--0---------------------------------|
|------------------------------|------------0---0-----3---2---0-----|


  Am7      F#°/A       F/A       E5
  Q.     E S S E E E   S S E E E Q.       E
|-5----------0-------|----------------------|
|----------0---0-0-0-|-0---0-0-0-0----------|
|----------2---4-5-7-|-5s4-2-0-2-1----------|
|--------------------|---------3-2----------|
|--------------------|----------------------|
|--------------------|----------------------|
|
|                                PM-----|
| E  E E E E   E E E   E   E E E E  E S S E
|--------------------|----------------------|
|--------------------|----------------------|
|------5-4-------5-4-|-------5-4------------|
|----5---------4-----|-----3----------------|
|-0--------0---------|-0--------------------|
|--------------------|-----------0--0-3-2-0-|


  Am7           F#°/A               F/A             E5
            ~~~~~~~~
  S T T S S Q   +S  S S S S S S S   S S S S S S S S H
|---------------------------------|-1-0-----------------------|
|-----------------------0-1p0-----|-----3-1-0-----------------|
|-2-2-2-2-1-2---(2)---2-------2-1-|-----------2-1-------------|
|-------------------2-------------|---------------3-2---------|
|---------------------------------|---------------------------|
|---------------------------------|---------------------------|
|
| E     E   E E  E    E   E   E     E   E   E   E   E E S S E
|---------------------------------|---------------------------|
|---------------------------------|---------------------------|
|-----------5-4-----------5---4---|---------5---4-------------|
|-------5-------------4-----------|-----3---------------------|
|-0--------------0----------------|-0-------------------------|
|---------------------------------|-----------------0-0-3-2-0-|


  Am7       F#°/A             F/A             E5
  +Q.     E S S S S S S S S   S S S S S S S S Q.   E
|---------------------------|-------0-3---0----------||
|-------------------------0-|-----3-----6---3-5------||
|---------------------0-----|-4-5--------------------||
|-(2)-----------0---3---7---|------------------------||
|-----------2s3---7---------|------------------------||
|---------------------------|------------------------||
|
|  E  E E E E   E   E   E     E   E   E   E   H
|---------------------------|------------------------||
|---------------------------|------------------------||
|-------5-4---------5---4---|---------5---4----------||
|-----5---------4-----------|-----3------------------||
|--0--------0---------------|-0----------------------||
|---------------------------|-----------------0------||


 Verse II
  N.C.
  Gtr IV
                           >
    W                     +W
|-^<5>-----------------|-(<5>)-------------------|
|-^<5>-----------------|-(<5>)-------------------|
|-^<5>-----------------|-(<5>)-------------------|
|-^<5>-----------------|-(<5>)-------------------|
|-^<5>-----------------|-(<5>)-------------------|
|-^<5>-----------------|-(<5>)-------------------|
|
| Gtrs I, II
|                          >
|   W                     +W
|-^<5>-----------------|-(<5>)-------------------|
|-^<5>-----------------|-(<5>)-------------------|
|-^<5>-----------------|-(<5>)-------------------|
|-^<5>-----------------|-(<5>)-------------------|
|-^<5>-----------------|-(<5>)-------------------|
|-^<5>-----------------|-(<5>)-------------------|
|
| Gtr III
|   E  E E E E E S S E     E   E E E S S E S S E
|----------------------|-------------------------|
|------3---------------|-------1-----------------|
|--------4-------3h4-3-|---------2-------4-----7-|
|----------5---4-------|-----------3-1s2---4h5---|
|----------------------|-------------------------|
|---0--------0---------|---0---------------------|


   +W                     W
|-(<5>)-----------------|---------------------|
|-(<5>)-----------------|---------------------|
|-(<5>)-----------------|---------------------|
|-(<5>)-----------------|---------------------|
|-(<5>)-----------------|---------------------|
|-(<5>)-----------------|---------------------|
|
|  +W                     W
|-(<5>)-----------------|---------------------|
|-(<5>)-----------------|---------------------|
|-(<5>)-----------------|---------------------|
|-(<5>)-----------------|---------------------|
|-(<5>)-----------------|---------------------|
|-(<5>)-----------------|---------------------|
|
|   E   E E E E E S S E   E E E E S S E S S E
|-----------------------|---------------------|
|-------3---------------|---1-----------------|
|---------4-------3h4-3-|-----2-------4-----7-|
|-----------5---4-------|-------3-1s2---4h5---|
|-----------------------|---------------------|
|---0---------0---------|-0-------------------|


                      E5
  Gtrs I, II
                      <
  W                   W
|-------------------|---------------------|
|-------------------|---------------------|
|-------------------|---------------------|
|-------------------|-2-------------------|
|-------------------|-2-------------------|
|-------------------|-0-------------------|
|
| Gtr III
| E E E E E E S S E   E E E E S S E S S E
|-------------------|---------------------|
|---3---------------|---1-----------------|
|-----4-------3h4-3-|-----2-------4-----7-|
|-------5---4-------|-------3-1s2---4h5---|
|-------------------|---------------------|
|-0-------0---------|-0-------------------|


  +W                    +W
|---------------------|-----------------------|
|---------------------|-----------------------|
|---------------------|-----------------------|
|-(2)-----------------|-(2)-------------------|
|-(2)-----------------|-(2)-------------------|
|-(0)-----------------|-(0)-------------------|
|
|  E  E E E E E S S E    E  E E E S S E S S E
|---------------------|-----------------------|
|-----3---------------|-----1-----------------|
|-------4-------3h4-3-|-------2-------4-----7-|
|---------5---4-------|---------3-1s2---4h5---|
|---------------------|-----------------------|
|--0--------0---------|--0--------------------|


  G/E          F#7/E          F/E         E5      G5
  Gtr I
  E   E   Q    E   E   Q      E   E  E  E S S  E   S  S   E
|---------------------------|--------------------------------|
|--------15-----------14----|-------13--------12---------15--|
|---/16-(16)-----/15-(15)---|---/14----14-8s9-(9)-11s12-(12)-|
|---------------------------|--------------------------------|
|---------------------------|--------------------------------|
|---------------------------|--------------------------------|
|
| Gtr II
| E   E   E  E E   E   E  E   E   E  E  E S S  E   S  S   E
|----------------------2--0-|--------------------------------|
|------------3--------------|-----------1--------------------|
|---------4--------3--------|--------2---------4----------7--|
|-----5--------4------------|-----3-------1s2-(2)--4h=5--(5)-|
|---------------------------|--------------------------------|
|-0-------------------------|-0------------------------------|


  G/E          F#7/E          F/E         E5      G5
  E   E   E  E E   E   E  E   E   E  E  E S S  E   S  S   E
|----------------------2--0-|--------------------------------|
|------------3--------------|-----------1--------------------|
|---------4--------3--------|--------2---------4----------7--|
|-----5--------4------------|-----3-------1s2-(2)--4h=5--(5)-|
|---------------------------|--------------------------------|
|-0-------------------------|-0------------------------------|
|
| E   E   Q    E   E   Q      E   E  E  E S S  E   S  S   E
|---------------------------|--------------------------------|
|--------15-----------14----|-------13--------12---------15--|
|---/16-(16)-----/15-(15)---|---/14----14-8s9-(9)-11s12-(12)-|
|---------------------------|--------------------------------|
|---------------------------|--------------------------------|
|---------------------------|--------------------------------|


  G/E          F#7/E
  E   E   Q    E   E   Q
|---------------------------|
|--------15-----------14----|
|---/16-(16)-----/15-(15)---|
|---------------------------|
|---------------------------|
|---------------------------|
|
| E   E   E  E E   E   E  E
|----------------------2--0-|
|------------3--------------|
|---------4--------3--------|
|-----5--------4------------|
|---------------------------|
|-0-------------------------|


  F/E         E5      G5           G/E          F#7/E
  E   E  E  E S S  E   S  S   E    E   E   E  E E   E   E  E
|--------------------------------|----------------------2--0--|
|-------13--------12---------15--|------------3---------------|
|---/14----14-8s9-(9)-11s12-(12)-|---------4--------3---------|
|--------------------------------|-----5--------4-------------|
|--------------------------------|----------------------------|
|--------------------------------|-0--------------------------|
|
| E   E  E  E S S  E   S  S   E    E   E   Q    E   E   Q
|--------------------------------|----------------------------|
|-----------1--------------------|--------15-----------14-----|
|--------2---------4----------7--|---/16-(16)-----/15-(15)----|
|-----3-------1s2-(2)--4h=5--(5)-|----------------------------|
|--------------------------------|----------------------------|
|-0------------------------------|----------------------------|


                                 Electric Guitar Solo
  F/E          E                  Am7           F#°/A
  Gtr I
  E   E  E  E  E   E      E  E    E  E     E  E  E  E     E  E
|------------------------------||------------------------------|
|-----------1-------------0--1-||------------------------------|
|--------2---------1-----------||----------5--4-----------5--4-|
|-----3--------2---------------||----5--------------4----------|
|------------------------------||-0--------------0-------------|
|-0----------------------------||------------------------------|
|
| Gtr II
| E   E  E  E  E   E      E  E    E  E     E  E  E  E     E  E
|-------------------------7--8-||------------------------------|
|-------13---------9-----------||------------------------------|
|---/14----14\-9--(9)----------||----------5--4-----------5--4-|
|------------------------------||----5--------------4----------|
|------------------------------||-0--------------0-------------|
|------------------------------||------------------------------|
|
| Gtr V
|                                          ~~             ~~
| H            E.      S  Q       E  S  S  E  E  E  S  S  E  E
|------------------------------||---12h13-12-------------------|
|------------------------------||------------15-13-12-13-------|
|------------------------------||------------------------14-13-|
|------------------------------||------------------------------|
|------------------------------||------------------------------|
|---------------------12s16\---||------------------------------|


  F/A        E5
              PM------------------|
   E  E E  E  E     E        S    S     E
|------------------------------------------------|
|------------------------------------------------|
|-------5--4-------------------------------------|
|-----3------------------------------------------|
|--0---------------------------------------------|
|-------------0-----0--------3----2-----0--------|
|
|             PM------------------|
|  E  E E  E  E     E        S    S     E
|------------------------------------------------|
|------------------------------------------------|
|-------5--4-------------------------------------|
|-----3------------------------------------------|
|--0---------------------------------------------|
|-------------0-----0--------3----2-----0--------|
|
|  ~~~
|                   |--3--|  |-------6--------|
|  Q.      E  S  S  S  S  S  S  S    S  S  S  S
|------------------------12-17p12----------------|
|---------------------13------------13-----------|
|-14------14-------14------------------14--------|
|---------------14------------------------14-----|
|------------12------------------------------15--|
|------------------------------------------------|


  Am7             F#°/A
  Gtr V
   Q    +E   S  S  S S  S S  S S  S S
|--------------------------------10---|
|-----------------10---12---13--------|
|--------------/9----9----9----9----9-|
|-------------------------------------|
|-12---(12)\--------------------------|
|-------------------------------------|
|
| Gtrs I, II
|  E E   E   E     E    E    E    E
|-------------------------------------|
|-------------------------------------|
|--------5---4---------------5----4---|
|----5------------------4-------------|
|--0---------------0------------------|
|-------------------------------------|


  F/A                        E5
                             ~~
                     |--3--|
   S  S  S  S  S  S  S  S  S Q.       +S   S
|---------------------------------------------|
|-13----10----12----10h12p10-9--------(9)\-x/-|
|----10----10----10---------------------------|
|---------------------------------------------|
|---------------------------------------------|
|---------------------------------------------|
|
|                            PM-----|
|  E     E     E     E       E  E S S  E
|---------------------------------------------|
|---------------------------------------------|
|--------------5-----4------------------------|
|--------3------------------------------------|
|--0------------------------------------------|
|----------------------------0--0-3-2--0------|


  Am7                 F#°/A
   S  T  T  S  S  Q    +S   S  S  S  S  S  S  S
|-----------------------------------------------|
|--------------------------------12-13p12-------|
|-14-14-14-14-13-14---(14)----14----------14p13-|
|--------------------------14-------------------|
|-----------------------------------------------|
|-----------------------------------------------|
|
|  E        E     E E   E      E     E     E
|-----------------------------------------------|
|-----------------------------------------------|
|-----------------5-4----------------5-----4----|
|-----------5------------------4----------------|
|--0--------------------0-----------------------|
|-----------------------------------------------|


  F/A                                    E5
                                          ~~~
   |------6-------|  |--------6--------|
   S  S  S  S  S  S  S  S  S  S  S  T  T  Q.        +E
|-12h13----12---------------------------------------------|
|-------15----15p13-12h13----12---------------------------|
|-------------------------14----14-13---------------------|
|-------------------------------------15-14--------(14)\--|
|---------------------------------------------------------|
|---------------------------------------------------------|
|
|  E        E        E        E           E  E S S   E
|---------------------------------------------------------|
|---------------------------------------------------------|
|--------------------5--------4---------------------------|
|-----------3---------------------------------------------|
|--0------------------------------------------------------|
|-----------------------------------------0--0-3-2---0----|


  Am7              F#°/A
   ~~~
                    |---3---|  |---3---|
   E.    S  +E   E  E  E    E  E  E    E
|----------------------------------------|
|----------------------------------------|
|-----------------------------12s14---16-|
|------------------12-14---15------------|
|-12----14-(14)-15-----------------------|
|----------------------------------------|
|
|  E  E      E   E  E    E     E    E
|----------------------------------------|
|----------------------------------------|
|------------5---4-------------5----4----|
|-----5------------------4---------------|
|--0----------------0--------------------|
|----------------------------------------|


  H=H
  F/A
 2/4
   T  T  T  T  T  T  T  T  T  T  T  T  T  T  T  T
|----------------------------------17-19-20-22-22--||
|-------------------------17S18-20-----------------||
|-17-16----------16-17-19--------------------------||
|-------19-18-19-----------------------------------||
|--------------------------------------------------||
|--------------------------------------------------||
|
|  E           E           E           E
|--------------------------------------------------||
|--------------------------------------------------||
|--------------------------5-----------4-----------||
|--------------3-----------------------------------||
|--0-----------------------------------------------||
|--------------------------------------------------||


 Interlude
  Q=100                                           H=H
  N.C.
 4/4
                               >
                                                   ~~~~~~~~~~~
                                          |--3--|
   W                          +Q.         S  S  S  Q      +E.      +S
|-22b24====================|=(22)r-------19h24p19-19-----(19)-----(19)\-||
|--------------------------|--------------------------------------------||
|--------------------------|--------------------------------------------||
|--------------------------|--------------------------------------------||
|--------------------------|--------------------------------------------||
|--------------------------|--------------------------------------------||
|
|  PM-----------------------------------------------------------|
|  E     E S S E E E S S E     E   E S S  E        S S E   S  S E
|--------------------------|--------------------------------------------||
|--------------------------|--------------------------------------------||
|--------------------------|--------------------------------------------||
|--------------------------|--------------------------------------------||
|--------------------------|--------------------------------------------||
|--0-----0-3-2-0-0-0-5-3-0-|---0---0-3-2--0--------5-3-0---3--2-0-------||


  Q=110
  Gtrs I, II
  PM----------------------------------------|
  E E S S E E E S S E   E E S S E S S E S S E
|---------------------|-----------------------||
|---------------------|-----------------------||
|---------------------|-----------------------||
|---------------------|-----------------------||
|---------------------|-----------------------||
|-0-0-3-2-0-0-0-5-3-0-|-0-0-3-2-0-5-3-0-3-2-0-||


  H=H
  PM----------------------------------------|
  E E S S E E E S S E   E E S S E S S E S S E
|---------------------|-----------------------|
|---------------------|-----------------------|
|---------------------|-----------------------|
|---------------------|-----------------------|
|---------------------|-----------------------|
|-0-0-3-2-0-0-0-5-3-0-|-0-0-3-2-0-5-3-0-3-2-0-|


                                          F#5
  PM------------------------------------|
  E E S S E E E S S E   E E S S E S S E E E
|---------------------|---------------------|
|---------------------|---------------------|
|---------------------|---------------------|
|---------------------|-------------------4-|
|---------------------|-------------------4-|
|-0-0-3-2-0-0-0-5-3-0-|-0-0-3-2-0-5-3-0-3-2-|


 Bridge
  Q=150
           G     F#5           G
       PM|     PM        PM--|
  +Q   E E E E E E   +E  E E E S S E E E
|------------------|---------------------|
|------------------|---------------------|
|------------------|---------------------|
|-(4)------------4-|-(4)-----------------|
|-(4)--------2---4-|-(4)-----------2---2-|
|-(2)--2-2-3---0-2-|-(2)-2-2-2-0h3-----3-|


  F#5    G     F#5           G
     PM|     PM        PM--|
  Q  E E E E E E   +E  E E E S S E E E
|----------------|-----------------------|
|----------------|-----------------------|
|----------------|-----------------------|
|-4------------4-|-(4)-------------------|
|-4--------2---4-|-(4)-----------2---2---|
|-2--2-2-3---0-2-|-(2)-2-2-2-0h3-----3---|


  N.C.                                                  Bb5
  Gtr V
  ~~           ~~~~~~             ~~           ~~~~~~
  E.   S +E    E +S  E.   E   E   E.   S +E    E +S  E.    E E
|-------------------------------|------------------------------|
|-------------------------------|------------------------------|
|-------------------------------|------------------------------|
|-------------------------6-----|-7----6-(6)--------------10-9-|
|-7----5-(5)---8-(8)-7--------8-|--------------8-(8)-7---------|
|-------------------------------|------------------------------|
|
| Gtrs I, II
| PM---------------------------------------------|         PM
| E  E    S  S E  E     E S S E   E  E    S  S E  E     E  E E
|-------------------------------|------------------------------|
|-------------------------------|------------------------------|
|-------------------------------|------------------------------|
|-------------------------------|-----------------------8----8-|
|-------------------------------|-----------------------8----8-|
|-0--0----3--2-0--0-----0-5-3-0-|-0--0----3--2-0--0-----6--0-6-|


  N.C.                                                         Bb5
   ~~~           ~~~~~~~               ~~~           ~~~~~~~
   E.   S +E     E  +S  E.    E   E    E.   S +E     E  +S  E.    E E
|-----------------------------------|---------------------------------|
|-----------------------------------|-10----9-(9)---------------------|
|-10----9-(9)----------------10---9-|---------------10-(10)-9---------|
|---------------10-(10)-9-----------|----------------------------10-9-|
|-----------------------------------|---------------------------------|
|-----------------------------------|---------------------------------|
|
|  PM--------------------------------------------------|          PM
|  E  E    S  S  E   E     E  S S E    E  E    S  S  E   E     E  E E
|-----------------------------------|---------------------------------|
|-----------------------------------|---------------------------------|
|-----------------------------------|---------------------------------|
|-----------------------------------|--------------------------8----8-|
|-----------------------------------|--------------------------8----8-|
|--0--0----3--2--0---0-----0--5-3-0-|--0--0----3--2--0---0-----6--0-6-|


  F#5                  G        F#5            G
                                      >
   ~~~              ~~~~~~~~~~~~~~~~~~~~~~~~~~~~~~~~~~~~~~
   Q.      a       +E   +H           +W
|---------------------------------|----------------------|
|---------------------------------|----------------------|
|---------------------------------|----------------------|
|-11-----(11)b12==(11)-(11)-------|-(11)-----------------|
|---------------------------------|----------------------|
|---------------------------------|----------------------|
|
|      PM---------|           PM         PM--|
|  Q   E            E    E  E E E    +E  E E E S S E E E
|---------------------------------|----------------------|
|---------------------------------|----------------------|
|---------------------------------|----------------------|
|--4----------------------------4-|--(4)-----------------|
|--4------------------------2---4-|--(4)-----------2---2-|
|--2---2------------2----3----0-2-|--(2)-2-2-2-0h3-----3-|


  F#5        G     F#5           G
 ~~~~~~~
   +W                   W
|--------------------|----------------------|
|--------------------|----------------------|
|--------------------|----------------------|
|-(11)r--------------|----------------------|
|--------------------|----------------------|
|--------------------|----------------------|
|
|        PM|     PM        PM--|
|   Q    E E E E E E   +E  E E E S S E E E
|--------------------|----------------------|
|--------------------|----------------------|
|--------------------|----------------------|
|---4--------------4-|-(4)------------------|
|---4----------2---4-|-(4)-----------2---2--|
|---2----2-2-3---0-2-|-(2)-2-2-2-0h3-----3--|


         N.C.                                                Bb5
                                           ~~~~~~~~~~~~~~~~~~
   a      +H           +Q.            E    Q.        E  +Q.      E
|---------------------------------------|--------------------------|
|-11pb12r(11)---------(11)b12========11-|-11--------11-(11)r-------|
|---------------------------------------|--------------------------|
|---------------------------------------|--------------------------|
|---------------------------------------|--------------------------|
|---------------------------------------|--------------------------|
|
|          PM------------------------------------------|       PM
|          E  E S S E   E      E S S  E    E  E S S  E   E   E E E
|---------------------------------------|--------------------------|
|---------------------------------------|--------------------------|
|---------------------------------------|--------------------------|
|---------------------------------------|--------------------8---8-|
|---------------------------------------|--------------------8---8-|
|----------0--0-3-2-0---0------0-5-3--0-|--0--0-3-2--0---0---6-0-6-|


  N.C.
   S  S  e  S  S  e  S  S  S  S  S  S  S  S
|-------------------------------------------|
|-------------------------------------------|
|----------------------------12-14p12----12-|
|----------10-10-------10h12----------14----|
|-10-10-12-------12-12----------------------|
|-------------------------------------------|
|
|  PM----------------------------------------
|  E     E  S  S  E  E     E     S  S  E
|-------------------------------------------|
|-------------------------------------------|
|-------------------------------------------|
|-------------------------------------------|
|-------------------------------------------|
|--0-----0--3--2--0--0-----0-----5--3--0----|


                                Bb5
   S  S  S  S  S  S  S  S  S  S  S  S  S  S  S  S
|----------------------------------12-------------|
|-------12----------------12h14h15----15-14p12s14-|
|-14h15----15p14p12-14h15-------------------------|
|-------------------------------------------------|
|-------------------------------------------------|
|-------------------------------------------------|
|
|-------------------------|            PM
|  E     E     S  S  E     E     E     E     E
|-------------------------------------------------|
|-------------------------------------------------|
|-------------------------------------------------|
|--------------------------------8-----------8----|
|--------------------------------8-----------8----|
|--0-----0-----3--2--0-----0-----6-----0-----6----|


  F#5         G        F#5              G
                                          >
   ~~~~~~~~~~~~~~~~              ~~~~~~~~~~~~~~~~~~~~
   H           +H           +E   Q.      +H
|------------------------|--------------------------|
|-17b19=======(17)-------|-(17)-17------(17)--------|
|------------------------|--------------------------|
|------------------------|--------------------------|
|------------------------|--------------------------|
|------------------------|--------------------------|
|
|         PM|        PM          PM---|
|  Q      E E   E  E E E    +E   E  E E   S S E E E
|------------------------|--------------------------|
|------------------------|--------------------------|
|------------------------|--------------------------|
|--4-------------------4-|--(4)---------------------|
|--4---------------2---4-|--(4)---------------2---2-|
|--2------2-2---3----0-2-|--(2)--2--2-2---0h3-----3-|


  F#5        G     F#5           G
 ~~~~~~~
   +W                   H        Q     E S S
|--------------------|------------------------|
|-(17)r--------------|-------------------7h8--|
|--------------------|------------------------|
|--------------------|------------------------|
|--------------------|------------------------|
|--------------------|------------------------|
|
|        PM|     PM        PM--|
|   Q    E E E E E E   +E  E E E S S E E E
|--------------------|------------------------|
|--------------------|------------------------|
|--------------------|------------------------|
|---4--------------4-|-(4)--------------------|
|---4----------2---4-|-(4)-----------2---2----|
|---2----2-2-3---0-2-|-(2)-2-2-2-0h3-----3----|


  N.C.                                                         Bb5
                               |--3--|                             |-3-|
   S S S  S S S  S S S  S S S  S S   S E   S S S S S S S S S S S S S S S E
|----------------------------------------|----------------------------------|
|-10p7---10p7---10p7---10p7---10p7-------|-9p7---9p7---9p7---9p7---9p7------|
|------9------9------9------9--------9p7-|-----9-----9-----9-----9-----9p7--|
|----------------------------------------|----------------------------------|
|----------------------------------------|----------------------------------|
|----------------------------------------|----------------------------------|
|
|  PM------------------------------------------------------|       PM
|  E   E    S S  E   E    E    S   S   E   E   E   S S E   E   E   E     E
|----------------------------------------|----------------------------------|
|----------------------------------------|----------------------------------|
|----------------------------------------|----------------------------------|
|----------------------------------------|---------------------8---------8--|
|----------------------------------------|---------------------8---------8--|
|--0---0----3-2--0---0----0----5---3---0-|-0---0---3-2-0---0---6---0-----6--|


  N.C.                                                         Bb5
                               |--3--|                             |-3-|
   S S S  S S S  S S S  S S S  S S   S E   S S S S S S S S S S S S S S S E
|----------------------------------------|----------------------------------|
|-10p7---10p7---10p7---10p7---10p7-------|-9p7---9p7---9p7---9p7---9p7------|
|------9------9------9------9--------9p7-|-----9-----9-----9-----9-----9p7--|
|----------------------------------------|----------------------------------|
|----------------------------------------|----------------------------------|
|----------------------------------------|----------------------------------|
|
|  PM------------------------------------------------------|       PM
|  E   E    S S  E   E    E    S   S   E   E   E   S S E   E   E   E     E
|----------------------------------------|----------------------------------|
|----------------------------------------|----------------------------------|
|----------------------------------------|----------------------------------|
|----------------------------------------|---------------------8---------8--|
|----------------------------------------|---------------------8---------8--|
|--0---0----3-2--0---0----0----5---3---0-|-0---0---3-2-0---0---6---0-----6--|


  F#5    G     F#5           G
  W                +W
|----------------|---------------------|
|----------------|---------------------|
|-6--------------|-(6)-----------------|
|----------------|---------------------|
|----------------|---------------------|
|----------------|---------------------|
|
|    PM|     PM        PM--|
| Q  E E E E E E   +E  E E E S S E E E
|----------------|---------------------|
|----------------|---------------------|
|----------------|---------------------|
|-4------------4-|-(4)-----------------|
|-4--------2---4-|-(4)-----------2---2-|
|-2--2-2-3---0-2-|-(2)-2-2-2-0h3-----3-|


  F#5      G     F#5           G
   >
  +W                 +H        Q     E E
|------------------|-----------------------||
|------------------|-----------------------||
|-(6)--------------|-(6)---------------6---||
|------------------|-----------------------||
|------------------|-----------------------||
|------------------|-----------------------||
|
|      PM|     PM        PM--|
|  Q   E E E E E E   +E  E E E S S E E E
|------------------|-----------------------||
|------------------|-----------------------||
|------------------|-----------------------||
|--4-------------4-|-(4)-------------------||
|--4---------2---4-|-(4)-----------2---2---||
|--2---2-2-3---0-2-|-(2)-2-2-2-0h3-----3---||


   Interlude
    Faster Q=168
    B5A5  G5N.C.F#N.C.  G5N.C.F#5 G5    B5A5  G5N.C.F#N.C.  F5N.C.
    Gtrs I, II
        PM  PM|   PM--|   PM|   PM  PM      PM  PM|   PM--|   PM--------|
    E E E E E E E E   E E E E E E E E   E E E E E E E E   E E E E E E E E
||------------------|-----------------|-----------------|-------------------||
||o-----------------|-----------------|-----------------|------------------o||
||------------------|-----------------|-----------------|-------------------||
||--9s7---5-----4---|---5-----4---5---|-9s7---5-----4---|---3---------------||
||o-9s7---5-----4---|---5-----4---5---|-9s7---5-----4---|---3--------------o||
||--7s5-0-3-0-0-2-0-|-0-3-0-0-2-0-3-0-|-7s5-0-3-0-0-2-0-|-0-1-0-0-0-0-0-0---||


 Guitar Solo
  B5     A5  G5N.C.       F#N.C.         G5N.C.F#5        G5
  Gtr V
                 \1.5                            |
   H            +H               +H             +Q         S  S  E
|-----------------------------|------------------------------------|
|-12tr15-------(12tr15)-------|-(12tr15)-------(12tr15)---15p12h15-|
|-----------------------------|------------------------------------|
|-----------------------------|------------------------------------|
|-----------------------------|------------------------------------|
|-----------------------------|------------------------------------|
|
| Gtrs I, II
|          PM    PM-----|   PM--|          PM|          PM       PM
|  E     E E E   E      E E E     E      E E E   E      E  E     E
|-----------------------------|------------------------------------|
|-----------------------------|------------------------------------|
|-----------------------------|------------------------------------|
|--9s====7---5------------4---|----------5-------4---------5-------|
|--9s====7---5------------4---|----------5-------4---------5-------|
|--7s====5-0-3---0------0-2-0-|---0------3-0-0---2------0--3-----0-|


  B5    A5   G5     N.C.     F#5N.C.          F5N.C.
              ~~~~~~
   Q       E  E      +E    E  E  E        +H         +Q.      +E
|---------12-12-----(12)--12----13-----|-(13)-------(13)-----(13)\--|
|-15b17------15b17==(15)r----15-16b18==|=(16)-------(16)-----(16)r\-|
|--------------------------------------|----------------------------|
|--------------------------------------|----------------------------|
|--------------------------------------|----------------------------|
|--------------------------------------|----------------------------|
|
|          PM         PM--|      PM------|      PM-----------|
|  E    E  E  E       E    E  E  E         E  E E E   E  E E   E
|--------------------------------------|----------------------------|
|--------------------------------------|----------------------------|
|--------------------------------------|----------------------------|
|--9s===7-----5---------------4--------|------3---------------------|
|--9s===7-----5---------------4--------|------3---------------------|
|--7s===5--0--3-------0----0--2--0-----|---0--1-0-0---0--0-0---0----|


  B5    A5  G5     N.C.    F#5    N.C.      G5    N.C.F#5     G5
   Q.        E      +Q      Q          +E    Q.        Q.        E
|-17b18-----17b19==(17)r---17b19====|=(17)r-17b19-----17b19r====17-|
|-----------------------------------|------------------------------|
|-----------------------------------|------------------------------|
|-----------------------------------|------------------------------|
|-----------------------------------|------------------------------|
|-----------------------------------|------------------------------|
|
|         PM         PM--|        PM--|           PM|       PM   PM
|  E    E E  E       E   E  E     E     E    E    E E  E    E E  E
|-----------------------------------|------------------------------|
|-----------------------------------|------------------------------|
|-----------------------------------|------------------------------|
|--9s===7----5--------------4-------|--------5---------4------5----|
|--9s===7----5--------------4-------|--------5---------4------5----|
|--7s===5-0--3-------0---0--2-----0-|---0----3----0-0--2----0-3--0-|


  B5    A5          G5 N.C.        F#5   N.C.
                                          |--3--|
   S  S  S  S  S  S  E  S  S  S  S  S  S  S  S  S
|-17p15----15S12-12----12-------------------------|
|-------17----------15----15-12-15p12-12----------|
|----------------------------------------15p14p12-|
|-------------------------------------------------|
|-------------------------------------------------|
|-------------------------------------------------|
|
|              PM       PM---|            PM-------
|  E     E     E     E  E     E     E     E
|-------------------------------------------------|
|-------------------------------------------------|
|-------------------------------------------------|
|--9s====7-----------5--------------4-------------|
|--9s====7-----------5--------------4-------------|
|--7s====5-----0-----3--0-----0-----2-----0-------|


        F5       N.C.
         |--3--|
   S  S  S  S  S  S  S  S  S  S  S  S  S  S E    S
|---------------------------------------------------||
|----------12h15p12---------------------------------||
|-12h14h15----------15p14p12-14-15-14p12------------||
|----------------------------------------15-----14--||
|---------------------------------------------------||
|---------------------------------------------------||
|
|-|               PM--------------------------|
|  E     E        E     E     E     E     E   E
|---------------------------------------------------||
|---------------------------------------------------||
|---------------------------------------------------||
|--------3------------------------------------------||
|--------3------------------------------------------||
|--0-----1--------0-----0-----0-----0-----0---0-----||


  F#5
   S  S S  S S  S S S E   S  S S  S E
|-------------------------------------|
|-10h12-9-10-9--------------10--------|
|--------------11-9-9-9---9----9------|
|--------------------------------11-9-|
|-------------------------------------|
|-------------------------------------|
|
|       PM        PM----------------|
|  E    E    E    E   S S E    S  S E
|-------------------------------------|
|-------------------------------------|
|-------------------------------------|
|--4---------4------------------------|
|--4---------4------------------------|
|--2----2----2----2---2-2-2----2--2-2-|


   S  S S  S  S S  S  S  S  S S  S  S  S S  S
|---------------------------------------------|
|---------------------------------------------|
|---------------------------------------------|
|-12-10-9----11-9-----------------------------|
|---------12------12-11-12-11-9----11----9-11-|
|-------------------------------12----12------|
|
|       PM         PM--------------------|
|  E    E     E    E     S  S E     S  S E
|---------------------------------------------|
|---------------------------------------------|
|---------------------------------------------|
|--4----------4-------------------------------|
|--4----------4-------------------------------|
|--2----2-----2----2-----2--2-2-----2--2-2----|


  G5
   S S  S  S S  S S  S  S S S  S S S  S S
|-------------------------9-9------7------|
|-----------------9-10-12-----12-----10p7-|
|------------9-11-------------------------|
|----9-11-12------------------------------|
|-12--------------------------------------|
|-----------------------------------------|
|
|       PM        PM-----------------|
|  E    E    E    E     S S E    S S  E
|-----------------------------------------|
|-----------------------------------------|
|-----------------------------------------|
|--5---------5----------------------------|
|--5---------5----------------------------|
|--3----3----3----3-----3-3-3----3-3--3---|


  E5                      G5
    S S   S  S   S  S  E    S  S  S  S  S  S  E
|-----------------------------14----------------|
|-----8-----10-----14-----/14----17p14----14-14-|
|-/11---/12----/16----16\--------------16-------|
|-----------------------------------------------|
|-----------------------------------------------|
|-----------------------------------------------|
|
|         PM           PM         PM          PM
|   E     E      E     E    E     E     E     E
|-----------------------------------------------|
|-----------------------------------------------|
|-----------------------------------------------|
|---2------------2----------5-----------5-------|
|---2------------2----------5-----------5-------|
|---0-----0------0-----0----3-----3-----3-----3-|


  F#5
                                                        ~~~~~~~
   Q.         E   S  S  S  S      +Q         +E   E  E  E  +E     +E   E    E
|----------------14-----------------------|-----------------------------------|
|-17b20======17r----17-14-19b23==(19)r====|=(19)p17-17-17-(17)---(17)\-5s==17-|
|-----------------------------------------|-----------------------------------|
|-----------------------------------------|-----------------------------------|
|-----------------------------------------|-----------------------------------|
|-----------------------------------------|-----------------------------------|
|
|        PM   PM------------------------|         PM    PM-----------------|
|  E     E E  E   S  S  E          S  S E     E   E  E  E   S  S   E   S S  E
|-----------------------------------------|-----------------------------------|
|-----------------------------------------|-----------------------------------|
|-----------------------------------------|-----------------------------------|
|--4-------4------------------------------|---4------4------------------------|
|--4-------4------------------------------|---4------4------------------------|
|--2-----2-2--2---2--2--2----------2--2-2-|---2---2--2--2---2--2---2---2-2--2-|


  G5
                              |--3--|  |---3---|
   S  S  E  S  S  S  S  S  S  S  S  S  S  S    S  S  S
|-18p14----17p14-17p14----14----------14---------------|
|-------17-------------17----17p14---------------------|
|----------------------------------17----17p==16p14----|
|---------------------------------------------------16-|
|------------------------------------------------------|
|------------------------------------------------------|
|
|        PM       PM-----------------------------|
|  E     E  E     E     S  S  E        S    S     E
|------------------------------------------------------|
|------------------------------------------------------|
|------------------------------------------------------|
|--5--------5------------------------------------------|
|--5--------5------------------------------------------|
|--3-----3--3-----3-----3--3--3--------3----3-----3----|


  E5                                 G5
                                            |--3--|
   S  S   S        +S     S  S  S  S  S  S  S  S  S  S  S  S  S
|------------------------------------------------------17-17-19-|
|---------------------------------------------17h18h19----------|
|-16----[14]b16==([14])r-------------14-16s18-------------------|
|----16------------------16-14h15h17----------------------------|
|---------------------------------------------------------------|
|---------------------------------------------------------------|
|
|         PM                    PM          PM             PM
|  E      E               E     E     E     E        E     E
|---------------------------------------------------------------|
|---------------------------------------------------------------|
|---------------------------------------------------------------|
|--2----------------------2-----------5--------------5----------|
|--2----------------------2-----------5--------------5----------|
|--0------0---------------0-----0-----3-----3--------3-----3----|


    F#5
    Gtr V
     S S S S  S S  S S S S  S S  S S S S
||---9p5---5--9p5--9p5---5h=9-5h=9-5---5-|
||o------7-------------7-------------7---|
||---------------------------------------|
||---------------------------------------|
||o--------------------------------------|
||---------------------------------------|
|
|   Gtr VI
|    S S S S  S S  S S S S  S S  S S S S
||---------------------------------------|
||o-10p7---7-10p7-10p7---7-10p7-10p7---7-|
||-------9-------------9-------------9---|
||---------------------------------------|
||o--------------------------------------|
||---------------------------------------|
|
|   Gtrs I, II
|        PM        PM----------------|
|    E   E    E    E   S S  E    S S E
||---------------------------------------|
||o--------------------------------------|
||---------------------------------------|
||---4--------4--------------------------|
||o--4--------4--------------------------|
||---2---2----2----2---2-2--2----2-2-2---|


   S S S S  S S  S S S S  S S  S S S S
|--9p5---5--9p5--9p5---5h=9-5h=9-5---5-|
|------7-------------7-------------7---|
|--------------------------------------|
|--------------------------------------|
|--------------------------------------|
|--------------------------------------|
|
|  S S S S  S S  S S S S  S S  S S S S
|--------------------------------------|
|-10p7---7-10p7-10p7---7-10p7-10p7---7-|
|------9-------------9-------------9---|
|--------------------------------------|
|--------------------------------------|
|--------------------------------------|
|
|      PM        PM----------------|
|  E   E    E    E   S S  E    S S E
|--------------------------------------|
|--------------------------------------|
|--------------------------------------|
|--4--------4--------------------------|
|--4--------4--------------------------|
|--2---2----2----2---2-2--2----2-2-2---|


  G5
   S S  S S  S S  S S  S S  S S  S S  S S
|-10p6----6-10p6-10p6----6-10p6-10p6------|
|-------8--------------8--------------8---|
|-----------------------------------------|
|-----------------------------------------|
|-----------------------------------------|
|-----------------------------------------|
|
|  S S  S S  S S  S S  S S  S S  S S  S S
|-----------------------------------------|
|-11p8----8-11p8-11p8----8-11p8-11p8------|
|------10-------------10-------------10---|
|-----------------------------------------|
|-----------------------------------------|
|-----------------------------------------|
|
|       PM        PM-----------------|
|  E    E    E    E    S S  E    S S  E
|-----------------------------------------|
|-----------------------------------------|
|-----------------------------------------|
|--5---------5----------------------------|
|--5---------5----------------------------|
|--3----3----3----3----3-3--3----3-3--3---|


 1.
  E5                   G5
  S  S  S S  S  S S  S S  S  S S  S  S S  S
|------------------------------8-11-10-8------||
|---------8-11-10-8----8-10-11-----------10--o||
|-8-10-11-----------10------------------------||
|---------------------------------------------||
|--------------------------------------------o||
|---------------------------------------------||
|
| S  S  S S  S  S S  S S  S  S S  S  S S  S
|---------------------------------------------||
|------------------------------8-11-10-8-----o||
|---------7-10--9-7----7--9-10------------9---||
|-8-10-11-----------10------------------------||
|--------------------------------------------o||
|---------------------------------------------||
|
|       PM        PM         PM        PM
| E     E    E    E    E     E    E    E
|---------------------------------------------||
|--------------------------------------------o||
|---------------------------------------------||
|-2----------2---------5----------5-----------||
|-2----------2---------5----------5----------o||
|-0-----0----0----0----3-----3----3----3------||


  2.
  E5                   G5
   S  S S  S  S S  S S S  S E    S S E
|-10--8-6-----8-6------6------------------||
|---------10------10-8---10-8---10-7-9----||
|-----------------------------------------||
|-----------------------------------------||
|-----------------------------------------||
|-----------------------------------------||
|
|  S  S S  S  S S  S S S  S S S  S S S  S
|-----------------------------------------||
|-11-10-8----10-8------8------------------||
|---------10------10-9---10-9-7-10-9-7----||
|--------------------------------------10-||
|-----------------------------------------||
|-----------------------------------------||
|
|       PM         PM       PM       PM
|  E    E     E    E   E    E    E   E
|-----------------------------------------||
|-----------------------------------------||
|-----------------------------------------||
|--2----------2--------5---------5--------||
|--2----------2--------5---------5--------||
|--0----0-----0----0---3----3----3---3----||


  B5    A5          G5    N.C.        F#5   N.C.
  Gtr V
   S  S  S  S  S  S  S  S  S  S  S  S  S  S  S  S
|-------------------------------------------------|
|-15p12----15p12----15p12----15p12----17p12----12-|
|-------15-------15-------15-------15-------15----|
|-------------------------------------------------|
|-------------------------------------------------|
|-------------------------------------------------|
|
| Gtrs I, II
|              PM          PM---|            PM----
|  E     E     E     E     E     E     E     E
|-------------------------------------------------|
|-------------------------------------------------|
|-------------------------------------------------|
|--9s====7-----------5-----------------4----------|
|--9s====7-----------5-----------------4----------|
|--7s====5-----0-----3-----0-----0-----2-----0----|


        G5    N.C.        F#5            G5
                                 |--3--|
   S  S  S  S  S  S  S  S  S  S  S  S  S  S  S  S  S
|-----------------------------------------------------|
|-15p12----15p12----16p12-15-16p12----12-17p12----12--|
|-------15-------15----------------15----------15-----|
|-----------------------------------------------------|
|-----------------------------------------------------|
|-----------------------------------------------------|
|
|-|            PM---|            PM             PM
|  E     E     E     E     E     E        E     E
|-----------------------------------------------------|
|-----------------------------------------------------|
|-----------------------------------------------------|
|--------5-----------------4--------------5-----------|
|--------5-----------------4--------------5-----------|
|--0-----3-----0-----0-----2-----0--------3-----0-----|


  B5       A5          G5    N.C.        F#5   N.C.
   |--3--|
   S  S  S  S  S  S  S  S  S  S  S  S  S  S  S  E
|-------------------------------------------------|
|-15p12----12-17p12----15p12-12-17p12-15-17p12-15-|
|-------15----------15----------------------------|
|-------------------------------------------------|
|-------------------------------------------------|
|-------------------------------------------------|
|
|                 PM          PM---|            PM-
|  E        E     E     E     E     E     E     E
|-------------------------------------------------|
|-------------------------------------------------|
|-------------------------------------------------|
|--9s=======7-----------5-----------------4-------|
|--9s=======7-----------5-----------------4-------|
|--7s=======5-----0-----3-----0-----0-----2-----0-|


        F5    N.C.
                                 |--3--|
   S  S  S  S  S  S  S  S  S  S  S  S  S  S  S  S  S
|-17-12---------------------------------------------------|
|-------15p12----12-15p12---------------------------------|
|-------------14----------14-15-15p14p12-12-12-14-14b16===|
|---------------------------------------------------------|
|---------------------------------------------------------|
|---------------------------------------------------------|
|
|-|            PM------------------------------|
|  E     E     E     E     E     E        E     E
|---------------------------------------------------------|
|---------------------------------------------------------|
|---------------------------------------------------------|
|--------3------------------------------------------------|
|--------3------------------------------------------------|
|--0-----1-----0-----0-----0-----0--------0-----0---------|


  B5  A5  G5N.C.  F#5   N.C.
   +H        Q     S  S  S  S
|-----------------------------|
|-----------------------------|
|-(14)------14r------------12-|
|-----------------12-13-14----|
|-----------------------------|
|-----------------------------|
|
|       PM   PM-|        PM----
|   E E E E  E  E  E     E
|-----------------------------|
|-----------------------------|
|-----------------------------|
|---9s7---5--------4----------|
|---9s7---5--------4----------|
|---7s5-0-3--0--0--2-----0----|


           G5        N.C.    F#5      G5
   S  E       S       +E   E  E.    S  +S   E     S
|----------------------------------------------------|
|----------------------------------------------------|
|-14-14b15---14pb16==(14)-14-14----14-(14)-14r---12h=|
|----------------------------------------------------|
|----------------------------------------------------|
|----------------------------------------------------|
|
|-|                    PM-|      PM            PM
|  E       E           E   E  E  E      E      E
|----------------------------------------------------|
|----------------------------------------------------|
|----------------------------------------------------|
|----------5------------------4---------5------------|
|----------5------------------4---------5------------|
|--0-------3-----------0---0--2--0------3------0-----|


  B5    A5          G5    N.C.                F#5       N.C.
                           /0.5\     /0.5\     /0.5\     /0.5\
   S  S  S  S  S  S  S  S  S      S  S      S  S      S  S      S
|-----------------------------------------------------------------|
|-----------------------------------------------------------------|
|-14p12h14p12h14p12h14p12h14p====12h14p====12h14p====12h14p====12h|
|-----------------------------------------------------------------|
|-----------------------------------------------------------------|
|-----------------------------------------------------------------|
|
|              PM          PM-------|                    PM--------
|  E     E     E     E     E         E         E         E
|-----------------------------------------------------------------|
|-----------------------------------------------------------------|
|-----------------------------------------------------------------|
|--9s====7-----------5-------------------------4------------------|
|--9s====7-----------5-------------------------4------------------|
|--7s====5-----0-----3-----0---------0---------2---------0--------|


            F5        N.C.
   /0.5\     /0.5\     /0.5\     /0.5\     /0.5\     /0.5\     /0.5\     /0.5\
   S      S  S      S  S      S  S      S  S      S  S      S  S      S  S      S
|---------------------------------------------------------------------------------|
|---------------------------------------------------------------------------------|
|-14p====12h14p====12h14p====12h14p====12h14p====12h14p====12h14p====12h14p====12-|
|---------------------------------------------------------------------------------|
|---------------------------------------------------------------------------------|
|---------------------------------------------------------------------------------|
|
|-|                    PM-----------------------------------------------|
|  E         E         E         E         E         E         E         E
|---------------------------------------------------------------------------------|
|---------------------------------------------------------------------------------|
|---------------------------------------------------------------------------------|
|------------3--------------------------------------------------------------------|
|------------3--------------------------------------------------------------------|
|--0---------1---------0---------0---------0---------0---------0---------0--------|


  B5 A5  G5 N.C.  F#N.C.    G5    N.C.    F#5        G5
                          ~~
   Q.     E  Q.      E    E  S  S  +E   E  S  E    S  E  E
|----------------------|-----------------------------------|
|-12--------12---------|-12-14-14-(14)-12-14-14---12-12----|
|-12--------12---------|-12-14-14-(14)-12-14-14---12-12----|
|-------------------14-|--------------------------------14-|
|--------14------------|-----------------------------------|
|----------------------|-----------------------------------|
|
|      PM    PM-|    PM--|          PM-|        PM       PM
|  E E E  E  E  E E  E    E  E      E   E  E    E     E  E
|----------------------|-----------------------------------|
|----------------------|-----------------------------------|
|----------------------|-----------------------------------|
|--9s7----5-------4----|-----5-------------4----------5----|
|--9s7----5-------4----|-----5-------------4----------5----|
|--7s5-0--3--0--0-2--0-|--0--3------0---0--2----0-----3--0-|


  B5    A5  G5N.C.F#5      N.C.       F5N.C.
   TP              TP           TP           TP   TP
   H.              Q            H            Q    E.    S
|----------------------------|----------------------------|
|----------------------------|----------------------------|
|-14b16-----------14pb15.5---|-14pb15-------14---14----12-|
|----------------------------|----------------------------|
|----------------------------|----------------------------|
|----------------------------|----------------------------|
|
|         PM  PM|          PM--|        PM-----------|
|  E    E E E E E  E       E    E     E E E  E E  E  E
|----------------------------|----------------------------|
|----------------------------|----------------------------|
|----------------------------|----------------------------|
|--9s===7---5------4---------|--------3-------------------|
|--9s===7---5------4---------|--------3-------------------|
|--7s===5-0-3-0-0--2-------0-|--0-----1-0-0--0-0--0--0----|


  B5    A5         G5   N.C.       F#5   N.C.
   |---3---|  |---3---|  |---3---|  |---3---|
   E  E    E  E  E    E  E  E    E  E  E    E
|---------------------------------------------|
|---------------------------------------------|
|---------------------------------------------|
|-------------------------------14-17p14------|
|---------13-16p13------13-16--------------16-|
|-12-15--------------15-----------------------|
|
|             PM         PM---|          PM----
|  E    E     E    E     E    E     E    E
|---------------------------------------------|
|---------------------------------------------|
|---------------------------------------------|
|--9s===7----------5----------------4---------|
|--9s===7----------5----------------4---------|
|--7s===5-----0----3-----0----0-----2----0----|


        G5   N.C.       F#5        G5           B5 A5  G5N.C.F#N.C.     F5N.C.
                                                 ~~~~~~~~~~~~~~~~~~~~~~~    TPTP  TP
   |---3---|  |---3---|  |---3---|  |---3---|
   E  E    E  E  E    E  E  E    E  E  E    E    W                  +Q.     E Q   Q
|---------------------------------------------|------------------|-----------------------||
|-------------------------------17-20p17------|-17---------------|-(17)------------------||
|---------15-18p15------15-18--------------18-|------------------|-----------------------||
|-14-17--------------17-----------------------|------------------|-----------------------||
|---------------------------------------------|------------------|----------xsxs==x------||
|---------------------------------------------|------------------|----------xsxs==x------||
|
|-|           PM---|          PM         PM          PM  PM|   PM--|      PM--------|
|  E    E     E    E     E    E     E    E       E E E E E E E E     E  E E E E E E E
|---------------------------------------------|------------------|-----------------------||
|---------------------------------------------|------------------|-----------------------||
|---------------------------------------------|------------------|-----------------------||
|-------5----------------4----------5---------|--9s7---5-----4---|------3----------------||
|-------5----------------4----------5---------|--9s7---5-----4---|------3----------------||
|--0----3-----0----0-----2----0-----3----0----|--7s5-0-3-0-0-2-0-|---0--1-0-0-0-0-0-0----||


  F#5
  Q   H           E   e      E E    E E     +Q.         +S   S
|--------------------------|------------------------------------|
|-5---5---------------5----|---5------5-----(5)---------(5)-(5)-|
|-4---4b6-------------4pb6-|---4pb6---4pb6==(4)r========(4)p=2--|
|--------------------------|------------------------------------|
|--------------------------|------------------------------------|
|--------------------------|------------------------------------|
|
|   PM    PM----------|        PM     PM----------------|
| E E E   E S S E S S E      E E    E E      S  S E S S  E
|--------------------------|------------------------------------|
|--------------------------|------------------------------------|
|--------------------------|------------------------------------|
|-4---4--------------------|-4------4---------------------------|
|-4---4--------------------|-4------4---------------------------|
|-2-2-2---2-2-2-2-2-2-2----|-2-2----2-2------2--2-2-2-2--2------|


  G5                       E5            G5
  ~~~~~~~~~        PM------|
  E.   S H         E   E   E  E      E E E E E E
|------------------------|--------------------------|
|------------------------|--------------------------|
|-4----2-4---------------|---[2]b2.5---4-----4-3b5r=|
|------------------4---2-|-4---------4-----4--------|
|------------------------|--------------------------|
|------------------------|--------------------------|
|
|    PM    PM----------|      PM       PM  PM  PM
| E  E   E E S S E S S E   E  E      E E E E E E
|------------------------|--------------------------|
|------------------------|--------------------------|
|------------------------|--------------------------|
|-5------5---------------|-2---------2---5---5------|
|-5------5---------------|-2---------2---5---5------|
|-3--3---3-3-3-3-3-3-3-3-|-0--0------0-0-3-3-3-3----|


  F#5
  +E     +E  +E     +E  +E    E E   E   E E E E E   E E   E
|-------------------------------------|-------------7-6-----|
|-------------------------------------|---------5-----------|
|-(3)b5==(3)r(3)b5==(3)r(3)-----------|---4-3s6-------------|
|-----------------------------4-2-----|-2-------------------|
|-----------------------------------4-|---------------------|
|-------------------------------------|---------------------|
|
|         PM         PM-------------|     PM  PM----------|
|  E      E   E      E   S  S E S S E   E E E E S S E S S E
|-------------------------------------|---------------------|
|-------------------------------------|---------------------|
|-------------------------------------|---------------------|
|--4----------4-----------------------|-4---4---------------|
|--4----------4-----------------------|-4---4---------------|
|--2------2---2------2---2--2-2-2-2-2-|-2-2-2-2-2-2-2-2-2-2-|


  G5
  S  S  S S  S  S S  S  S S  S  S S  S  S S
|-----------------9h10----9-----------------|
|---------9-10-12------12---12-10-9----10p9-|
|-9-10-11---------------------------11------|
|-------------------------------------------|
|-------------------------------------------|
|-------------------------------------------|
|
|       PM        PM-------------------|
| E     E    E    E     S S  E    S  S  E
|-------------------------------------------|
|-------------------------------------------|
|-------------------------------------------|
|-5----------5------------------------------|
|-5----------5------------------------------|
|-3-----3----3----3-----3-3--3----3--3--3---|


  E5                   G5
   S S  S  S S  S  S S  S  S  S  S S S  E
|-----------------------------------------||
|-----------------------------------------||
|-11-9------------------------------------||
|------12p11-9----11-9--------------------||
|--------------12------12-11-10-10-9-9-10-||
|-----------------------------------------||
|
|       PM         PM         PM        PM
|  E    E    E     E    E     E    E    E
|-----------------------------------------||
|-----------------------------------------||
|-----------------------------------------||
|--2---------2----------5----------5------||
|--2---------2----------5----------5------||
|--0----0----0-----0----3-----3----3----3-||


    F#5
    Gtr V
     S  S  S  S  S  S  S  S  S  S  S  S  S  S  S  S
||--21p17----17-21p17-21p17----17-21p17-21p17----17-|
||o-------19----------------19----------------19----|
||--------------------------------------------------|
||--------------------------------------------------|
||o-------------------------------------------------|
||--------------------------------------------------|
|
|   Gtr VI
|    S  S  S  S  S  S  S  S  S  S  S  S  S  S  S  S
||--------------------------------------------------|
||o-22p19----19-22p19-22p19----19-22p19-22p19----19-|
||--------21----------------21----------------21----|
||--------------------------------------------------|
||o-------------------------------------------------|
||--------------------------------------------------|
|
|   Gtrs I, II
|          PM          PM---------------------|
|    E     E     E     E     S  S  E     S  S  E
||--------------------------------------------------|
||o-------------------------------------------------|
||--------------------------------------------------|
||---4-----------4----------------------------------|
||o--4-----------4----------------------------------|
||---2-----2-----2-----2-----2--2--2-----2--2--2----|


   S  S  S  S  S  S  S  S  S  S  S  S  S  S  S  S
|-21p17----17-21p17-21p17----17-21p17-21p17----17-|
|-------19----------------19----------------19----|
|-------------------------------------------------|
|-------------------------------------------------|
|-------------------------------------------------|
|-------------------------------------------------|
|
|  S  S  S  S  S  S  S  S  S  S  S  S  S  S  S  S
|-------------------------------------------------|
|-22p19----19-22p19-22p19----19-22p19-22p19----19-|
|-------21----------------21----------------21----|
|-------------------------------------------------|
|-------------------------------------------------|
|-------------------------------------------------|
|
|        PM          PM---------------------|
|  E     E     E     E     S  S  E     S  S  E
|-------------------------------------------------|
|-------------------------------------------------|
|-------------------------------------------------|
|--4-----------4----------------------------------|
|--4-----------4----------------------------------|
|--2-----2-----2-----2-----2--2--2-----2--2--2----|


  G5
   S  S  S  S  S  S  S  S  S  S  S  S  S  S  S S
|-22p18----18-22p18-22p18----18-22p18-22p18------|
|-------20----------------20----------------20---|
|------------------------------------------------|
|------------------------------------------------|
|------------------------------------------------|
|------------------------------------------------|
|
|  S  S  S  S  S  S  S  S  S  S  S  S  S  S  S S
|------------------------------------------------|
|-23p20----20-23p20-23p20----20-23p20-23p20------|
|-------22----------------22----------------22---|
|------------------------------------------------|
|------------------------------------------------|
|------------------------------------------------|
|
|        PM          PM---------------------|
|  E     E     E     E     S  S  E     S  S  E
|------------------------------------------------|
|------------------------------------------------|
|------------------------------------------------|
|--5-----------5---------------------------------|
|--5-----------5---------------------------------|
|--3-----3-----3-----3-----3--3--3-----3--3--3---|


 1.
  E5                      G5
   S  S  S  S  S  S  S  S  S  S  S  S  S  S  S  S
|----------------------------------20-23-22-20------||
|----------20-23-22-20----20-22-23-------------22--o||
|-20-22-23-------------22---------------------------||
|---------------------------------------------------||
|--------------------------------------------------o||
|---------------------------------------------------||
|
|  S  S  S  S  S  S  S  S  S  S  S  S  S  S  S  S
|---------------------------------------------------||
|----------------------------------20-23-22-20-----o||
|----------19-22-21-19----19-21-22-------------21---||
|-20-22-23-------------22---------------------------||
|--------------------------------------------------o||
|---------------------------------------------------||
|
|        PM          PM          PM          PM
|  E     E     E     E     E     E     E     E
|---------------------------------------------------||
|--------------------------------------------------o||
|---------------------------------------------------||
|--2-----------2-----------5-----------5------------||
|--2-----------2-----------5-----------5-----------o||
|--0-----0-----0-----0-----3-----3-----3-----3------||


  2.
  E5                      G5
   S  S  S  S  S  S  S  S  S  S  S  S  S  S  S  S
|-22-20-18----20-18-------18----------------------||
|----------22-------22-20----22-20-18-22-20-19----||
|----------------------------------------------21-||
|-------------------------------------------------||
|-------------------------------------------------||
|-------------------------------------------------||
|
|  S  S  S  S  S  S  S  S  S  S  S  S  S  S  S  S
|-------------------------------------------------||
|-23-22-20----22-20-------20----------------------||
|----------22-------22-21----22-19-17-22-21-19----||
|----------------------------------------------22-||
|-------------------------------------------------||
|-------------------------------------------------||
|
|        PM          PM          PM          PM-----
|  E     E     E     E     E     E     E     E
|-------------------------------------------------||
|-------------------------------------------------||
|-------------------------------------------------||
|--2-----------2-----------5-----------5----------||
|--2-----------2-----------5-----------5----------||
|--0-----0-----0-----0-----3-----3-----3-----3----||


 Outro
  A tempo Q=180
  Bb5                B5
   >
   ~~
   W                 W
|------------------|------------------|
|------------------|------------------|
|-19---------------|------------------|
|------------------|------------------|
|------------------|------------------|
|------------------|------------------|
|
|  >
|  ~~
|  W                 W
|------------------|------------------|
|------------------|------------------|
|------------------|------------------|
|-20---------------|------------------|
|------------------|------------------|
|------------------|------------------|
|
|----------------------------------|
|  E E E E E E E E   E E E E E E E E
|------------------|------------------|
|------------------|------------------|
|------------------|------------------|
|--3-----3-----3---|-4-----4-----4----|
|----1-1---1-1---1-|---2-2---2-2---2--|
|------------------|------------------|


    Bb5               B5                  C5                D5      D#5
    Gtrs I, II
    PM--------------------------------------------------------------------|
    E E E E E E E E   E E E E E E E E     E E E E E E E E   E E E E E E E E
||------------------|------------------||-----------------|------------------|
||o-----------------|-----------------o||-----------------|------------------|
||------------------|------------------||-----------------|------------------|
||--3-----3-----3---|-4-----4-----4----||-5-----5-----5---|-7-----7-8-----8--|
||o---1-1---1-1---1-|---2-2---2-2---2-o||---3-3---3-3---3-|---5-5-----6-6----|
||------------------|------------------||-----------------|------------------|


  E5
  E E Q  H      E E Q  H      E E Q  H      E E Q  H
|-------------|-------------|-------------|-------------*|
|-------------|-------------|-------------|-------------*|
|-------------|-------------|-------------|-------------*|
|-2-----------|-2-----------|-2-----------|-2-----------*|
|-2-----------|-2-----------|-2-----------|-2-----------*|
|-0-----------|-0-----------|-0-----------|-0-----------*|



Duration Legend
---------------
W - whole; H - half; Q - quarter; E - 8th; S - 16th; T - 32nd; X - 64th; a - acciaccatura
+ - note tied to previous; . - note dotted; .. - note double dotted
Uncapitalized letters represent notes that are staccato (1/2 duration)
Irregular groupings are notated above the duration line
Duration letters will always appear directly above the note/fret number it represents the
duration for.  Duration letters with no fret number below them represent rests.  Multi-
bar rests are notated in the form Wxn, where n is the number of bars to rest for.  Low
melody durations appear below the staff

Tablature Legend
----------------
 h   - hammer-on
 p   - pull-off
 b   - bend
 pb  - pre-bend
 r   - bend release (if no number after the r, then release immediately)
 /\  - slide into or out of (from/to "nowhere")
 s   - legato slide
 S   - shift slide
<n> - natural harmonic
[n]  - artificial harmonic
n(n) - tapped harmonic
 ~   - vibrato
 tr  - trill
 T   - tap
 TP  - trem. picking
 PM  - palm muting
\n/  - tremolo bar dip; n = amount to dip
 \n  - tremolo bar down
 n/  - tremolo bar up
/n\  - tremolo bar inverted dip
 =   - hold bend; also acts as connecting device for hammers/pulls
 <> - volume swell (louder/softer)
 x   - on rhythm slash represents muted slash
 o   - on rhythm slash represents single note slash

Misc Legend
-----------
 |  - bar
||  - double bar
||o - repeat start
o|| - repeat end
*|  - double bar (ending)
 :  - bar (freetime)
 $  - Segno
 &  - Coda
Tempo markers - <E/E./Q/Q./H/H.> = BPM(8/16=s8/s16), where s8 = swing 8ths, s16 = swing 16ths

comments
We did not receive enough feedback on this tab! Please rate:
print report bad tab
1 2 3 4 5
I want to post or [tab]
guest
You may want to rate the tab now too:
select rating
Please do not post tabs as comments. Select "correction" instead!