Oops, an error
Loading. Please wait.

Risk Tab

5,720 views 1 this week
1 commentread comment
1 2 3 4 5
excellent!
x 2
Autoscroll
+/-
esc
set tempo
stop
Contributor
Hey! There's an official Ultimate Guitar app which is ideal
for learning songs when you're away from computer. Get the app
WARNING: You are trying to view
                                    content from Ultimate-Guitar.com
                                    in an unauthorized application,
                                    which is prohibited.

                                    Please use an official Ultimate
                                    Guitar Tabs application for iPhone,
                                    iPad or Android to access legitimate
                                    chords, guitar, bass, and drum tabs
                                    from Ultimate-Guitar.com database.

                                    Type "ultimate guitar tabs" in Apple
                                    App Store's or Android Market's
                                    search to find the application.
Band- Megadeth
Album- Risk

1.INSOMNIA

Tuning: Standard


Intro (with heavy flanger)
e|------------------------------------|
B|------------------------------------|
G|-7--(7)b8-------------------0h5\4~~-|
D|-7--(7)b8----5-----------5----------|
A|-------------3----7-5--0-3----------|
E|------------------5-3---------------|

e|---------------------------|
B|-------------/11-11\-------|
G|---------------------------|
D|-2----------------------2--|
A|-0----------------------0--|
E|---------------------------|


Intro pt.2 (Violin arranged for guitar)
e|-----------------------------------------------|
B|-----------------------------------------------|
G|-----------------------------------------------|
D|-7~---/8--5--/7----8--7--5-7-8-7-5-7-8-7-5-7~--|
A|-----------------------------------------------|
E|-----------------------------------------------|


Intro pt.2 (Sitar arranged for guitar, let first
chord ring through the next 3 notes)
e|-----------------------------------|
B|-----------------------------------|
G|-----------------------------------|
D|-7----8--5--7--------7--7--8--5--7-|
A|-0-------------------0-------------|
E|-----------------------------------|


Riff 1
e|--------------------------|
B|--------------------------|
G|--------------------------|
D|-7-7--8-5-7----7-7--8-5-7-|
A|-0-0--0-0-0----0-0--0-0-0-|
E|--------------------------|
   "I'm running..."
e|----------------------------|
B|----------------------------|
G|----------------------------|
D|-7-7--8-5-7----5----4-3-3-3-|
A|-0-0--0-0-0----3----2-1-1-1-|
E|----------------------------|
   "Something's..."


Riff 2 (with flanger)
e|---12-12--------12-12--------12-12--------12-12-|
B|---h.-h.--------h.-h.--------h.-h.--------h.-h.-|
G|------------------------------------------------|
D|------------------------------------------------|
A|------------------------------------------------|
E|-5--------5-4-3--------3-4-5--------5-4-3-------|
  "I hear a voice..."
e|----------------------------------------------|
B|-------12-12--------12-12--------12-12--------|
G|-------h.-h.--------h.-h.--------h.-h.--------|
D|----------------------------------------------|
A|----------------------------------------5-4-3-|
E|-5-6-7--------7-6-5--------5-6-7--------------|
   "But the loudest..."


Riff 3              x3
e|-------------------|
B|-------------------|
G|-------------------|
D|-2----4----5----7--|
A|-0----2----3----5--|
E|-------------------|
   "Insomni, omni..."
e|--------------|
B|--------------|
G|--------------|
D|-2----4----7--|
A|-0----2----5--|
E|--------------|
   "Insomni, omni..."
e|------------------------|
B|------------------------|
G|------------------------|
D|-7----6-5----4-3--3-3-3-|
A|-5----4-3----2-1--1-1-1-|
E|------------------------|
   "...turn out the lights..."


Play Riff 1  "I can't sleep..."

Riff 1a
e|--------------------------|
B|--/violin\----------------|
G|-/--------\---------------|
D|-7-7--8-5-7----7-7--8-5-7-|
A|-0-0--0-0-0----0-0--0-0-0-|
E|--------------------------|
   "I'm twisting and..."
e|----------------------------|
B|--/violin\------------------|
G|-/--------\-----------------|
D|-7-7--8-5-7----5----4-3-3-3-|
A|-0-0--0-0-0----3----2-1-1-1-|
E|----------------------------|
   "...the madness..."


Play Riff 2  "The whole house..."
Play Riff 3  "Insomni, omni,..."


Lead into next section:
e|----------------------------|
B|----------------------------|
G|----------------------------|
D|-7-7--8-5-7------7-7--8-5-7-|
A|-0-0--0-0-0------0-0--0-0-0-|
E|----------------------------|


Riff 4 (Solo Rhythm)
e|-------------------------------------|
B|-------------------------------------|
G|-------------------------------------|
D|-------------------------------------|
A|-------------------------------------|
E|-0-1-2-3-0-4-5-0-6-7-8-9-0-10-11-12~-|

e|----------------------------------|
B|----------------------------------|
G|----------------------------------|
D|----------------------------------|
A|----------------------------------|
E|-1-2-3-0-4-5-0-6-7-8-9-0-10-11-12-|

e|-------------------------------------|
B|-------------------------------------|
G|-------------------------------------|
D|-------------------------------------|
A|-------------------------------------|
E|-0-1-2-3-0-4-5-0-6-7-8-9-0-10-11-12~-|

e|---------------------------------|
B|---------------------------------|
G|---------------------------------|
D|---------------------------------|
A|---------------------------------|
E|-11-10-9-0-8-7-0-6-5-4-3-0-2-1-0-|


Solo (Mustaine)
e|--------------------10-12-13~~~--13p10-12--(12)~~\-|
B|-9~~~----9-10-12-13--------------------------------|
G|---------------------------------------------------|
D|---------------------------------------------------|
A|---------------------------------------------------|
E|---------------------------------------------------|

e|---------------------------------------|
B|----------------12-13~~----13p10-12~~~-|
G|----------13-14------------------------|
D|-12-14-15------------------------------|
A|---------------------------------------|
E|---------------------------------------|

e|-----------------------------------|
B|-----------------------------------|
G|-10----10p7-9~~--------------------|
D|-------------------10----10p7-9~~~-|
A|-----------------------------------|
E|-----------------------------------|

e|-------------------------------------------------------|
B|------------------------------15-17-18~~--18p15-17~~~~-|
G|-5/7--7/13~~~~----13-14-16-17--------------------------|
D|-------------------------------------------------------|
A|-------------------------------------------------------|
E|-------------------------------------------------------|

e|-------16-17-19-20-20b22--20b22--20b22~~~-|
B|-17-18------------------------------------|
G|------------------------------------------|
D|------------------------------------------|
A|------------------------------------------|
E|------------------------------------------|

e|-17--17--17----------17----16--16----17--17----16--16--------|
B|-18--18--18--20--18--18----17--17----18--18----17--17--(17)\-|
G|-------------------------------------------------------------|
D|-------------------------------------------------------------|
A|-------------------------------------------------------------|
E|-------------------------------------------------------------|

e|-----------------------|
B|-10~~~~----[long hold]-|
G|-----------------------|
D|-----------------------|
A|-----------------------|
E|-----------------------|

End Solo

Interlude

Play Riff 3  "Insomni, omni..."

There's a lot of BS production at the end, if you want a
harmony guitar, play this:
e|------------------------------------|
B|------------------------------------|
G|------------------------------------|
D|-19-19--20-17-19----19-19--20-17-19-|
A|--0--0---0--0--0-----0--0---0--0--0-|
E|------------------------------------|


Ending:
Guitar 1
e|----------------------------|
B|----------------------------|
G|----------------------------|
D|-7-7--8-5-7----5----4-3-3-3-|
A|-0-0--0-0-0----3----2-1-1-1-|
E|----------------------------|

Guitar 2
e|---------------------------------|
B|---------------------------------|
G|---------------------------------|
D|-19-19--20-17-19----5----4-3-3-3-|
A|--0--0---0--0--0----3----2-1-1-1-|
E|---------------------------------|

Final time
Both guitars:
e|-------------|
B|-------------|
G|-------------|
D|-7-7--8-5-7--|
A|-0-0--0-0-0--|
E|-------------|

2.PRINCE OF DARKNESS

Tuning: D

Intro (Clean with sound effects)

d|--2-------------------------------|
A|----2-----------------------------|
F|------4--(4)b5r4-(4)b5r4--(4)b5r4-|
C|----------------------------------|
G|----------------------------------|
D|----------------------------------|
         "My victims..."

d|------9--|
A|----8----|
F|--9------|
C|---------|
G|---------|
D|---------|
  "...bones..."

d|-----------------------|
A|-----------------------|
F|-----------------------|
C|-----------------------|
G|--7--------(7)^r-(7)^r-|
D|--0--------------------|
  "...am insidious..."

d|-----|
A|-----|
F|-----|
C|--9--|
G|--7--|
D|--0--|
  "...love..."


Riff 1
Guitar 1 (Clean)
d|---------------------------------|
A|------------3-------5-------8----|
F|----9------4-------6-------6-----| ---|
C|---9------5-------7-------8------|    |
G|--7------5-------7-------7-------|    |
D|-0-------------------------------|    |
   "I strip you of pride..."            |
                                        |--> Play 3x
Guitar 2 (Clean)                        |
d|---------------------------------|    |
A|---------------------------------|    |
F|---------------------------------|    |
C|---------------------------------| ---|
G|-7-------6-------5-------4-------|
D|---------------------------------|

d|----------------|
A|----------------|
F|----------------|
C|----------------|
G|----------------|
D|--0--------0----|
    "More than evil..."


Riff 1a (Distortion)
d|--------------------------|
A|--------------------------|
F|--------------------------|
C|--------------------------|
G|-2-2--2--2--2--2--2--2--2-|
D|-0-0--0--0--0--0--0--0--0-|
   "I am more powerful..."
d|------------------------|
A|------------------------|
F|------------------------|
C|------------------------| --> Play 3x
G|-2--2--2--2--2--2--2--2-|
D|-0--0--0--0--0--0--0--0-|
   "I am more violent..."


Riff 2
d|--------------------------|
A|--------------------------|
F|--------------------------|
C|---------------------0----|
G|-2-2--2--2--2--2--2--0-3--|
D|-0-0--0--0--0--0--0----1--|

d|---------------------------|
A|---------------------------|
F|---------------------------|
C|------------------7--------|
G|-2-2--2--2--2--2--5--8-7-5-|
D|-0-0--0--0--0--0-----6-5-3-|


Riff 2a
d|--------------------------|
A|--------------------------|
F|--------------------------|
C|---------------------0----|
G|-2-2--2--2--2--2--2--0-3--|
D|-0-0--0--0--0--0--0----1--|
   "Yeah, yeah, I'm evil..."
d|-----------------------------------------|
A|-----------------------------------------|
F|-----------------------------------------|
C|---------------1010-101010-101010-101010-|
G|-2-2--2--2--2---8-8--8-8-8--8-8-8--8-8-8-|
D|-0-0--0--0--0----------------------------|
   "...I am..."
d|-------------------------------|
A|-------------------------------|
F|-------------------------------|
C|-101010-101010-101010-10101010-|
G|--8-8-8--8-8-8--8-8-8--8-8-8-8-|
D|-------------------------------|


Riff 3
Guitar 1
d|---------------------------------|
A|---------------------------------|
F|---------------------------------|
C|---2---2---2---2---2---2---2---2-|
G|---------------------------------|
D|-0---0---0---0---3---3---3---3---|
   "My kingdom..."
d|---------------------------------|
A|---------------------------------|
F|---------------------------------|
C|---2---2---2---2---2---2---------|
G|-0---0---0---0---1---1---0-1-2---|
D|-------------------------------3-|
   "Your sins erupt..."


Guitar 2 (Comes in later)
d|-----12----------12--------|
A|-----15b17-------15b17-----|
F|---------------------------|
C|-14--------14----------14--|
G|---------------------------|
D|---------------------------|
  "...darkness..."
d|-12----------12--------|
A|-15b17-------15b17-----|
F|-----------------------|
C|-------14----------14--|
G|-----------------------|
D|-----------------------|


Riff 4                        x3
d|-----------------------------|
A|-----------------------------|
F|-----------------------------|
C|-----------------------------|
G|------2---------2---------2--|
D|-0000-0----0000-0----0000-0--|
   ****      ****      ****
   "...darkness..."
d|---------------------------------|
A|---------------------------------|
F|---------------------------------|
C|---------------------------------|
G|------2---------2-------5--4--3--|
D|-0000-0----0000-0----0--3--2--1--|
   ****      ****      *


Play Riff 2   "I take what you love..."


Guitar fills over Riff 2:
#1
d|--------------------|
A|--------------------|
F|--6b7~~~----6b7~~~--|
C|--------------------|
G|--------------------|
D|--------------------|
   "...games, [your hopes...]"

#2
d|--15^--15^--15b16~~~~~*--|
A|-------------------------|
F|-------------------------|
C|-------------------------|
G|-------------------------|
D|-------------------------|
  "...While you burn..."



Play Riff 2a   "While you burn..."
Play Riff 3    "My kingdom..."


Interlude: (12-string guitar)
d|-------------------------------------|
A|-------------------------------------|
F|-------------------------------------|
C|----2--1-----2--1-----2--1-----2--1--|
G|-------------------------------------|
D|-0--------3--------2--------3--------|

d|----------------------------|
A|----------------------------|
F|----2--------2--------2-----|
C|-------4--------4--------4--|
G|-2--------3--------2--------|
D|----------------------------|

d|-------------------------------|
A|-------------------------------|
F|----3--------3------3--------3-|
C|-------3---------------3-------|
G|-------------------------------|
D|-3--------2------3--------2----|

d|----------------------------------|
A|----------------------4--------2--|
F|----6--------6-----------3--------|
C|-------6--------6-----------------|
G|----------------------------------|
D|-6--------5--------4--------2-----|

d|-------------------------------------|
A|----2--------2--------2--------2-----|
F|-------2--------2--------2--------2--|
C|-------------------------------------|
G|-------------------------------------|
D|-2--------1--------2--------1--------|

(Distortion)
d|---------------------------|
A|---------------------------|
F|---------------------------|
C|-1010-101010-101010-101010-|
G|--8-8--8-8-8--8-8-8--8-8-8-|
D|---------------------------|

d|-------------------------------|
A|-------------------------------|
F|-------------------------------|
C|-101010-101010-101010-10101010-|
G|--8-8-8--8-8-8--8-8-8--8-8-8-8-|
D|-------------------------------|


Riff 4a (Play 2x)
Guitar 1
d|-----------------------------|
A|-----------------------------|
F|-----------------------------|
C|-----------------------------|
G|------2---------2---------2--|
D|-0000-0----0000-0----0000-0--|
   ****      ****      ****
d|---------------------------------|
A|---------------------------------|
F|---------------------------------|
C|---------------------------------|
G|------2---------2-------5--4--3--|
D|-0000-0----0000-0----0--3--2--1--|
   ****      ****      *

Guitar 2
d|---------------|
A|---------17~~--|
F|-15--16--------|
C|---------------|
G|---------------|
D|---------------|


Riff 4b (Solo Rhythm)             x3
d|---------------------------------|
A|---------------------------------|
F|---------------------------------|
C|---------------------------------|
G|------2---------2-------5--4--3--|
D|-0000-0----0000-0----0--3--2--1--|
   ****      ****      *
d|---------------------------|
A|---------------------------|
F|---------------------------|
C|---------------------------|
G|----5--4--3-------5--4--3--|
D|-0--3--2--1----0--3--2--1--|
   *             *

Solo
d|------------------------------------------|
A|------------------------------------------|
F|------------------------------------------|
C|-------9--8--(8)b9r8-(8)b9r8-8~~----5b6r5-|
G|----7-------------------------------------|
D|-7----------------------------------------|

d|-----------------[12]13r10--------------------------|
A|----------------------------------12-11--(11)b12r10-|
F|---------[9]10r9-------------9~~--------------------|
C|---------------------------9------------------------|
G|-7b8r7----------------------------------------------|
D|----------------------------------------------------|

d|------------------------------------------------|
A|-/15-14--(14)b15r14--15-14~~--17-15~~--18-17~~~-|
F|------------------------------------------------|
C|------------------------------------------------|
G|------------------------------------------------|
D|------------------------------------------------|

d|--------------------|
A|-15h7p15------------|
F|---------17--16~~*--|
C|--------------------|
G|--------------------|
D|--------------------|

d|-17-15--------18-17-15-----------------------------|
A|-------17-15-----------17-15-15-14-13-12-----------|
F|-----------------------------------------14-12~~~--|
C|---------------------------------------------------|
G|---------------------------------------------------|
D|---------------------------------------------------|

End Solo


Riff 3
Guitar 1
d|---------------------------------|
A|---------------------------------|
F|---------------------------------|
C|---2---2---2---2---2---2---2---2-|
G|---------------------------------|
D|-0---0---0---0---3---3---3---3---|
   "...darkness..."
d|---------------------------------|
A|---------------------------------|
F|---------------------------------|
C|---2---2---2---2---2---2---------|
G|-0---0---0---0---1---1---0-1-2---|
D|-------------------------------3-|
   "Your satanic..."

Guitar 2
d|-----12----------12--------|
A|-----15b17-------15b17-----|
F|---------------------------|
C|-14--------14----------14--|
G|---------------------------|
D|---------------------------|

d|-12----------12--------|
A|-15b17-------15b17-----|
F|-----------------------|
C|-------14----------14--|
G|-----------------------|
D|-----------------------|


Ending Rhythm
d|-----------------------------|
A|-----------------------------|
F|-----------------------------|
C|-----------------------------|  ---------------|
G|------2---------2---------2--|                 |
D|-0000-0----0000-0----0000-0--|                 |
   ****      ****      ****                      |
d|-------------------------------------------|   |--> Play 2x
A|-------------------------------------------|   |
F|-------------------------------------------|   |
C|-------------------------------------------| --|
G|------2---------2---------2-------5--4--3--|
D|-0000-0----0000-0----0000-0----0--3--2--1--|
   ****      ****      ****      *

d|-----------------------------|
A|-----------------------------|
F|-----------------------------|
C|-----------------------------| --> Play 3x
G|-2--5--4--3----2--6--5--4--3-|
D|-0--3--2--1----0--4--3--2--1-|


d|-------------------------------------------|
A|-------------------------------------------|
F|-------------------------------------------|
C|-------------------------------------------|
G|-2--5--4--3----------------2--6--5--4--3-2-|
D|-0--3--2--1----------------0--4--3--2--1-0-|


Ending Solo
NOTE: Some effect is used so the following two bars are
an octave lower than the actual notes.
d|-/19----/18----/17----/18----/17----/17----/16----/17----|
A|-----19-----19-----19-----17-----17-----16-----16-----17-|
F|---------------------------------------------------------|
C|---------------------------------------------------------|
G|---------------------------------------------------------|
D|---------------------------------------------------------|

d|-16\-15\-14\--12----12----12----\10------|
A|-----------------12----12----12-----10---|
F|-----------------------------------------|
C|-----------------------------------------|
G|---------------------------------------x-|
D|-----------------------------------------|


d|---------------------------------------------------|
A|----12----12^-------14--(14)b16------------(16)r14-|
F|----12----12^-------14--(14)b16------------(16)r14-|
C|-12--------------14--------\----------------/------|
G|----------------------------\--[long hold]-/-------|
D|---------------------------------------------------|

d|-------------------------------------------------------|
A|-12h15p12-12-12-12-12-12-12-12h15p12-12-12-12-12-12-12-|
F|-------------------------------------------------------|
C|-------------------------------------------------------|
G|-------------------------------------------------------|
D|-------------------------------------------------------|

d|-------------------------------------------------------|
A|-12h17p12-12-12-12-12-12-12-12h17p12-12-12-12-12-12-12-|
F|-------------------------------------------------------|
C|-------------------------------------------------------|
G|-------------------------------------------------------|
D|-------------------------------------------------------|

d|------------------------------------------------------------------|
A|-12h15p12------12-12h15p12------12-12h17p12------12-12h17p12------|
F|---------14b16------------14b16------------14b16------------14b16-|
C|------------------------------------------------------------------|
G|------------------------------------------------------------------|
D|------------------------------------------------------------------|

d|------------------------------------------------------------------|
A|-12h15p12------12-12h15p12------12-12h17p12------12-12h17p12------|
F|---------14b16------------14b16------------14b16------------14b16-|
C|------------------------------------------------------------------|
G|------------------------------------------------------------------|
D|------------------------------------------------------------------|

d|-17p15p12------17p15p12------18p16p13------18p16p13------|
A|---------15p12---------15p12---------16p13---------16p13-|
F|---------------------------------------------------------|
C|---------------------------------------------------------|
G|---------------------------------------------------------|
D|---------------------------------------------------------|

d|-19p17p14------19p17p14------20p18p15------20p18p15------|
A|---------17p14---------17p14---------18p15---------18p15-|
F|---------------------------------------------------------|
C|---------------------------------------------------------|
G|---------------------------------------------------------|
D|---------------------------------------------------------|

d|-21p19p16------22p20p17------23p21p18------24p22p19------|
A|---------19p16---------20p17---------21p18---------22p19-|
F|---------------------------------------------------------|
C|---------------------------------------------------------|
G|---------------------------------------------------------|
D|---------------------------------------------------------|

NOTE: Again, some effect is used so here are the notes an octave lower.
d|-12//17//24tm----(24)\--|
A|-12//17//24tm----(24)\--|
F|------------------------|
C|-[steady gliss]---------|
G|------------------------|
D|------------------------|

d|--------------------------------------|
A|--------12-----12-----12--------------|
F|-15b16-----15-----14-----12h14-12~~~\-|
C|--------------------------------------|
G|--------------------------------------|
D|--------------------------------------|

End Solo

3.ENTER THE ARENA

Tuning: Standard

Riff 1
e|------------------------------------|
B|------------------------------------|
G|------------------------------------|
D|--------6-----------------------8~--|
A|-3-3--x-6----------------3-3--x-8~--|
E|-1-1--x------------------1-1--x-----|


Riff 2
e|-----------------------|
B|-----------------------|
G|-----------------------|
D|--------6-----------8~-|
A|-3-3--x-6----3-3--x-8~-|
E|-1-1--x------1-1--x----|

e|-------------------------|
B|-------------------------|
G|-------------------------|
D|--------6-----------6-8--|
A|-3-3--x-6----3-3--x-4-6--|
E|-1-1--x------1-1--x------|


Ending
e|-------|
B|-------|
G|-------|
D|-------|
A|--3-3--|
E|--1-1--|

4.CRUSH EM'

Tuning: Standard

Riff 1
e|------------------------------------|
B|-15b16--15b16-----------------------|
G|-13-----13b14---------13-xx-15-13~--|
D|----------------------13-xx-15-13~--|
A|-----------------13h15--------------|
E|------------------------------------|

e|------------------------------------|
B|-15b16--15b16-----------------------|
G|-13-----13b14---------13-xx-15-13~--|
D|--------12b13---------13-xx-15-13~--|
A|-----------------13h15--------------|
E|------------------------------------|

e|------------------------------------|
B|-15b16--15b16-----------------------|
G|-13-----13b14---------13-xx-15-13~--|
D|----------------------13-xx-15-13~--|
A|-----------------13h15--------------|
E|------------------------------------|

e|------------------------------------------|
B|-16-----16-----16-----16-----------13-----|
G|-15b17--15b17--15b17--15b17----xxx-13-----|
D|-------------------------------xxx----15~-|
A|------------------------------------------|
E|------------------------------------------|


Riff 2
GUitar 1                                     x2
e|--------------------------------------------|
B|--------------------------------------------|
G|---------4----------4----------4----------4-|
D|-6-6-----4--6-6-----4--6-6-----4--6-6-----4-|
A|-----4h6--------4h6--------4h6--------4h6---|
E|--------------------------------------------|
   "Party time..."
e|--------------------------------------------|
B|--------------------------------------------|
G|---------7----------7----------7----------7-|
D|-9-9-----7--9-9-----7--9-9-----7--9-9-----7-|
A|-----7h9--------7h9--------7h9--------7h9---|
E|--------------------------------------------|
   "The stakes are rich..."
e|------------------------------------------|
B|------------------------------------------|
G|---------7----------7----------7----------|
D|-9-9-----7--9-9-----7--9-9-----7--9-9-----|
A|-----7h9--------7h9--------7h9--------7h9-|
E|------------------------------------------|


Guitar 2
e|-------------------------------------|
B|-------------------------------------|
G|-8--------(8)--------(8)--------6--7-|
D|-6--------(6)--------(6)--------4--5-|
A|-------------------------------------|
E|-------------------------------------|

e|-------------------------------------|
B|-------------------------------------|
G|-8--------(8)--------(8)--------6--7-|
D|-6--------(6)--------(6)--------4--5-|
A|-------------------------------------|
E|-------------------------------------|

e|-----------------------------------------|
B|-----------------------------------------|
G|-11--------(11)--------(11)--------9--10-|
D|--9---------(9)---------(9)--------7---8-|
A|-----------------------------------------|
E|-----------------------------------------|

e|--------------------------------------|
B|--------------------------------------|
G|-11--------(11)--------(11)-----------|
D|--9---------(9)---------(9)-----------|
A|--------------------------------------|
E|----------------------------------X\\-|



Riff 3
Guitar 1
e|---------------------------------|
B|---------------------------------|
G|---------------------------------|
D|------------------------------4--|
A|-44-4----x-7--------44-4----x-2--|
E|-22-2----x-5--------22-2----x----|
   "Heads I win..."
e|-------------------------------------|
B|-------------------------------------|
G|-------------------------------------|
D|-77-7---(7)\----------------------4--|
A|-55-5---(5)\-2-------44-4----x-/4-2--|
E|-------------0-------22-2----x-------|
   "Roll the dice..."
e|-----------------|
B|-----------------|
G|-----------------|
D|-----------------|
A|--3--------------|
E|--1--[let ring]--|

Guitar 2                     x3
e|------------------5----5----|
B|-7------5-------7---7-----7-|
G|----6-6----6----------------|
D|----------------------------|
A|----------------------------|
E|----------------------------|

e|-5----5-----5-----7----7-|
B|----7---7-7---7-7--------|
G|-------------------------|
D|-------------------------|
A|-------------------------|
E|-------------------------|

(w/ some effect)
e|--------------|
B|--------------|
G|---/10\-------|
D|-[slow slide]-|
A|--------------|
E|--------------|



Riff 1a
Guitar 1
e|---------------------------------|
B|---------------------------------|
G|---------------------------------|
D|---------------------------------|
A|---------------------------------|
E|-1-1-0-0-1-1-0-0-1-1-0-0-1-1-0-0-|
   * * * * * * * * * * * * * * * *
  "Looking for trouble..."

Guitar 2
e|----------------------------------------|
B|-15b16--15b16---------------------------|
G|-13-----13b14---------13-xx-15----------|
D|----------------------13-xx-15--8\6-6~~-|
A|----------------13h15-------------------|
E|----------------------------------------|

e|---------------------------------------|
B|-15b16--15b16--------------------------|
G|-13-----13b14---------xx-13-xx-15-13~--|
D|----------------------xx-13-xx-15-13~--|
A|----------------13h15------------------|
E|---------------------------------------|


Guitar fill (w/ wah pedal)
e|------------|
B|------------|
G|------------|
D|--5--(5)b6--|
A|------------|
E|------------|



Play Riff 2  "Last one standing..."

Riff 3a
Guitar 1
e|---------------------------------|
B|---------------------------------|
G|---------------------------------|
D|------------------------------4--|
A|-44-4----x-7--------44-4----x-2--|
E|-22-2----x-5--------22-2----x----|
   "Heads I win..."
e|-------------------------------------|
B|-------------------------------------|
G|-------------------------------------|
D|-77-7---(7)\----------------------4--|
A|-55-5---(5)\-2-------44-4----x-/4-2--|
E|-------------0-------22-2----x-------|
   "Roll the dice..."
e|---------------------------------|
B|---------------------------------|
G|---------------------------------|
D|------------------------------4--|
A|-44-4----x-7--------44-4----x-2--|
E|-22-2----x-5--------22-2----x----|
   "Now we lay you..."
e|-------------------------------------|
B|-------------------------------------|
G|-------------------------------------|
D|-77-7---(7)\----------------------4--|
A|-55-5---(5)\-2-------44-4----x-/4-2--|
E|-------------0-------22-2----x-------|
   "Step inside..."
e|-----------------|
B|-----------------|
G|-----------------|
D|-----------------|
A|--3--------------|
E|--1--[let ring]--|

Guitar 2                     x3
e|------------------5----5----|
B|-7------5-------7---7-----7-|
G|----6-6----6----------------| ---|
D|----------------------------|    |
A|----------------------------|    |
E|----------------------------|    |
                                   |--> Play 2x
e|-5----5-----5-----7----7-|       |
B|----7---7-7---7-7--------|       |
G|-------------------------| ------|
D|-------------------------|
A|-------------------------|
E|-------------------------|

Guitar 3                                        x2
e|-14----14----14----14----14----14----14---14---|
B|-17b19-17b19-17b19-17b19-17b19-17b19-17b9-17b9-|
G|-----------------------------------------------|
D|-----------------------------------------------|
A|-----------------------------------------------|
E|-----------------------------------------------|
   "Now we lay you..."



Riff 4
e|------------------------------------|
B|------------------------------------|
G|------------------------------------|
D|--------6-----------------------8~--|
A|-3-3--x-6----------------3-3--x-8~--|
E|-1-1--x------------------1-1--x-----|
        "Crush..."
e|------------------------------------|
B|------------------------------------|
G|------------------------------------|
D|--------6-----------------------8~--|
A|-3-3--x-6----------------3-3--x-8~--|
E|-1-1--x------------------1-1--x-----|

        "Crush..."
e|-----------------------|
B|-----------------------|
G|-----------------------|
D|--------6-----------8~-|
A|-3-3--x-6----3-3--x-8~-|
E|-1-1--x------1-1--x----|
  "Don't need reason..."
e|-------------------------|
B|-------------------------|
G|-------------------------|
D|--------6-----------6-8--|
A|-3-3--x-6----3-3--x-4-6--|
E|-1-1--x------1-1--x------|
  "Step aside..."
e|-----------------------|
B|-----------------------|
G|-----------------------|
D|--------6-----------8~-|
A|-3-3--x-6----3-3--x-8~-|
E|-1-1--x------1-1--x----|
  "Now we've found..."
e|-------------------------|
B|-------------------------|
G|-------------------------|
D|--------6-----------8-10-|
A|-3-3--x-6----3-3--x-6--8-|
E|-1-1--x------1-1--x------|
  "We're gonna bust you..."


Riff 3a
Guitar 1
e|---------------------------------|
B|---------------------------------|
G|---------------------------------|
D|-----------3------------------5--|
A|-55-5----x-1--------55-5----x-3--|
E|-33-3----x----------33-3----x----|
   "Heads I win..."
e|-------------------------------------|
B|-------------------------------------|
G|-------------------------------------|
D|-88-8---(8)\----------------------5--|
A|-66-6---(6)\-3-------55-5----x-/5-3--|
E|-------------1-------33-3----x-------|
   "Roll the dice..."
e|---------------------------------|
B|---------------------------------|
G|---------------------------------|
D|-----------3------------------5--|
A|-55-5----x-1--------55-5----x-3--|
E|-33-3----x----------33-3----x----|
   "Now we lay you..."
e|-------------------------------------|
B|-------------------------------------|
G|-------------------------------------|
D|-88-8---(8)\----------------------5--|
A|-66-6---(6)\-3-------55-5----x-/5-3--|
E|-------------1-------33-3----x-------|
   "Step aside..."

Guitar 2                     x3
e|------------------6----6----|
B|-8------6-------8---8-----8-|
G|----7-7----7----------------|
D|----------------------------|
A|----------------------------|
E|----------------------------|

e|-6----6-----6-----8----8-|
B|----8---8-8---8-8--------|
G|-------------------------|
D|-------------------------|
A|-------------------------|
E|-------------------------|

Guitar 3                                          x2
e|-15----15----15----15----15----15----15----15----|
B|-18b20-18b20-18b20-18b20-18b20-18b20-18b20-18b20-|
G|-------------------------------------------------|
D|-------------------------------------------------|
A|-------------------------------------------------|
E|-------------------------------------------------|
   "Now we lay you..."


Riff 4a
e|-----------------------|
B|-----------------------|
G|--------3-----------5~-|
D|--------3-----------5~-|
A|-5-5--x------5-5--x----|
E|-3-3--x------3-3--x----|

e|-------------------------|
B|-------------------------|
G|--------3----------------|
D|--------3-----------8-10-|
A|-5-5--x------5-5--x-6--8-|
E|-3-3--x------3-3--x------|


Song fades out with Riff 4a


Ending Solo
e|----------------------------------|
B|----------------------------------|
G|------------------------5--5b7~~~-|
D|-1/----------------/8-------------|
A|-1/-[steady gliss]-/8-------------|
E|----[   w/ wah   ]----------------|

e|---------------------------------|
B|---------------------------------|
G|-5b7--5b7--5b7--5b7--5b7r5p3-3~~-|
D|---------------------------------|
A|---------------------------------|
E|---------------------------------|

e|-----------------|
B|-----------------|
G|-3h5p3-----------|
D|-------5-3-------|
A|------------3-5--|
E|-----------------|

e|-----------------------|
B|-----------------------|
G|--------3-----------5~-|
D|--------3-----------5~-|
A|-5-5---------5-5-------|
E|-3-3--0------3-3--0----|
        *           *
e|-------------------------------|
B|-------------------------------|
G|-3-3-3-3-3-3-3-3-3h5p3---------|
D|-----------------------5-3-----|
A|---------------------------3-5-|
E|-------------------------------|


e|--------------------|
B|---------------6~~~-|
G|-3~~--3-5--5/7------|
D|--------------------|
A|--------------------|
E|--------------------|

e|-----------------------------------------------|
B|-----6--8-8~--3------6------6------6-----6-----|
G|-5/7------------5b7----5b7----5b7----5b7---5b7-|
D|-----------------------------------------------|
A|-----------------------------------------------|
E|-----------------------------------------------|

e|--------------------------------3------3-6~-|
B|-6------------------------------3--6~-------|
G|---5b7-5b7-5b7-5b7-5b7-5~~--5b7-------------|
D|--------------------------------------------|
A|--------------------------------------------|
E|--------------------------------------------|

e|-----------------|
B|--------18-------|
G|-17b19-----17~~--|
D|-----------------|
A|-----------------|
E|-----------------|

e|---------15---------15---------15---------15-|
B|-------15---------15---------15---------15---|
G|-17b19------17b19------17b19------17b19------|
D|---------------------------------------------|
A|---------------------------------------------|
E|---------------------------------------------|

e|---------15---------15---------15---------15-|
B|-------15---------15---------15---------15---|
G|-17b19------17b19------17b19------17b19------|
D|---------------------------------------------|
A|---------------------------------------------|
E|---------------------------------------------|

e|---------15---------15---------15---------15-|
B|-------15---------15---------15---------15---|
G|-17b19------17b19------17b19------17b19------|
D|---------------------------------------------|
A|---------------------------------------------|
E|---------------------------------------------|

e|---------15---------15---------15---------15-|
B|-------15---------15---------15---------15---|
G|-17b19------17b19------17b19------17b19------|
D|---------------------------------------------|
A|---------------------------------------------|
E|---------------------------------------------|

e|-----------------------------15-18p15------15------|
B|--------15-18-18-18b20~~--18---------18b19---18b19-|
G|-17b19---------------------------------------------|
D|---------------------------------------------------|
A|---------------------------------------------------|
E|---------------------------------------------------|

e|-15-18-20-20b22-{20}-{20}-{20}-{20}-{20}-{20}-|
B|----------------------------------------------|
G|----------------------------------------------|
D|----------------------------------------------|
A|----------------------------------------------|
E|----------------------------------------------|

e|-[20]21-{20}-{20}-{20}-20-20-18h20p18-15h18p15-------------------|
B|-----------------------------------------------15h18p15h18p15----|
G|--------------------------------------------------------------17-|
D|-----------------------------------------------------------------|
A|-----------------------------------------------------------------|
E|-----------------------------------------------------------------|

Solo fades out|

5.BREADLINE

Tuning: Standard


Riff 1 (Slight distortion)
e|--------------------------------|
B|--------------------------------|
G|--------------------------------|
D|-----7-----6-------6------4-----|
A|---7-----7-----6-------6----6---|
E|-0-----0-----0-------0--------0-|
            "Ain't got no..."
e|--------------------------------|
B|--------------------------------|
G|--------------------0---2-0-----|
D|-----5-----4------2---2-----2---|
A|---5-----5-----4--------------4-|
E|-0-----0-----0------------------|
         "...ain't got no..."


Riff 2 (Slight distortion)     x3
e|------------------------------|
B|------------------------------|
G|--------------------2-------0-|
D|-----2-------0----2-------2---|
A|---2-------2---0------3~------|
E|-0-----0-3--------------------|
                       "No one there..."
e|------------------|
B|------------------|
G|------------------|
D|-----2-------0-2--|
A|---2-------2---0--|
E|-0-----0-3--------|
   "...him."


Riff 3
e|---------------------------------|
B|---------------------------------|
G|-9-9--9--9-----------------------|
D|-9-9--9--9--9--9----9------------|
A|-7-7--7--7--6--6----6--x-7-7--7--|
E|-----------------------x-5-5--5--|
     "Oh, about to lose..."
e|-------------------------|
B|-------------------------|
G|-------------------------|
D|-------------------------|
A|-x-7-x-7-x-7-x-7-x-7-4-2-|
E|-x-4-x-5-x-4-x-5-x-4-2-0-|
     "...lifeline..."
e|---------------------------------|
B|---------------------------------|
G|---------------------------------|
D|---------------------------------|
A|-4--4--x-4-x-7-7-x-9-9-x-2-2--2--|
E|-2--2--x-2-x-5-5-x-7-7-x-0-0--0--|
   "He's..."
e|-----------------------|
B|-----------------------|
G|-----------------------|
D|-----------------------|
A|-------5-5-x-7-7-x-2-2-|
E|-0-0-0-3-3-x-5-5-x-0-0-|
   * * *
   "...breadline..."


Guitar fill at end of Riff 3
e|------------------------|
B|------------------------|
G|-------9-10b12-9b11-7b9-|
D|-----9------------------|
A|-/11--------------------|
E|------------------------|


Play Riff 1   "Forgot who he is..."

Guitar fill over Riff 1
e|----------------------|
B|----------------------|
G|-13--------\11----\9--|
D|----------------------|
A|----------------------|
E|----------------------|
   "Mmm, a mover..."
e|-----------------------|
B|-----------------------|
G|-/13--------\11----\9--|
D|-----------------------|
A|-----------------------|
E|-----------------------|
   "Lower than a..."


Play Riff 2   "No there to..."

Riff 3a
e|---------------------------------|
B|---------------------------------|
G|-9-9--9--9-----------------------|
D|-9-9--9--9--9--9----9------------|
A|-7-7--7--7--6--6----6--x-7-7--7--|
E|-----------------------x-5-5--5--|
     "Oh, about to lose..."
e|-------------------------|
B|-------------------------|
G|-------------------------|
D|-------------------------|
A|-x-7-x-7-x-7-x-7-x-7-4-2-|
E|-x-4-x-5-x-4-x-5-x-4-2-0-|
     "...lifeline..."
e|---------------------------------|
B|---------------------------------|
G|---------------------------------|
D|---------------------------------|
A|-4--4--x-4-x-7-7-x-9-9-x-2-2--2--|
E|-2--2--x-2-x-5-5-x-7-7-x-0-0--0--|
   "He's..."
e|-------------------|
B|-------------------|
G|-------------------|
D|-------------------|
A|-------5-5-x-7-7-x-|
E|-0-0-0-3-3-x-5-5-x-|
   * * *
   "...breadline..."



Guitar fill at end of Riff 3a
e|------------------------|
B|------------------------|
G|-------9-10b12-9b11-7b9-|
D|-----9------------------|
A|-/11--------------------|
E|------------------------|



Riff 4 (Solo Rhythm)
Guitar 1
e|--------------------|
B|--------------------|
G|--------------------|
D|--------------------|
A|-6-7----6-7----6-2--|
E|-4-5----4-5----4-0--|

e|------------------------------|
B|------------------------------|
G|------------------------------|
D|------------------------------|
A|-6-7----6-7----6-4----4-7--7--|
E|-4-5----4-5----4-2----2-5--5--|

e|-------------------------------|
B|-------------------------------|
G|---------9---9-----9---9---9---|
D|---------9---9-----9---9---9---|
A|-7--9----7---7-9---7---7---7-9-|
E|-5--7--7---7---7-7---7---7---7-|
         *   *     *   *   *

Guitar 2
e|------------------------------|
B|------------------------------|
G|------------------------------|
D|-------6-----4--------6-----4-|
A|-6---4-----4--------4-----4---|
E|-4-5-----5--------5-----5-----|

e|--------------------------------|
B|--------------------------------|
G|--------------------------------|
D|-------6-----4--------6---------|
A|-6---4-----4--------4-----4-6-2-|
E|-4-5-----5--------5-----5---4-0-|

e|------------------------------|
B|------------------------------|
G|------------------------------|
D|-------6-----4--------6-----4-|
A|-6---4-----4--------4-----4---|
E|-4-5-----5--------5-----5-----|

e|--------------------------------|
B|--------------------------------|
G|--------------------------------|
D|-------6-----4--------6---------| [combines with guitar 1]
A|-6---4-----4--------4-----4-6-4-|
E|-4-5-----5--------5-----5---4-2-|


Solo (Mustaine)
e|--------------------------------------|
B|--------------------------------------|
G|--------------------------------------|
D|-4-4-4--4-4h6-------4-4-4--4h6--------|
A|-------------------------------7--6-7-|
E|---------------X\\--------------------|

e|-0-0-0-0-0-0-0-0-0-0-|
B|-5-5-4-4-2-2-0-0-0-0-|
G|-----------------2-2-|
D|---------------------|
A|---------------------|
E|---------------------|

e|-------------------------------------|
B|-------------------------------------|
G|-4-4-4--------------4-4-4--4h6-------|
D|--------7-6-7------------------7-6-4-|
A|-------------------------------------|
E|--------------/X\\-------------------|

e|--------------------/17--16-14----|
B|-------------------------------17-|
G|-/14~--13-11----11----------------|
D|-------------14-------------------|
A|----------------------------------|
E|----------------------------------|

e|-14------17-------------------------------|
B|-17b19~--20b22~--22b24--22b24-22b24-22b24-|
G|------------------------------------------|
D|------------------------------------------|
A|------------------------------------------|
E|------------------------------------------|

e|---------------------------------------|
B|-22b24-22b24-22b24-22b24-22b24-22b24~~-|
G|---------------------------------------|
D|---------------------------------------|
A|---------------------------------------|
E|---------------------------------------|

End Solo


Play Riff 3a  "Oh, about to lose..."

Guitar fills at the ends of Riff 3
Fill #1
e|------------------14-----12-------------|
B|--------17-19b20--17b19--15b17----------|
G|-----16---------------------------14b16-|
D|-/18------------------------------------|
A|----------------------------------------|
E|----------------------------------------|

Fill #2
e|------------------14--------------12-----12----|
B|--------17-19b20--17b19--15b17----15b17--15b17-|
G|-----16----------------------------------------|
D|-/18-------------------------------------------|
A|-----------------------------------------------|
E|-----------------------------------------------|

e|-----------------------------------------------------|
B|-12b14--12b14--12b14--12b14r12-----------9-12-12b14~-|
G|-------------------------------9~~--9h11-------------|
D|-----------------------------------------------------|
A|-----------------------------------------------------|
E|-----------------------------------------------------|

e|--9-------11-------12--------------------|
B|-12b14----14b16----15b17-----------------|
G|----------------------------12----12^----|
D|----------------------------12----12^-14-|
A|-------------------------------14--------|
E|-----------------------------------------|

End guitar fills


Play Riff 2   Solo Rhythm

Final time for Riff 2:
e|----------------------------------|
B|----------------------------------|
G|--------------------2------0------|
D|-----2-------0----2------2--------|
A|---2-------2---0------3---------2-|
E|-0-----0-3----------------------0-|


Ending Solo (Mustaine)
e|-17b19-17b19-17b19----17b19-17b19-17b19-|
B|----------------------------------------|
G|----------------------------------------|
D|----------------------------------------|
A|----------------------------------------|
E|----------------------------------------|

e|-17b19-17b19-17b19-17b19-17b19-17b19-17b19-17b19-|
B|-------------------------------------------------|
G|-------------------------------------------------|
D|-------------------------------------------------|
A|-------------------------------------------------|
E|-------------------------------------------------|

e|-17b19----(19)r18----(18)r17--15-12-------------|
B|------------------------------------15-12-------|
G|------------------------------------------15-14-|
D|------------------------------------------------|
A|------------------------------------------------|
E|------------------------------------------------|

e|----------------------------------------------------|
B|----------------------12-------12----12-----12------|
G|-12~-----------12-----14b16----14b16-14b16--14b16~~-|
D|------14-12-14----14--------------------------------|
A|----------------------------------------------------|
E|----------------------------------------------------|

e|-12-10-------12-10---------12-10-------12-10-------|
B|-------12-10--------12-10--------12-10-------12-10-|
G|---------------------------------------------------|
D|---------------------------------------------------|
A|---------------------------------------------------|
E|---------------------------------------------------|

e|-12-10-------12-10------------------------------|
B|-------12-10--------12-10------12-10------------|
G|--------------------------12-9-------12-9-------|
D|-------------------------------------------12-9-|
A|------------------------------------------------|
E|------------------------------------------------|

e|-----------------------|
B|-----------------------|
G|-----------------------|
D|-----------------------|
A|-12-10-----------------|
E|-------12-10-\7-5--3-0-|

e|---------------------------------------------------------|
B|-----------------------------------------------12tm-15tm-|
G|---------------------------------12tm-14tm-15tm----------|
D|------------------------12tm-14tm------------------------|
A|----------12tm-13tm-14tm---------------------------------|
E|-12tm-15tm-----------------------------------------------|

e|-12h15p12------12h15p12------12h15p12------12h15p12------|
B|---------15p12---------15p12---------15p12---------15p12-|
G|---------------------------------------------------------|
D|---------------------------------------------------------|
A|---------------------------------------------------------|
E|---------------------------------------------------------|

e|-12h15p12------12h15p12------12h15p12------12h15p12-----------|
B|---------15p12---------15p12---------15p12---------15p12------|
G|--------------------------------------------------------------|
D|--------------------------------------------------------------|
A|--------------------------------------------------------------|
E|----------------------------------------------------------X\\-|

End Solo

6.THE DOCTOR IS CALLING

Tuning: Standard


Riff 1
Guitar 1 (Clean)
e|------------------------------------|
B|------------------------------------|
G|------------------------------------|
D|----4-------------------------------| ----|
A|----------5-------4-------3---------|     |
E|-2-----2-------2-------2-------2--0-|     |
                                            |
e|------------------------------------|     |--> Play 2x
B|------------------------------------|     |
G|------------------------------------|     |
D|----4-------------------------------| ----|
A|----------5-------4-------3---------|
E|-2-----2-------2-------2-------0--3-|

Guitar 2 (Distortion w/ tremolo)
e|------------------------------------|
B|----7-------------------------------|
G|----------7-------6-------5---------|
D|-4-----4-------4-------4-------4----| ----|
A|----------------------------------7-|     |
E|------------------------------------|     |
                                            |
e|------------------------------------|     |--> Play 2x
B|----7-------------------------------|     |
G|----------7-------6-------5---------|     |
D|-4-----4-------4-------4----------5-| ----|
A|-------------------------------7----|
E|------------------------------------|

Guitar 3 (Distortion)
e|------------------------------------|
B|------------------------------------|
G|------------------------------------|
D|------------------------------------|
A|---------------------------------19-|
E|------------------------------------|

e|----------------------------------------------|
B|-----19---------------------------------------|
G|-------------19--------18--------17-----------|
D|-16------16--------16--------16------------17-|
A|---------------------------------------19-----|
E|----------------------------------------------|

e|----------------------------------------------|
B|-----19---------------------------------------|
G|-------------19--------18--------17-----------|
D|-16------16--------16--------16--------16-----|
A|-------------------------------------------19-|
E|----------------------------------------------|

e|----------------------------------------------|
B|-----19---------------------------------------|
G|-------------19--------18--------17-----------|
D|-16------16--------16--------16------------17-|
A|---------------------------------------19-----|
E|----------------------------------------------|

Guitar 4 (Distortion)
e|------------------------------------|
B|------------------------------------|
G|-[fades in]-------------------------|
D|------------------------------------|
A|----------5~------4~------3~--------|
E|---------------2-------2-------2--0-|

e|------------------------------------|
B|------------------------------------|
G|------------------------------------|
D|----4-------------------------------|
A|----------5~------4~------3~--------|
E|-2-----2-------2-------2-------0--3-|



Riff 2 (Distortion)
e|------------------------------------|
B|------------------------------------|
G|------------------------------------|
D|----4-------------------------------|
A|----------5~------4~------3~--------|
E|-2-----2-------2-------2-------2--0-|

e|------------------------------------|
B|------------------------------------|
G|------------------------------------|
D|----4-------------------------------|
A|----------5~------4~------3~--------|
E|-2-----2-------2-------2-------0--3-|



Riff 3 (Guitar 2 plays top notes)    x2
e|------------------------------------|
B|------------------------------------|
G|------------------------------------|
D|-4-2-2-/7-4~------------------------|
A|------------------------------------|
E|-2-0-0-/5-2~----2-2-2-2-2-2-2-2-2-2-|
                  * * * * * * * * * *
   "The doctor is calling..."



Riff 3a (Guitar 2 plays top notes)
e|----------------------------------|
B|----------------------------------|
G|----------------------------------|
D|-4-2-2-/7-4~--4--4-4-2-2-/7-2~--2-|
A|----------------------------------|
E|-2-0-0-/5-2~--2--2-2-0-0-/5-0---0-|
                *                 *
  "Something's going wrong..."
e|----------------------------------|
B|----------------------------------|
G|----------------------------6\4-4-|
D|-4-4-2-2-/7-4~--4--4-4-2-2--------|
A|----------------------------4\2-2-|
E|-2-2-0-0-/5-2~--2--2-2-0-0--------|
                  *
  "I listen to the voices..."
e|----------------------------------|
B|----------------------------------|
G|----------------------------------|
D|-4-2-2-/7-4~--4--4-4-2-2-/7-2~--2-|
A|----------------------------------|
E|-2-0-0-/5-2~--2--2-2-0-0-/5-0---0-|
                *                 *
  "Something's going down..."
e|----------------------------------|
B|----------------------------------|
G|----------------------------------|
D|-4-4-2-2-/7-4~--4--4-4-5-5--------|
A|------------------------------5-4-|
E|-2-2-0-0-/5-2~--2--2-2-3-3----3-2-|
                  *
  "Looking past the bars..."


Riff 4
Guitar 1 (12-string acoustic)
e|-------------------------------------|
B|-----------------------------0-------|
G|---------0---------------0-----0-----|
D|-----2-4---4-2h4p2p0---2---2-----2---|
A|---2-----------------4-------------4-|
E|-0-----------------------------------|
    "The coat of arms..."
e|----------------------------------|
B|-------------0-2h3-2------0-------|
G|---------0-2------------2---0-2---|
D|-----2-4------------------------4-|
A|---2------------------------------|
E|-0--------------------------------|
    "I hear the doctor..."
e|-------------------------------------|
B|-----------------------------0-------|
G|---------0---------------0-----0-----|
D|-----2-4---4-2h4p2p0---2---2-----2---|
A|---2-----------------4-------------4-|
E|-0-----------------------------------|
    "The family crest..."
e|-------------------------------------|
B|-------------0-2h3-2-----------------|
G|---------0-2------------2-2/4--------|
D|-----2-4-------------------------2-4-|
A|---2---------------------------------|
E|-0-----------------------------------|
    "I hear the doctor..."


Guitar 2 (Distortion)
e|-------------------------------------|
B|-------------------------------------|
G|-------------------------------------|
D|-------------------------------------|
A|-2-------------------4-----------5-4-|
E|-0-------------------------------3-2-|

e|-------------------------------------|
B|-------------------------------------|
G|-------------------------------------|
D|---------7---------------------------|
A|-2-------5---------7-------5----7----|
E|-0-----------------5----33-3-55-5-00-|
                          **   **   **
e|-------------------------------------|
B|-------------------------------------|
G|-------------------------------------|
D|-------------------------------------|
A|-2-------------------4-----------5-4-|
E|-0-------------------------------3-2-|

e|-----------------------------------|
B|-----------------------------------|
G|-----------------------------------|
D|---------7-------------------------|
A|-2-------5---------7------5------4-|
E|-0-----------------5------3----0-2-|


Riff 1a
Guitar 1 (Distortion)
e|------------------------------------|
B|------------------------------------|
G|------------------------------------|
D|----4-------------------------------|
A|----------5~------4~------3~--------|
E|-2-----2-------2-------2-------2--0-|

e|------------------------------------|
B|------------------------------------|
G|------------------------------------|
D|----4-------------------------------|
A|----------5~------4~------3~--------|
E|-2-----2-------2-------2-------0--3-|

Guitar 2 (Distortion w/ tremolo)
e|------------------------------------|
B|----7-------------------------------|
G|----------7-------6-------5---------|
D|-4-----4-------4-------4-------4----|
A|----------------------------------7-|
E|------------------------------------|

e|------------------------------------|
B|----7-------------------------------|
G|----------7-------6-------5---------|
D|-4-----4-------4-------4----------5-|
A|-------------------------------7----|
E|------------------------------------|

Guitar 3 (Distortion)
e|----------------------------------------------|
B|-----19---------------------------------------|
G|-------------19--------18--------17-----------|
D|-16------16--------16--------16--------16-----|
A|-------------------------------------------19-|
E|----------------------------------------------|

e|----------------------------------------------|
B|-----19---------------------------------------|
G|-------------19--------18--------17-----------|
D|-16------16--------16--------16------------17-|
A|---------------------------------------19-----|
E|----------------------------------------------|


Play Riff 2
Play Riff 3a   "Always sharing..."


Riff 4a
Guitar 1 (12-string acoustic)
e|-------------------------------------|
B|-----------------------------0-------|
G|---------0---------------0-----0-----|
D|-----2-4---4-2h4p2p0---2---2-----2---| ---|
A|---2-----------------4-------------4-|    |
E|-0-----------------------------------|    |
    "The coat of arms..."                   |
e|----------------------------------|       |--> Play 2x
B|-------------0-2h3-2------0-------|       |
G|---------0-2------------2---0-2---|       |
D|-----2-4------------------------4-| ------|
A|---2------------------------------|
E|-0--------------------------------|
    "I hear the doctor..."
e|-------------------------------------|
B|-----------------------------0-------|
G|---------0---------------0-----0-----|
D|-----2-4---4-2h4p2p0---2---2-----2---|
A|---2-----------------4-------------4-|
E|-0-----------------------------------|
    "I see the chalkline..."
e|---------------------------------|
B|-------------0-2h3-2-------------|
G|---------0-2------------2-2/4----|
D|-----2-4-------------------------|
A|---2-----------------------------|
E|-0-------------------------------|
    "I hear the doctor..."


Guitar 2 (Distortion)
e|-------------------------------------|
B|-------------------------------------|
G|-------------------------------------|
D|-------------------------------------| ---|
A|-2-------------------4-----------5-4-|    |
E|-0-------------------------------3-2-|    |
                                            |
e|-------------------------------------|    |--> Play 2x
B|-------------------------------------|    |
G|-------------------------------------|    |
D|---------7---------------------------| ---|
A|-2-------5---------7-------5----7----|
E|-0-----------------5----33-3-55-5-00-|
                          **   **   **
e|-------------------------------------|
B|-------------------------------------|
G|-------------------------------------|
D|-------------------------------------|
A|-2-------------------4-----------5-4-|
E|-0-------------------------------3-2-|

e|-------------------------------|
B|-------------------------------|
G|-------------------------------|
D|---------7---------------------|
A|-2-------5---------7------5----|
E|-0-----------------5------3----|


Play Riff 1   w/o guitar 4

Riff 2a
e|------------------------------------|
B|------------------------------------|
G|------------------------------------|
D|----4-------------------------------|
A|----------5~------4~------3~--------|
E|-2-----2-------2-------2-------2--0-|

e|------------------------------------|
B|------------------------------------|
G|------------------------------------|
D|----4-------------------------------|
A|----------5~------4~------3~--------|
E|-2-----2-------2-------2-------2--5-|



Riff 2b (Solo Rhythm)                         x3
e|---------------------------------------------|
B|---------------------------------------------|
G|---------------------------------------------|
D|----4----------2-----------------------------|
A|----------5-------5-------4-----3----2-------|
E|-2-----2-------------2-------2----------5--2-|

e|----------------------------------------|
B|----------------------------------------|
G|----------------------------------------|
D|----------------------------------------|
A|-4--4-----4--4--4-----------------------|
E|-2--2--0--2--2--2--0--/5--5-5-5-5-5-5-5-| Division


(Division: harmony guitar plays top notes)
e|---------5--7--7--5--|
B|-4----5-----0--0-----|
G|---------2--------2--|
D|-1----2--------------|
A|---------------------|
E|---------------------|
                                              x3
e|---------------------------------------------|
B|---------------------------------------------|
G|---------------------------------------------|
D|----4----------2-----------------------------|
A|----------5-------5-------4-----3----2-------|
E|-2-----2-------------2-------2----------5--2-|

e|----------------------------------------|
B|----------------------------------------|
G|----------------------------------------|
D|----------------------------------------|
A|-4--4-----4--4--4-----------------------|
E|-2--2--0--2--2--2--0--/5--5-5-5-5-5-5-5-|

e|-------------------|
B|-------------------|
G|-------------------|
D|-------------------|
A|---------------5-4-|
E|-5~--5-5-5-5-5-3-2-|

(Division: harmony guitar plays top notes)
e|---------5--7--7--5-----------7----5------|
B|-4----5-----0--0-----4--5~----0-----------|
G|---------2--------2----------------2------|
D|-1----2--------------1--2~----------------|
A|------------------------------------------|
E|--------------------------------------X\\-|



Solo (Friedman)
e|-------------------------------------------|
B|-------------------------------------------|
G|----11/14-16--(16)b18~~~----16b17--(17)b18-|
D|-11----------------------------------------|
A|-------------------------------------------|
E|-------------------------------------------|

e|-----------------------------------------------|
B|-----------------------------------------------|
G|-13/14----------14p13--------------------------|
D|-------16b18----------16~~----(16)\11-10b11r10-|
A|-----------------------------------------------|
E|-----------------------------------------------|

e|----------------------------16----------------|
B|-------------14-17-15b16-------16b17--(17)~~~-|
G|----------14----------------------------------|
D|-------14-------------------------------------|
A|-14h16----------------------------------------|
E|----------------------------------------------|

e|-----------14-------14-16-17p16p14-------14----------------|
B|-14-17b19----17b19-----------------16h17----17b19----(19)\-|
G|-----------------------------------------------------------|
D|-----------------------------------------------------------|
A|-----------------------------------------------------------|
E|-----------------------------------------------------------|

e|----------14----16b17~~----16b17~~~-|
B|-------14----14---------------------|
G|-14h16------------------------------|
D|------------------------------------|
A|------------------------------------|
E|------------------------------------|

e|-16b17-16b17-16b17-16b17-16-14-16b17--16-14-----------|
B|--------------------------------------------17b19~~~~-|
G|------------------------------------------------------|
D|------------------------------------------------------|
A|------------------------------------------------------|
E|------------------------------------------------------|

e|-------------------------14-17-16^-14-------------|
B|-14h17p14-------14-14h17--------------17-14-------|
G|----------17~~------------------------------16b18-|
D|--------------------------------------------------|
A|--------------------------------------------------|
E|--------------------------------------------------|

e|----------17-19b21-[20]22-19-[19]21r19b21--19-[19]21~~-(21)r19-|
B|-14-17-19------------------------------------------------------|
G|---------------------------------------------------------------|
D|---------------------------------------------------------------|
A|---------------------------------------------------------------|
E|---------------------------------------------------------------|

e|-17-19-19b20r19-21p17--17h21p17---------------------------19--------|
B|---------------------21--------19-21b22r21b22r21p19-21--19--19------|
G|------------------------------------------------------21------21b23-|
D|--------------------------------------------------------------------|
A|--------------------------------------------------------------------|
E|--------------------------------------------------------------------|

e|------------------------|
B|-------19---------------|
G|-20-21----21b23--(23)\--|
D|------------------------|
A|------------------------|
E|------------------------|

End Solo


Riff 4b (Play 2x)
Guitar 1 (12-string acoustic)
e|-------------------------------------|
B|-----------------------------0-------|
G|---------0---------------0-----0-----|
D|-----2-4---4-2h4p2p0---2---2-----2---|
A|---2-----------------4-------------4-|
E|-0-----------------------------------|
    "The coat of arms..."
e|----------------------------------|
B|-------------0-2h3-2------0-------|
G|---------0-2------------2---0-2---|
D|-----2-4------------------------4-|
A|---2------------------------------|
E|-0--------------------------------|
    "I hear the doctor..."

Guitar 2 (Distortion)
e|-------------------------------------|
B|-------------------------------------|
G|-------------------------------------|
D|-------------------------------------|
A|-2-------------------4-----------5-4-|
E|-0-------------------------------3-2-|

e|-------------------------------------|
B|-------------------------------------|
G|-------------------------------------|
D|---------7---------------------------|
A|-2-------5---------7-------5----7----|
E|-0-----------------5----33-3-55-5-00-|
                          **   **   **


Riff 5
Guitar 1
e|---------------------------------|
B|---------------------------------|
G|-2-------/4-------/5-------7-8-7-|
D|---3~-------5~-------6~----------|
A|---------------------------------|
E|---------------------------------|

Guitar 2
e|-----------------------------------|
B|-----------------------------------|
G|-----------------------------------|
D|-----------------------------------|
A|-3------5--------6--------8--8--8--|
E|-1------3--------4--------6--6--6--|


Riff 4c
Guitar 1 (12-string acoustic)
e|-------------------------------------|
B|-----------------------------0-------|
G|---------0---------------0-----0-----|
D|-----2-4---4-2h4p2p0---2---2-----2---|
A|---2-----------------4-------------4-|
E|-0-----------------------------------|
     "I see the chalkline..."
e|----------------------------------|
B|-------------0-2h3-2------0-------|
G|---------0-2------------2---0-2---|
D|-----2-4------------------------4-|
A|---2------------------------------|
E|-0--------------------------------|
     "I hear the doctor..."
e|-------------------------------------|
B|-----------------------------0-------|
G|---------0---------------0-----0-----|
D|-----2-4---4-2h4p2p0---2---2---------|
A|---2-----------------4-----------0-2-|
E|-0-----------------------------------|
     "A merciful embalming..."

Guitar 2 (Distortion)
e|-------------------------------------|
B|-------------------------------------|
G|-------------------------------------|
D|-------------------------------------|
A|-2-------------------4-----------0-2-|
E|-0-----------------------------------|


Riff 6
Guitar 1 (12-string acoustic)
e|----------------------------------|
B|---------0----------------0-------|
G|-----0-----0----------0-----0-----|
D|---2---2-----2------2---2-----2---|
A|-3-------------3--2-------------2-|
E|----------------------------------|

e|----------------------------------|
B|--------------------------0-------|
G|-----0---3-0----------0-----0-----|
D|---0---0-----0------2---2-----2---|
A|-1-------------1--0-------------0-|
E|----------------------------------|

e|----------------------------------|
B|----------------------------------|
G|----------------------------------|
D|-----0-1---0-1--------0-1---0-1---|
A|---3-----3-----3----3-----3-----3-|
E|-4----------------3---------------|

e|-----------------|
B|-----------------|
G|-----------------|
D|-----0-1---0-1---|
A|---3-----3-----3-|
E|-2---------------|

Guitar 2 (Distortion)
e|----------------------------------|
B|----------------------------------|
G|----------------------------------|
D|----------------------------------|
A|-3-------------3--2-------------2-|
E|----------------------------------|

e|----------------------------------|
B|----------------------------------|
G|----------------------------------|
D|----------------------------------|
A|-1-------------1--0-------------0-|
E|----------------------------------|

e|----------------------------------|
B|----------------------------------|
G|----------------------------------|
D|----------------------------------|
A|----------------------------------|
E|-4-4-4-4-4-4-4-4--3-3-3-3-3-3-3-3-|
   * * * * * * * *  * * * * * * * *
e|-----------------|
B|-----------------|
G|-----------------|
D|-----------------|
A|-----------------|
E|-2-2-2-2-2-2-2-2-|
   * * * * * * * *


Ending
Guitar 1 (Acoustic)
e|----------------------------|
B|----------------------------|
G|----------------------------|
D|-3--6--5--------------------|
A|----------2--5--2--/6--3--5-|
E|----------------------------|

e|-----------------------------------|
B|-----------------------------------|
G|-----------------------------------|
D|-/6--5h6p5--3----------------------|
A|---------------6--5--3--2--------3-|
E|-----------------------------------|

Guitar 2 (Distortion)
e|-----|
B|-----|
G|-----|
D|-----|
A|--3--|
E|--1--|

7.ILL BE THERE

Tuning: Standard


Intro (Feedback on first note)
e|------------------------------------|
B|---3-3-3-3--------------------------|
G|-2-2-2-2-2--------------------------|
D|---0-0-0-0-...-[tremolo pick chord]-|
A|------------------------------------|
E|------------------------------------|


Riff 1
Guitar 1 (Slight distortion)
e|-----------0---------|
B|-------7-------7-----|
G|---7---------------7-|
D|-0---0---0---0---0---|
A|---------------------|
E|---------------------|
   "I heard..."
e|-----------0---------|
B|-------7-------7-----|
G|---5---------------5-|
D|-0---0---0---0---0---|
A|---------------------|
E|---------------------|
   "To me there..."
e|-----------0---------|
B|-------6-------6-----|
G|---3---------------3-|
D|-0---0---0---0---0---|
A|---------------------|
E|---------------------|

e|-----------0---------------0-----|
B|-------6-------6-------6-------6-|
G|---3---------------5-------------|
D|-0---0---0---0---0---0---0---0---|
A|---------------------------------|
E|---------------------------------|
   "...praying..."

Guitar 2 (Distortion, listen for when it comes in)
e|-------------------------------|
B|-------------------------------|
G|-------------------------------|
D|-----------7-7-7-7-7-7-7-7-7-7-|
A|-[fade in]-5-5-5-5-5-5-5-5-5-5-|
E|-------------------------------|
   "...praying..."

e|-------------------------------|
B|-------------------------------|
G|-------------------------------|
D|-----------7-7-7-7-7-7-7-7-7-7-|
A|-[fade in]-5-5-5-5-5-5-5-5-5-5-|
E|-------------------------------|
   "...pleading..."
e|-------------------|
B|-------------------|
G|-------------------|
D|-77-7--------77-7--|
A|-55-5--------55-5--|
E|-------------------|
   "I heard the bells..."
e|-----------------------------|
B|-----------------------------|
G|-----------------------------|
D|---------7-7-5-5-5-5-3-3-3-3-|
A|-5-5-5-5-5-5-3-3-3-3-1-1-1-1-|
E|-----------------------------|
   * * * *
   "...don't let this be..."


Riff 2 ('*' denotes where guitar fill comes in)
e|--------------------------|
B|--------------------------|
G|--------------------------|
D|-2------------------------|
A|-0----2-3-3/5--3-2----2---|
E|-------------------3----3-|
   "I'll be there..."
e|--------------------------|
B|--------------------------|
G|--------------------------|
D|---*----------------------|
A|-3----2-3-3/5--3-2----2---|
E|-1-----------------3----3-|
   "...you..."
e|--------------------------|
B|--------------------------|
G|--------------------------|
D|-2------------------------|
A|-0----2-3-3/5--3-2----2---|
E|-------------------3----3-|
   "I'll be there..."
e|----------------------------|
B|----------------------------|
G|----------------------------|
D|---*------------------------|
A|-3----2-3-3/7--5-3-5--3-2---|
E|-1------------------------3-|
   "...you..."
e|--------------------------------------|
B|--------------------------------------|
G|--------------------------------------|
D|-2----------------------------------7-|
A|-0----2-3-3/5--3-2----2---3----2----5-|
E|-------------------3----3-1----0------|
   "...nothing fits..."

**Guitar fill during Riff 2 (Slight distortion)
e|-1-------|
B|--1------|
G|---2-----|
D|----3----|
A|-----3---|
E|------1--|

Guitar fill at end of Riff 2
Guitar 1
e|------------------------------12-------|
B|-15--\10--/13--\8--/10---------h-------|
G|---------------------------------7-----|
D|---------------------------------h-----|
A|------------------------------------7--|
E|------------------------------------h--|


Riff 1a
Guitar 1 (Slight distortion)
e|-----------0---------------0-----|
B|-------7-------7-------7-------7-|
G|---7---------------7-------------|
D|-0---0---0---0---0---0---0---0---|
A|---------------------------------|
E|---------------------------------|
   "You saw me..."
e|-----------0---------------0-----|
B|-------7-------7-------7-------7-|
G|---5---------------5-------------|
D|-0---0---0---0---0---0---0---0---|
A|---------------------------------|
E|---------------------------------|
   "We kept our..."
e|-----------0---------------0-----|
B|-------6-------6-------6-------6-|
G|---3---------------3-------------|
D|-0---0---0---0---0---0---0---0---|
A|---------------------------------|
E|---------------------------------|

e|-----------0---------------0-----|
B|-------6-------6-------6-------6-|
G|---3---------------5-------------|
D|-0---0---0---0---0---0---0---0---|
A|---------------------------------|
E|---------------------------------|
   "...screaming..."

Guitar 2 (Distortion, listen for when it comes in)
e|-------------------------|
B|-------------------------|
G|-------------------------|
D|-----------7-7-7-7-7-7-7-|
A|-[fade in]-5-5-5-5-5-5-5-|
E|-------------------------|
   "...no sun shines through..."
e|-------------------------|
B|-------------------------|
G|-------------------------|
D|-----------7-7-7-7-7-7-7-|
A|-[fade in]-5-5-5-5-5-5-5-|
E|-------------------------|
   "...the light in you..."
e|---------------------------------|
B|---------------------------------|
G|---------------------------------|
D|-7-7-7-7-7-7-7-7-5-5-5-5-3-3-3-3-|
A|-5-5-5-5-5-5-5-5-3-3-3-3-1-1-1-1-|
E|---------------------------------|
   "...dreaming and started..."

Guitar 3 (Distortion)
e|-----------------------|
B|-/10--\8--\6--5--(5)\3-|
G|-----------------------|
D|-----------------------|
A|-----------------------|
E|-----------------------|
   "...screaming..."
e|-----------5/17--15--13--12--|
B|-10--------------------------|
G|-----------------------------|
D|-----------------------------|
A|-----------------------------|
E|-----------------------------|
   "...I know I see..."
e|---------------------|
B|-15--------13----11--|
G|---------------------|
D|---------------------|
A|---------------------|
E|---------------------|
   "...dreaming and started..."


Play Riff 2 but use this ending:
e|-------------------------------------------|
B|-------------------------------------------|
G|-------------------------------------------|
D|-2-----------------------------------------|
A|-0----2-3-3/5--3-2----2---3----2----3----2-|
E|-------------------3----3-1----0----1----0-|
   "...nothing fits..."
e|--------------------------|
B|--------------------------|
G|--------------------------|
D|-2----2-2-2----2-2-2----2-|
A|-0----0-0-0----0-0-0----0-|
E|--------------------------|
   "...there..."

Guitar fill at end of Riff 2a
e|-------------------------/17~~-|
B|-15----12----15----14----------|
G|-------------------------------|
D|-------------------------------|
A|-------------------------------|
E|-------------------------------|


Riff 3 (Slight distortion)
e|-----------------0-------------|
B|-7--7----7--7----7--7--7--7--7-|
G|-7--7----7--7----7-----7-----7-|
D|-0---------------0-------------|
A|-------------------------------|
E|-------------------------------|

e|-0---------------0-------------|
B|-7--7---7--7--7--7--7--7--7--7-|
G|-5------5--5--5--5-----5--5--5-|
D|-0---------------0-------------|
A|-------------------------------|
E|-------------------------------|

e|-0--------------0-------------|
B|-6--6--6--6--6--6--6--6--6--6-|
G|-3--3--3--3--3--3--3--3--3--3-|
D|-0--------------0-------------|
A|------------------------------|
E|------------------------------|

e|-0--------------0-------------|
B|-6--6--6--6--6--6--6--6--6--6-|
G|-3--3--3--3--3--5--5--5--5--5-|
D|-0--------------0-------------|
A|------------------------------|
E|------------------------------|


Riff 4 (Song fades out to this)
Guitar 1 (Slight distortion)
e|-----------0---------------0-----|
B|-------7-------7-------7-------7-|
G|---7---------------7-------------|
D|-0---0---0---0---0---0---0---0---|
A|---------------------------------|
E|---------------------------------|

e|-----------0---------------0-----|
B|-------7-------7-------7-------7-|
G|---5---------------5-------------|
D|-0---0---0---0---0---0---0---0---|
A|---------------------------------|
E|---------------------------------|

e|-----------0---------------0-----|
B|-------6-------6-------6-------6-|
G|---3---------------3-------------|
D|-0---0---0---0---0---0---0---0---|
A|---------------------------------|
E|---------------------------------|

e|-----------0---------------0-----|
B|-------6-------6-------6-------6-|
G|---3---------------5-------------|
D|-0---0---0---0---0---0---0---0---|
A|---------------------------------|
E|---------------------------------|


Guitar 2 (Distortion)
e|-------------------------|
B|-------------------------|
G|-------------------------|
D|-7-77----7----55-5----5--|
A|-5-55----5----33-3----3--|
E|-------------------------|

e|-------------------------|
B|-------------------------|
G|-------------------------|
D|-3-33----3----33-3----5--|
A|-1-11----1----11-1----3--|
E|-------------------------|

Guitar 3
e|----------------------------------17-20-|
B|-18--17--15----20b22--20~--20b22--------|
G|----------------------------------------|
D|----------------------------------------|
A|----------------------------------------|
E|----------------------------------------|
  "...skies all dark..."
e|-20b22~~--[20]22-20b22-20b22-20b22-20b22-20b22-|
B|-----------------------------------------------|
G|-----------------------------------------------|
D|-----------------------------------------------|
A|-----------------------------------------------|
E|-----------------------------------------------|
  "...you..."
e|-20b22-20b22-20b22-20b22-20b22-20b22-20b22r20-17--------|
B|-------------------------------------------------20b22~-|
G|--------------------------------------------------------|
D|--------------------------------------------------------|
A|--------------------------------------------------------|
E|--------------------------------------------------------|

e|------------------------------------------|
B|-20-18-20b22~~----20b22r20-18-20-18b20r18-|
G|------------------------------------------|
D|------------------------------------------|
A|------------------------------------------|
E|------------------------------------------|

e|-------14tm--15tm--14tm--15tm--------12tm-|
B|-17----------------------------15tm-------|
G|------------------------------------------|
D|------------------------------------------|
A|------------------------------------------|
E|------------------------------------------|

e|-14----14-15----15-14----14-15----15-|
B|----15-------15-------15-------15----|
G|-------------------------------------|
D|-------------------------------------|
A|-------------------------------------|
E|-------------------------------------|

Guitar 4 (w/ wah pedal)
e|---------------------|
B|-3tm--5tm--6tm--8tm--|
G|---------------------|
D|---------------------|
A|---------------------|
E|---------------------|
   "Well I really..."
e|-14tm----14tm------------12tm--------12tm--12\------|
B|-15tm----15tm----10tm----13tm--------13tm--13\------|
G|-14tm----14tm----11tm----12tm--------12tm--12\--5tm-|
D|------------------------------------------------5tm-|
A|----------------------------------------------------|
E|----------------------------------------------------|

8.WANDERLUST

Tuning: Standard


Riff 1
e|-----------------------------|
B|-----------------------------|
G|-2---2--2-2/3---3--3-3/5---5-|
D|---0----------0----------0---|
A|-----------------------------|
E|-----------------------------|

e|--------------------------------|
B|--------------------------------|
G|-5-5\4---4--0-2----3----2----3--|
D|-------0------0----0----0----0--|
A|--------------------------------|
E|--------------------------------|


Riff 2
Guitar 1
e|-----------------------------|
B|-----------------------------|
G|-2---2--2-2/3---3--3-3/5---5-|
D|---0----------0----------0---| ------|
A|-----------------------------|       |
E|-----------------------------|       |
                                       |
e|--------------------------------|    |--> Play 2x
B|--------------------------------|    |
G|-5-5\4---4--0-2----3----2----3--|    |
D|-------0------0----0----0----0--| ---|
A|--------------------------------|
E|--------------------------------|

e|----------------|
B|----------------|
G|-2----3----2----|
D|-0----0----0----|
A|----------------|
E|----------------|

Guitar 2
e|-------------------------------|
B|---3---3-------3---3-------3---|
G|-2---2---2-2/3---3---3-3/5---5-|
D|-------------------------------| --------------|
A|-------------------------------|               |
E|-------------------------------|               |
                                                 |
e|-------------------------------------------|   |
B|-3-------3---3---3----3--------5p3---5p3---|   |
G|---5-5\4---4---0-2--2---2--2/3-----3-----3-|   |
D|-------------------------------------------|   |--> Play 2x
A|-------------------------------------------|   |
E|-------------------------------------------|   |
                                                 |
e|-----------------------------|                 |
B|---3----3--------5p3---5p3---|                 |
G|-0-2--2---2--2/3-----3-----3-|                 |
D|-----------------------------| ----------------|
A|-----------------------------|
E|-----------------------------|

e|------------------------------------|
B|---3----3--------5p3---5p3-----3----|
G|-0-2--2---2--2/3-----3-----3-0-2----|
D|-------------------------------0----|
A|------------------------------------|
E|------------------------------------|



Riff 3
Guitar 1
e|---------------------------|
B|---------------------------|
G|---------------------------|
D|-5----------------------0--|
A|-3--x-x-5----x-x-5--x-x-0--|
E|----x-x-3----x-x-3--x-x----|
  "I'm an outcast..."
e|-------------------------------|
B|-------------------------------|
G|-------------------------------|
D|-0--------------------------0--|
A|-0-2-3--x-x-5----x-x-3--x-x-0--|
E|---0-1--x-x-3----x-x-1--x-x----|
  "I've got wanderlust..."
e|-------------------------------|
B|-------------------------------|
G|-------------------------------|
D|-----5----------------------0--|
A|-x-x-3--x-x-5----x-x-5--x-x-0--|
E|-x-x----x-x-3----x-x-3--x-x----|
  "I'm an outcast..."
e|------------------------------|
B|------------------------------|
G|------------------------------|
D|-0-------------------------0--|
A|-0-2-3--x-x-5----x-x-3--x--0--|
E|---0-1--x-x-3----x-x-1--x-----|
  "I've got a lust..."


Guitar 2
e|-1/8------------15\10--|
B|-1/8-------------------|
G|-----------------------|
D|-----------------------|
A|-----------------------|
E|-----------------------|
              "...riding into town..."
e|-------------------------|
B|-------------------------|
G|-10\7-----------------7/-|
D|-10\7-----------------7/-|
A|-------------------------|
E|-------------------------|
  "...branded deeper..."
e|-----------------------|
B|-----------------------|
G|-17--------------------|
D|-17--------------------|
A|-----------------------|
E|-----------------------|
 "I'm an outcast..."
e|-------------------|
B|-------------------|
G|-10\7--------(7)~~-|
D|-10\7--------(7)~~-|
A|-------------------|
E|-------------------|
  "...than the bone..."



Riff 2a
Guitar 1
e|-----------------------------|
B|-----------------------------|
G|-2---2--2-2/3---3--3-3/5---5-|
D|---0----------0----------0---| ------|
A|-----------------------------|       |
E|-----------------------------|       |
                                       |
e|--------------------------------|    |--> Play 3x
B|--------------------------------|    |
G|-5-5\4---4--0-2----3----2----3--|    |
D|-------0------0----0----0----0--| ---|
A|--------------------------------|
E|--------------------------------|

e|-----------------------------|
B|-----------------------------|
G|-2---2--2-2/3---3--3-3/5---5-|
D|---0----------0----------0---|
A|-----------------------------|
E|-----------------------------|

e|---------------------------|
B|---------------------------|
G|-5-5\4---4--0-2----3----2--|
D|-------0------0----0----0--|
A|---------------------------|
E|---------------------------|


Guitar 2
e|-------------------------------|
B|---3---3-------3---3-------3---|
G|-2---2---2-2/3---3---3-3/5---5-|
D|-------------------------------| --------------|
A|-------------------------------|               |
E|-------------------------------|               |
                                                 |
e|-------------------------------------------|   |
B|-3-------3---3---3----3--------5p3---5p3---|   |
G|---5-5\4---4---0-2--2---2--2/3-----3-----3-|   |
D|-------------------------------------------|   |--> Play 3x
A|-------------------------------------------|   |
E|-------------------------------------------|   |
                                                 |
e|-------------------------------|               |
B|---3----3--------5p3---5p3-----|               |
G|-0-2--2---2--2/3-----3-----3-0-|               |
D|-------------------------------| --------------|
A|-------------------------------|
E|-------------------------------|

e|-------------------------------|
B|---3---3-------3---3-------3---|
G|-2---2---2-2/3---3---3-3/5---5-|
D|-------------------------------|
A|-------------------------------|
E|-------------------------------|

e|------------------------------------------------|
B|-3-------3---3---3----3--------5p3---5p3-----3--|
G|---5-5\4---4---0-2--2---2--2/3-----3-----3-0-2--|
D|---------------------------------------------0--|
A|------------------------------------------------|
E|------------------------------------------------|


Guitar 3
e|-17~~~----(17)/18~~--(18)\17~~----(17)\5-|
B|-----------------------------------------|
G|-----------------------------------------|
D|-----------------------------------------|
A|-----------------------------------------|
E|-----------------------------------------|

e|------------------------------------------------|
B|---------------------20b21----{20}b22~~-(22)r20-|
G|------------------------------------------------|
D|-19----[feedback]-------------------------------|
A|------------------------------------------------|
E|------------------------------------------------|

e|---------------------------------------------------|
B|-[20]22r20-[20]22r20-[20]22r20-[20]22r20-[20]22r20-|
G|---------------------------------------------------|
D|---------------------------------------------------|
A|---------------------------------------------------|
E|---------------------------------------------------|

e|-----------------------------|
B|-[20]22r20-[20]22r20-(20)b22-|
G|-----------------------------|
D|-----------------------------|
A|-----------------------------|
E|-----------------------------|

e|-22-------{20}--------------20---------20--20-|
B|----20b22-----{20}-(22)r20-----[20]22---------|
G|----------------------------------------------|
D|----------------------------------------------|
A|----------------------------------------------|
E|----------------------------------------------|

e|---------{20}-{20}-{20}-----{20}----{20}----{20}----|
B|-[20]22----------------{20}----{20}----{20}----{20}-|
G|----------------------------------------------------|
D|----------------------------------------------------|
A|----------------------------------------------------|
E|----------------------------------------------------|

e|-{20}----------------------------22-(22)\20/22-|
B|----{20}--(22)r21--(21)r20-18------------------|
G|-----------------------------------------------|
D|-----------------------------------------------|
A|-----------------------------------------------|
E|-----------------------------------------------|

e|-----|
B|--3--|
G|--2--|
D|--0--|
A|-----|
E|-----|


Play Riff 3  "I'm an outcast..."


Lead into next section:
e|---------------------|
B|---------------------|
G|---------------------|
D|-(0)-0-0-0-0-0-0-0-0-|
A|-(0)-0-0-0-0-0-0-0-0-|
E|---------------------|
       * * * * * * *


Riff 4 (Acoustic)
e|-------0-------0-0--2-2-|
B|-----3----3----1-1--3-3-|
G|---2--------2----2--2-2-|
D|-0---------------0--0-0-|
A|------------------------|
E|------------------------|

e|-------0-------0-0--3-2-|
B|-----3----3----1-1--3-3-|
G|---2--------2----0--2-2-|
D|-0---------------0--0-0-|
A|------------------------|
E|------------------------|



Lead into next section:
e|-8~~--------(8)\3/5~~~--|
B|------------------------|
G|------------------------|
D|------------------------|
A|------------------------|
E|------------------------|
   "...my judgement day..."
e|-10~~----(10)/13~~----(13)\8/10~~-|
B|----------------------------------|
G|----------------------------------|
D|----------------------------------|
A|----------------------------------|
E|----------------------------------|

e|------------------------------------------|
B|------------------------------------------|
G|-[various feedback and production noises]-|
D|------------------------------------------|
A|------------------------------------------|
E|------------------------------------------|



Riff 5
Guitar 1
e|---------------------------------|
B|---------------------------------|
G|-7-7-7-7-7-7-7-7-7-7-7-7-7-7-7-7-|
D|-7-7-7-7-7-7-7-7-7-7-7-7-7-7-7-7-|
A|-5-5-5-5-5-5-5-5-5-5-5-5-5-5-5-5-|
E|---------------------------------|
   "A drum beats for me..."
e|-------------------------------------------------|
B|-------------------------------------------------|
G|-10-10-10-10-10-10-10-10-10-10-10-10-10-10-10-10-|
D|-10-10-10-10-10-10-10-10-10-10-10-10-10-10-10-10-|
A|--8--8--8--8--8--8--8--8--8--8--8--8--8--8--8--8-|
E|-------------------------------------------------|
   "...louder every day..."
e|-------------------------------------------------|
B|-------------------------------------------------|
G|-12-12-12-12-12-12-12-12-12-12-12-12-12-12-12-12-|
D|-12-12-12-12-12-12-12-12-12-12-12-12-12-12-12-12-|
A|-10-10-10-10-10-10-10-10-10-10-10-10-10-10-10-10-|
E|-------------------------------------------------|
   "The cadence tells me..."
e|---------------------------------|
B|---------------------------------|
G|-7-7-7-7-7-7-7-7-7-7-7-7-7-7-7-7-|
D|-7-7-7-7-7-7-7-7-7-7-7-7-7-7-7-7-|
A|-5-5-5-5-5-5-5-5-5-5-5-5-5-5-5-5-|
E|---------------------------------|
   "...meet my judgement day..."


Guitar 2
e|----------------------------|
B|----------------------------|
G|----------------------------|
D|-7--5h7--5h7--5h7--5h7--5h7-|
A|-5--5----5----5----5----5---|
E|----------------------------|

e|----------------------------------------|
B|----------------------------------------|
G|----------------------------------------|
D|-10--9h10--9h10--9h10--9h10--9h10--9h10-|
A|--8--8-----8-----8-----8-----8-----8----|
E|----------------------------------------|

e|----------------------------------------------|
B|----------------------------------------------|
G|----------------------------------------------|
D|-12--10h12--10h12--10h12--10h12--10h12--10h12-|
A|-10--10-----10-----10-----10-----10-----10----|
E|----------------------------------------------|

e|----------------------------|
B|----------------------------|
G|----------------------------|
D|-7--5h7--5h7--5h7--5h7--5h7-|
A|-5--5----5----5----5----5---|
E|----------------------------|



Riff 5a (Solo Rhythm)
Guitar 1
e|----------------------------|
B|----------------------------|
G|-7--7--7-7--7--7--7-7-7-7-7-|
D|-7--7--7-7--7--7--7-7-7-7-7-|
A|-5--5--5-5--5--5--5-5-5-5-5-|
E|----------------------------|

e|---------------------------------------|
B|---------------------------------------|
G|-10--10--10-10--10--10--10-10-10-10-10-|
D|-10--10--10-10--10--10--10-10-10-10-10-|
A|--8---8---8--8---8---8---8--8--8--8--8-|
E|---------------------------------------|

e|---------------------------------------|
B|---------------------------------------|
G|-12--12--12-12--12--12--12-12-12-12-12-|
D|-12--12--12-12--12--12--12-12-12-12-12-|
A|-10--10--10-10--10--10--10-10-10-10-10-|
E|---------------------------------------|

e|----------------------------|
B|----------------------------|
G|-7--7--7-7--7--7--7-7-7-7-7-|
D|-7--7--7-7--7--7--7-7-7-7-7-|
A|-5--5--5-5--5--5--5-5-5-5-5-|
E|----------------------------|

Guitar 2
e|----------------------------|
B|----------------------------|
G|----------------------------|
D|-7--5h7--5h7--5h7--5h7--5h7-|
A|-5--5----5----5----5----5---|
E|----------------------------|

e|----------------------------------------|
B|----------------------------------------|
G|----------------------------------------|
D|-10--9h10--9h10--9h10--9h10--9h10--9h10-|
A|--8--8-----8-----8-----8-----8-----8----|
E|----------------------------------------|

e|----------------------------------------------|
B|----------------------------------------------|
G|----------------------------------------------|
D|-12--10h12--10h12--10h12--10h12--10h12--10h12-|
A|-10--10-----10-----10-----10-----10-----10----|
E|----------------------------------------------|

e|----------------------------|
B|----------------------------|
G|----------------------------|
D|-7--5h7--5h7--5h7--5h7--5h7-|
A|-5--5----5----5----5----5---|
E|----------------------------|



Solo (Friedman)
e|-------------|
B|----------0--|
G|-/21\10\7-0--|
D|-------------|
A|-------------|
E|-------------|

e|--------------------------------------------|
B|-10^---10----10--10-10--10----10--10-10--10-|
G|-10^---10----10--10-10--10----10--10-10--10-|
D|-----12----12--12-----12----12--12-----12---|
A|--------------------------------------------|
E|--------------------------------------------|

e|-------------------------|
B|---10--10-10--10----10---|
G|---10--10-10--10----10---|
D|-12--12-----12----12--12-|
A|-------------------------|
E|-------------------------|

e|---------10-------------------10------------|
B|-------10--13p10-12p10------10--13p10-12p10-|
G|-12b14----------------12b14-----------------|
D|--------------------------------------------|
A|--------------------------------------------|
E|--------------------------------------------|

e|---------10--------------------------------|
B|-------10--13p10-12p10---------------------|
G|-12b14-----------------[12]13r12-10--12-10-|
D|-----------------------------------12------|
A|-------------------------------------------|
E|-------------------------------------------|

e|---------------------13---------------------------------|
B|-12b13------------10---12b13--10-------------10-10------|
G|-------[12]13r12--10------------12b14r12p10--10-10------|
D|-------------------------------------------12------12~~-|
A|--------------------------------------------------------|
E|--------------------------------------------------------|

e|--------17-17-----17-17-17-17-----17-17----{17}-{17}-{17}------|
B|-20b21-----20b22-----------20b22-----20b22-{20}-{20}-{20}-{20}-|
G|---------------------------------------------------------------|
D|---------------------------------------------------------------|
A|---------------------------------------------------------------|
E|---------------------------------------------------------------|

e|-20-20----20----20--------20b22--------------------|
B|----20b22-20b22-20b22-18--------[20]22r20-18-------|
G|---------------------------------------------19~~\-|
D|---------------------------------------------------|
A|---------------------------------------------------|
E|---------------------------------------------------|

e|------------------------------------------------------|
B|-18p15~-18~-18p15-18b19r18p15-18b19r18p15-18-19-18p15-|
G|------------------------------------------------------|
D|------------------------------------------------------|
A|------------------------------------------------------|
E|------------------------------------------------------|

e|-----------------------------------|
B|-----------------------------------|
G|-17p14h17p14h17p14-----------------|
D|-------------------[18]19r18-15----|
A|--------------------------------17-|
E|-----------------------------------|

e|------------------------------------------------------|
B|------------------------------------------------------|
G|------------------------------------------------------|
D|-17-15h16-----15--------------------------------------|
A|-----------17---17-15--15----19b20-19b20--19p17--17~~-|
E|---------------------17--17--------------------19-----|

End Solo


Riff 6
e|----------------------------|
B|----------------------------|
G|-5--5--5-5--5--5--5-5-5-6-6-|
D|-5--5--5-5--5--5--5-5-5-6-6-|
A|-3--3--3-3--3--3--3-3-3-4-4-|
E|----------------------------|
   "The game I play..."
e|----------------------------|
B|----------------------------|
G|-7--7--7-7--7--7--7-7\6-6\5-|
D|-7--7--7-7--7--7--7-7\6-6\5-|
A|-5--5--5-5--5--5--5-5\4-4\3-|
E|----------------------------|
   "...grief..."
e|----------------------------|
B|----------------------------|
G|-5--5--5-5--5--5--5-5-5-6-6-|
D|-5--5--5-5--5--5--5-5-5-6-6-|
A|-3--3--3-3--3--3--3-3-3-4-4-|
E|----------------------------|
  "...dying for fame..."
e|---------------------------|
B|---------------------------|
G|-7--7--7-7--7--7--7-7-7-7--|
D|-7--7--7-7--7--7--7-7-7-7--|
A|-5--5--5-5--5--5--5-5-5-5--|
E|---------------------------|
  "...obliged some relief..."
e|---------------------------------|
B|---------------------------------|
G|-7-7-7-7-7-7-7-7-7-7-7-7-7-7-7-7-|
D|-7-7-7-7-7-7-7-7-7-7-7-7-7-7-7-7-|
A|-5-5-5-5-5-5-5-5-5-5-5-5-5-5-5-5-|
E|---------------------------------|
   "Dying for fame..."
e|---------------------------------|
B|---------------------------------|
G|-7-7-7-7-7-7-7-7-7-7-7-7-7-7-7-6-|
D|-7-7-7-7-7-7-7-7-7-7-7-7-7-7-7-6-|
A|-5-5-5-5-5-5-5-5-5-5-5-5-5-5-5-4-|
E|---------------------------------|


Guitar fills over Riff 6
e|------------------------------------|
B|-12b13r12p10---10-------------------|
G|------------12----10^---------------|
D|-------------------------12-10-12~~-|
A|------------------------------------|
E|------------------------------------|

e|--------------------13--------13^--15-13^------------|
B|------------------13----15-----------------15--(15)\-|
G|---------------/14-----------------------------------|
D|-10----(10)~~----------------------------------------|
A|-----------------------------------------------------|
E|-----------------------------------------------------|

e|-----14-----14-----14-------------------------|
B|--------------------------13-----13-----13----|
G|-/14-----14-----14----------------------------|
D|-----------------------13-----13-----13----13-|
A|----------------------------------------------|
E|----------------------------------------------|

e|----------------------------------------------------------|
B|----15----15----16----16----17----18----19--/22-22--(22)\-|
G|----------------------------------------------x--x--------|
D|-15----15----15----16----17----18----19-----/22-22--(22)\-|
A|----------------------------------------------------------|
E|----------------------------------------------------------|

End guitar fills


Play Riff 3  "I'm an outcast..."

Additional ending to Riff 3
e|------------------------------|
B|------------------------------|
G|------------------------------|
D|-0--------------------------0-|
A|-0-2-3--x-x-5----x-x-3--x-x-0-|
E|---0-1--x-x-3----x-x-1--x-x---|
  "I've got a lust..."
e|------------------------------|
B|------------------------------|
G|------------------------------|
D|-0-------------------------0--|
A|-0-2-3--x-x-5--------3--x--0--|
E|---0-1--x-x-3--------1--x-----|
  "I've got wanderlust..."


Guitar fills over Riff 3
e|-10----10----10----10-----10----10----10----------------|
B|-13b15-13b15-13b15-13b15--13b15-13b15-13b15r13-10-13-10-|
G|--------------------------------------------------------|
D|--------------------------------------------------------|
A|--------------------------------------------------------|
E|--------------------------------------------------------|

e|-----------------------------|
B|-13-10-----------------------|
G|------12b14r12-10-12-10------|
D|------------------------12~~-|
A|-----------------------------|
E|-----------------------------|

e|----10------8-----10----13-------15----17----20----|
B|-10----10--11b13--13b15-16b18----18b20-20b22-23b25-|
G|---------------------------------------------------|
D|---------------------------------------------------|
A|---------------------------------------------------|
E|---------------------------------------------------|

e|---------------------------10-------10----(10)~~*-|
B|------------------------------10-13---------------|
G|--------------------------------------------------|
D|-12~~--------(12)~~-------------------------------|
A|--------------------------------------------------|
E|--------------------------------------------------|

e|-13----10----10------------------------13-15-15b17-13-15-|
B|----------13----13b15~~----13b15r13p10-------------------|
G|---------------------------------------------------------|
D|---------------------------------------------------------|
A|---------------------------------------------------------|
E|---------------------------------------------------------|

e|-15b17-13-----------------------------------10-------|
B|-----------15-13--/13-10-----------------------13b15-|
G|--------------------------12-10-12-10-12b14----------|
D|-----------------------------------------------------|
A|-----------------------------------------------------|
E|-----------------------------------------------------|

e|----------------10~~----(10)\--|
B|-(15)~~~--------10~~----(10)\--|
G|------------[fade in]----------|
D|-------------------------------|
A|-------------------------------|
E|-------------------------------|

End guitar fills

9.ECSTACY

Tuning: Standard

Intro
Guitar 1 (Clean)
e|-5--5----5---5-5--5----5---5-|
B|-6--6----6---6-6--6----6---6-|
G|-7--7----7---7-7--7----7---7-|
D|-7--7--x-7-x-7-7--7--x-7-x-7-|
A|-5--5--x-5-x-5-5--5--x-5-x-5-|
E|-----------------------------|


Guitar 2 (Distortion)
e|-5--5----5---5-5--5----5---5-|
B|-6--6----6---6-6--6----6---6-|
G|-7--7----7---7-7--7----7---7-|
D|-0--0--0---0---0--0--0---0---|
A|-----------------------------|
E|-----------------------------|
         *   *         *    *


Riff 1 (Play 2x)
Guitar 1 (Clean)
e|-5--5----5---5-5--5----5---5-|
B|-6--6----6---6-6--6----6---5-|
G|-7--7----7---7-7--7----7---6-|
D|-7--7--x-7-x-7-7--7--x-7-x-7-|
A|-5--5--x-5-x-5-5--5--x-5-x-5-|
E|-----------------------------|
          "You live in..."
e|-5--5----5---5-5--5----5---5-|
B|-5--5----5---5-5--5----5---6-|
G|-6--6----6---6-6--6----6---5-|
D|-7--7--x-7-x-7-7--7--x-7-x-7-|
A|-5--5--x-5-x-5-5--5--x-5-x-5-|
E|-----------------------------|
   "...fantasy..."
e|-5--5----5---5-5--5----5---3-|
B|-6--6----6---6-6--6----6---3-|
G|-5--5----5---5-5--5----5---4-|
D|-7--7--x-7-x-7-7--7--x-7-x-5-|
A|-5--5--x-5-x-5-5--5--x-5-x-5-|
E|-----------------------------|
         "You live in..."
e|-3--3----3---3-3--3----3---5-|
B|-3--3----3---3-3--3----3---6-|
G|-4--4----4---4-4--4----4---7-|
D|-5--5--x-5-x-5-5--5--x-5-x-7-|
A|-5--5--x-5-x-5-5--5--x-5-x-5-|
E|-----------------------------|
  "...deceit..."

Guitar 2 (Distortion)
e|-5--5----5---5-5--5----5---5-|
B|-6--6----6---6-6--6----6---5-|
G|-7--7----7---7-7--7----7---6-|
D|-0--0--0---0---0--0--0---0---|
A|-----------------------------|
E|-----------------------------|
         *   *         *    *
e|-5--5----5---5-5--5----5---5-|
B|-5--5----5---5-5--5----5---6-|
G|-6--6----6---6-6--6----6---5-|
D|-0--0--0---0---0--0--0---0---|
A|-----------------------------|
E|-----------------------------|
         *   *         *    *
e|-5--5----5---5-5--5----5---3-|
B|-6--6----6---6-6--6----6---3-|
G|-5--5----5---5-5--5----5---4-|
D|-0--0--0---0---0--0--0---0---|
A|-----------------------------|
E|-----------------------------|
         *   *         *    *
e|-3--3----3---3-3--3----3---5-|
B|-3--3----3---3-3--3----3---6-|
G|-4--4----4---4-4--4----4---7-|
D|-------0---0---------0---0---|
A|-----------------------------|
E|-----------------------------|
         *   *         *   *


Riff 2
Guitar 1 & 2 (Clean & Distortion)
e|-5--5----5---5-5--5----5---5-|
B|-6--6----6---6-6--6----6---5-|
G|-7--7----7---7-7--7----7---6-|
D|-7--7--x-7-x-7-7--7--x-7-x-7-|
A|-5--5--x-5-x-5-5--5--x-5-x-5-|
E|-----------------------------|
          "I come to you..."
e|-5--5----5---5-5--5----5---5-|
B|-5--5----5---5-5--5----5---6-|
G|-6--6----6---6-6--6----6---5-|
D|-7--7--x-7-x-7-7--7--x-7-x-7-|
A|-5--5--x-5-x-5-5--5--x-5-x-5-|
E|-----------------------------|
   "...shadows fall..."
e|-5--5----5---5-5--5----5---3-|
B|-6--6----6---6-6--6----6---3-|
G|-5--5----5---5-5--5----5---4-|
D|-7--7--x-7-x-7-7--7--x-7-x-5-|
A|-5--5--x-5-x-5-5--5--x-5-x-5-|
E|-----------------------------|
          "I leave as the..."
e|-3--3----3---3-3--3----3-----|
B|-3--3----3---3-3--3----3---5-|
G|-4--4----4---4-4--4----4---3-|
D|-5--5--x-5-x-5-5--5--x-5-x-5-|
A|-5--5--x-5-x-5-5--5--x-5-x---|
E|-----------------------------|
   "...arrives..."
e|---------------------------5-|
B|-5--5----5---5-5--5----5---6-|
G|-3--3----3---3-3--3----3---7-|
D|-5--5--x-5-x-5-5--5--x-5-x-7-|
A|-------x---x---------x---x-5-|
E|-----------------------------|
   "Hide the truth..."
e|-5--5----5---5-5--5----5---3-|
B|-6--6----6---6-6--6----6---3-|
G|-7--7----7---7-7--7----7---3-|
D|-7--7--x-7-x-7-7--7--x-7-x---|
A|-5--5--x-5-x-5-5--5--x-5-x---|
E|-----------------------------|
   "...deceive them all..."
e|-3--3----3---0-0--0----0----------------|
B|-3--3----3---3-3--3----3---2----3----2--|
G|-3--3----3---1-1--1----1---2----3----2--|
D|-------x---x---------x---x-2----3----2--|
A|-------x---x---------x---x-0----1----0--|
E|----------------------------------------|
   "...good intention lies..."


Guitar fill over Riff 2 (Distortion w/ tremolo)
e|----0---------------0----------|
B|-------3---------------2-------|
G|-2------------------------2----|
D|-------------------------------|
A|-------------------------------|
E|-------------------------------|
            "I come to you..."
e|----0--------------------------|
B|-------1------------3----------|
G|-2---------------------4-------|
D|--------------------------5----|
A|-------------------------------|
E|-------------------------------|
            "I leave as..."
e|------------------------------|
B|-5------5------------------3--|
G|-3-----------------------2----|
D|-5----5------5--------0-------|
A|------------------------------|
E|------------------------------|
  "Hide the truth..."
e|-------------------------------------|
B|------3-------------3-------------3--|
G|----2---------------------------1----|
D|------------------3------------------|
A|-3-------------1-------------2-------|
E|-------------------------------------|
          "How my good..."

End guitar fill

Guitar fill over Riff 2 (Distortion)
e|-----17--\15------------|
B|-15-----------18--15~~--|
G|------------------------|
D|------------------------|
A|------------------------|
E|------------------------|
                  "Hide the truth..."

End guitar fill



Riff 3 (Distortion)
e|---------------------------|
B|---------------------------|
G|---------------------------|
D|-7----7----5--5---5--5---7-|
A|-5--x-4--x-3--3-x-2--2-x-5-|
E|----x----x------x------x---|
   "Try to silence..."
e|---------------------------|
B|---------------------------|
G|---------------------------|
D|-7----7----5--5---5--5-6-7-|
A|-5--x-4--x-3--3-x-2--3-4-5-|
E|----x----x------x----------|
   "Feeding the dark..."
e|---------------------------|
B|---------------------------|
G|---------------------------|
D|-7----7----5--5---5--5---3-|
A|-5--x-4--x-3--3-x-2--2-x-1-|
E|----x----x------x------x---|
   "We can never..."
e|----------------------------|
B|----------------6---6-5-----|
G|--------------x-5-x-5-5-----|
D|-3---------5--x-5-x-5-5-x-3-|
A|-1--x-3--x-3------------x-1-|
E|----x-1--x------------------|
   "...the sin I bring..."
e|--------------|
B|--------------|
G|--------------|
D|-3---------2--|
A|-1--x-3--x-0--|
E|----x-1--x----|
   "...bring..."

Guitar fill (w/ pitch shifter)
e|--------------------------------------------|
B|--------------------------------------------|
G|-12b14r12-10--------------12b14r12-10-------|
D|-------------12~~\--------------------12~~\-|
A|--------------------------------------------|
E|--------------------------------------------|

e|----------------------|
B|----------------------|
G|-12b14r12-10----(10)\-|
D|----------------------|
A|----------------------|
E|----------------------|

End guitar fill


Play Riff 1   "The secret meetings..."

Guitar fill over Riff 1
e|------10-9-------------------8-7---|
B|---10------10--------------8-----8-|
G|-9-----------------------7---------|
D|-----------------------------------|
A|-----------------------------------|
E|-----------------------------------|


Play Riff 2   "The price..."  [use same guitar fills as before]


Riff 3a (Distortion)
e|---------------------------|
B|---------------------------|
G|---------------------------|
D|-7----7----5--5---5--5---7-| ---------|
A|-5--x-4--x-3--3-x-2--2-x-5-|          |
E|----x----x------x------x---|          |
   "Try to silence..."                  |
e|---------------------------|          |
B|---------------------------|          |
G|---------------------------|          |
D|-7----7----5--5---5--5-6-7-|          |
A|-5--x-4--x-3--3-x-2--3-4-5-|          |
E|----x----x------x----------|          |
   "Feeding the dark..."                |
e|---------------------------|          |--> Play 2x
B|---------------------------|          |
G|---------------------------|          |
D|-7----7----5--5---5--5---3-|          |
A|-5--x-4--x-3--3-x-2--2-x-1-|          |
E|----x----x------x------x---|          |
   "We can never..."                    |
e|----------------------------|         |
B|----------------6---6-5-----|         |
G|--------------x-5-x-5-5-----|         |
D|-3---------5--x-5-x-5-5-x-7-| --------|
A|-1--x-3--x-3------------x-5-|
E|----x-1--x------------------|
   "...the sin I bring..."
e|----------------|
B|----------------|
G|----------------|
D|-3-----------2--|
A|-1--x-3--3-x-0--|
E|----x-1--1-x----|
   "...bring..."


Guitar fill (w/ pitch shifter)
e|--------------------------------------------|
B|--------------------------------------------|
G|-12b14r12-10--------------12b14r12-10-------|
D|-------------12~~\--------------------12~~\-|
A|--------------------------------------------|
E|--------------------------------------------|

e|----------------------|
B|----------------------|
G|-12b14r12-10----(10)\-|
D|----------------------|
A|----------------------|
E|----------------------|

End guitar fill



Interlude
Guitars 1 & 2 (Acoustic & Distortion w/ Leslie effect)
e|-------1------------------1-----------|
B|-----3------3-----------3------3------|
G|---2------2------2----2------2------2-|
D|-0-------------0----0-------------0---|
A|--------------------------------------|
E|--------------------------------------|

e|-------5------------------5-----------|
B|-----5------5-----------5------5------|
G|---6------6------6----6------6------6-|
D|-0-------------0----0-------------0---|
A|--------------------------------------|
E|--------------------------------------|

e|-------5------------------5-----------|
B|-----6------6-----------6------6------|
G|---5------5------5----5------5------5-|
D|-0-------------0----0-------------0---|
A|--------------------------------------|
E|--------------------------------------|

e|-------3-----------------3-----------|
B|-----3------3----------3------3------|
G|---4------4-----4----4------4------4-|
D|-0------------0----0-------------0---|
A|-------------------------------------|
E|-------------------------------------|

e|-------3------------------3-----------|
B|-----5------5-----------5------5------|
G|---3------3------3----3------3------3-|
D|-0-------------0----0-------------0---|
A|--------------------------------------|
E|--------------------------------------|

e|-------1------------------1-----------|
B|-----3------3-----------3------3------|
G|---2------2------2----2------2------2-|
D|-0-------------0----------------------|
A|--------------------3-------------3---|
E|--------------------------------------|

e|-------3------------------0-----------|
B|-----3------3-----------3------0------|
G|---3------3-----------1------1----1---|
D|-----------------?------------------2-|
A|-1-------------1----2-----------------|
E|--------------------------------------|

e|---------------------------------|
B|-----2------3-------2--------3---|
G|---2------3-------2--------3-----|
D|-2------3-----3-2------2/3-----3-|
A|---------------------------------|
E|---------------------------------|

e|---------------------|
B|-----2-------3----2--|
G|---2-------3------2--|
D|-2-----2/3-----3--2--|
A|------------------0--|
E|---------------------|


Guitar 3 (Distortion)
e|------------------------------|
B|------------------------------|
G|---14~~~*-------(14~~)---10\--|
D|--x---------------------------|
A|-x----------------------------|
E|------------------------------|

e|-12b13r12--(12)~~------------------------|
B|-----------------------------------------|
G|-------------------12b14r12----(12)~~*\--|
D|-----------------------------------------|
A|-----------------------------------------|
E|-----------------------------------------|

e|-------------|
B|-------------|
G|-\2--2/10~~--|
D|-------------|
A|-------------|
E|-------------|

e|---------------------------------------------------------|
B|---------------------------------------------------------|
G|-x-12h13h14-15-14-15p14-12-------------------------------|
D|---------------------------15-14-12-14h15p14-15-14p12----|
A|------------------------------------------------------15-|
E|---------------------------------------------------------|

e|------------------------------------------|
B|------------------------------------------|
G|-12------------------------------------12-|
D|----15-14h15p14-12-14-12----------14h15---|
A|-------------------------15-13-15---------|
E|------------------------------------------|

e|--------------------------------------------------------|
B|--------------------------------------------12-13-14-15-|
G|---------------------------------12h13h14h15------------|
D|----------------------12h14h15h16-----------------------|
A|-13-12-13-12--12-13h15----------------------------------|
E|------------15------------------------------------------|

e|------------------------------------------------|
B|-20----20----20----20----20-----------(20)---\--|
G|-19b21-19b21-19b21-19b21-19b21--------(21r19)\--|
D|------------------------------------------------|
A|------------------------------------------------|
E|------------------------------------------------|



Riff 3b (Distortion)
e|---------------------------|
B|---------------------------|
G|---------------------------|
D|-7----7----5--5---5--5---7-| ---------|
A|-5--x-4--x-3--3-x-2--2-x-5-|          |
E|----x----x------x------x---|          |
   "Try to silence..."                  |
e|---------------------------|          |
B|---------------------------|          |
G|---------------------------|          |
D|-7----7----5--5---5--5-6-7-|          |
A|-5--x-4--x-3--3-x-2--3-4-5-|          |
E|----x----x------x----------|          |
   "Feeding the dark..."                |
e|---------------------------|          |--> Play 2x
B|---------------------------|          |
G|---------------------------|          |
D|-7----7----5--5---5--5---3-|          |
A|-5--x-4--x-3--3-x-2--2-x-1-|          |
E|----x----x------x------x---|          |
   "We can never..."                    |
e|----------------------------|         |
B|----------------6---6-5-----|         |
G|--------------x-5-x-5-5-----|         |
D|-3---------5--x-5-x-5-5-x-7-| --------|
A|-1--x-3--x-3------------x-5-|
E|----x-1--x------------------|
   "...the sin I bring..."

e|------------------------------|
B|------------------6---6-5-----|
G|----------------x-5-x-5-5-----|
D|-3-3---------5--x-5-x-5-5-x-3-| --> Play 2x
A|-1-1--x-3--x-3------------x-1-|
E|------x-1--x------------------|
   "...the sin I bring..."
e|---------------|
B|---------------|
G|---------------|
D|-3---------5-3-|
A|-1--x-3--3-3-3-|
E|----x-1--1-----|
   "...bring..."


Guitar fill (w/ pitch shifter)
e|--------------------------------------------|
B|--------------------------------------------|
G|-12b14r12-10--------------12b14r12-10-------|
D|-------------12~~\--------------------12~~\-|
A|--------------------------------------------|
E|--------------------------------------------|

e|----------------------|
B|----------------------|
G|-12b14r12-10----(10)\-|
D|----------------------|
A|----------------------|
E|----------------------|

e|-----------------------------------------------|
B|----------------------/15~~--------------------|
G|-12b14r12-10-----------------12b14r12-10-------|
D|-------------12~~\-----------------------12~~\-|
A|-----------------------------------------------|
E|-----------------------------------------------|

e|-----------------------------|
B|-/15~~-----------------------|
G|--------12b14r12-10----(10)\-|
D|-----------------------------|
A|-----------------------------|
E|-----------------------------|

End guitar fill


Ending:
Guitar 1
e|--------------------------------|
B|--------------------------------|
G|--------------------------------|
D|-5-5-5-5-5-5-5-5-5-5-5-5-5-5-3--|
A|-3-3-3-3-3-3-3-3-3-3-3-3-3-3-3--|
E|--------------------------------|

Guitar 2
e|-18~~----17----15----13--------------|
B|--------------------------17b18r17~~-|
G|-------------------------------------|
D|-------------------------------------|
A|-------------------------------------|
E|-------------------------------------|

e|----------------------------|
B|-15--13b15r13~~--11---(11)/-|
G|----------------------------|
D|----------------------------|
A|----------------------------|
E|----------------------------|

10.SEVEN

Tuning: Standard

Intro
e|-12~--------------------------|
B|-12~----(12)\-----------------|
G|-12~----(12)\-----------------|
D|----------------------------0-|
A|--------------------5~--4h5---|
E|-----------------0------------|

e|------------------------------|
B|------------------------------|
G|------------------------------|
D|------------0-------------0---|
A|----5~--4h5-------5~--4h5-----|
E|-0-------------0------------0-|

e|----------------|
B|----------------|
G|----------------|
D|------------0---|
A|----5~--4h5-----|
E|-0------------0-|


Riff 1
e|----------------------------|
B|----------------------------|
G|----------------------------|
D|------------0-------------0-|
A|----5~--4h5-------5~--4h5---|
E|-0-------------0------------|
   "Full of greed..."
e|----------------|
B|----------------|
G|----------------|
D|------------0---|
A|----5~--4h5-----|
E|-0------------0-|
     "...you sell..."


Riff 1a
Guitar 1
e|------------------------------|
B|------------------------------|
G|------------------------------|
D|------------0-----------------|
A|----5~--4h5-------------------|
E|-0-------------0--------------|
  "You eat yourself..."

Guitar 2
e|----------------------------|
B|----------------------------|
G|----------------------------|
D|--------------------------0-|
A|------------------5~--4h5---|
E|---------------0------------|


Play Riff 1   "Resent yourself..."


Riff 2
Both guitars                  x3
e|-----------------------------|
B|-----------------------------|
G|-----------------------------|
D|------7--5----------7--5-----|
A|-7--x-5--3-5-x-7--x-5--3-5-x-|
E|-5--x------3-x-5--x------3-x-|
                            "Well..."

Guitar 1
e|-------------------------|
B|-------------------------|
G|-------------------------|
D|------9--7---------------|
A|-9--x-7--5-7-x-9\----9\--|
E|-7--x------5-x-7\----7\--|
   "...lust yourself..."

Guitar 2
e|------------------------------|
B|------------------------------|
G|----------------------4-------|
D|------9--7--------------7-4---|
A|-9--x-7--5-7-x-9\-5-6-------6-|
E|-7--x------5-x-7\-------------|




Riff 3 (Guitar 2 plays notes in () )
e|-------------------(0---0-0-0---0)-|
B|-------------------(3h5-5-5-3h5-5)-|
G|-----------------------------------|
D|-----------------------------------|
A|-2--4--5--7--5--2------------------|
E|-0--2--3--5--3--0------------------|
   "Deep fears..."
e|---------------(0---0-0-0---0-0)-|
B|---------------(3h5-5-5-3h5-5-5)-|
G|---------------------------------|
D|-4--2----2-----------------------|
A|-2--0--5-0--2--------------------|
E|-------3----0--------------------|
   "...hid beneath..."
e|-------------(0---0-0-0---0)-|
B|-------------(3h5-5-5-3h5-5)-|
G|-----------------------------|
D|-7--4--2-4--2----------------|
A|-5--2--0-2--0--5-------------|
E|---------------3-------------|
   "Judge the world..."
e|-------------|
B|-------------|
G|-------------|
D|-------------|
A|-2--4--5--7--|
E|-0--2--3--5--|
   "...forgive my deadly..."



Lead into next section:
                 x2
e|----------------|
B|----------------|
G|----------------|
D|------------0---|
A|----5~--4h5-----|
E|-0------------0-|


Play Riff 1    "Procrastination..."
Guitar 2 plays this after each repetition of Riff 1:
e|--------------|
B|--------------|
G|--------------|
D|------------0-|
A|----5~--4h5---|
E|-0------------|


Play Riff 1a   "Cast your verdict..."
Play Riff 1    "Spare me..."
Play Riff 2    "Only care..."
Play Riff 3    "Deep fears..."


Riff 4 (Solo Rhythm)
e|-----------------|
B|-----------------|
G|-----------------|
D|-----------------|
A|-4-------2-----4-|
E|-2--4--5----5--2-|

e|--------------|
B|--------------|
G|--------------|
D|---------4----|
A|-4-------2--4-|
E|-2--4--5----2-|

e|-----------------|
B|-----------------|
G|-----------------|
D|-----------------|
A|-4-------2-----4-|
E|-2--4--5----5--2-|

e|-----------|
B|-----------|
G|-----------|
D|---------4-|
A|-4-------2-|
E|-2--4--5---|


Solo (Friedman)
e|--------14-----14-----14-----14-----14------|
B|-17b18----17p14--16p14--15p14--16p14--17p14-|
G|--------------------------------------------|
D|--------------------------------------------|
A|--------------------------------------------|
E|--------------------------------------------|

e|-14-----14-----14-----14-----14------------|
B|---16p14--15p14--16p14--17p14--16p14-19p14-|
G|-------------------------------------------|
D|-------------------------------------------|
A|-------------------------------------------|
E|-------------------------------------------|

e|-17b18r17p14-----17b18r17p14-----17b18r17p14-|
B|------------17p14-----------17p14------------|
G|---------------------------------------------|
D|---------------------------------------------|
A|---------------------------------------------|
E|---------------------------------------------|

e|------16-14-----16-19-14---------------------------------|
B|-17-14-----17-14--------17-14--14h15h16-17p16h17p16p14---|
G|-----------------------------17-----------------------17-|
D|---------------------------------------------------------|
A|---------------------------------------------------------|
E|---------------------------------------------------------|

e|---------------17-19p17-14--16p14-----------14-17b19-19~-|
B|-14h15p14-18-14-----------17-----17-14-13h16---------19~-|
G|---------------------------------------------------------|
D|---------------------------------------------------------|
A|---------------------------------------------------------|
E|---------------------------------------------------------|

e|------14---------------------14---------------|
B|-13/14--14-----------13-16h17--17p16-14-------|
G|----------17-16-14h15------------------13-14~-|
D|----------------------------------------------|
A|----------------------------------------------|
E|----------------------------------------------|

End Solo


Riff 5 (Solo Rhythm)          x2
e|-----------------------------|
B|-----------------------------|
G|-----------------------------|
D|------7--5----------7--5-----|
A|-7--x-5--3-5-x-7--x-5--3-5-x-|
E|-5--x------3-x-5--x------3-x-|

e|-----------------------------|
B|-----------------------------|
G|-----------------------------|
D|------9--7----------9--7-----|
A|-9--x-7--5-7-x-9--x-7--5-7-x-|
E|-7--x------5-x-7--x------5-x-|

e|------------------------------------|
B|------------------------------------|
G|------------------------------------|
D|------9--7--------------------------|
A|-9--x-7--5-7-x-9\-xx-9\-xx-9\-xx-9\-|
E|-7--x------5-x-7\-xx-7\-xx-7\-xx-7\-|

e|----------------|
B|----------------|
G|----------------|
D|----------------|
A|-9\-xx-9\-xx-9--|
E|-7\-xx-7\-xx-7--|


Solo (Mustaine)
e|---------------------------------|
B|---------------------------------|
G|-7b8r7p5-7p5---5-7b8r7p5-7p5-----|
D|-------------7---------------7-7-|
A|---------------------------------|
E|---------------------------------|

e|-------------------------------------------|
B|-------------------------------------------|
G|-7b8r7p5-7p5-7p5-x-5-7p5-7p5-7p5-7p5---8p5-|
D|-------------------------------------7-----|
A|-------------------------------------------|
E|-------------------------------------------|

e|-------------------------|
B|-------------------------|
G|---7p5---5-8p5---7-7-5-5-|
D|-7-----7-------7---------|
A|-------------------------|
E|-------------------------|

e|-----------5h7h8p7p5----------------|
B|------5h7h8---------8p7p5-----------|
G|-5h7h8-------------------8-8p5-9b11-|
D|------------------------------------|
A|------------------------------------|
E|------------------------------------|

e|-7------------------------------------|
B|--10p7--------------------------------|
G|------9b10r9p7---9p7---7h9p7---7h9b11-|
D|---------------9-----9-------9--------|
A|--------------------------------------|
E|--------------------------------------|

e|------------------------------------------------|
B|-9---7-9-10p9p7h9---7-9p7---10p7---9p7---10p7---|
G|---0--------------0-------9------9-----9------9-|
D|------------------------------------------------|
A|------------------------------------------------|
E|------------------------------------------------|

e|----------------------------------------|
B|-10p7---9p7---10p7---9p7---10p7---9p7---|
G|------9-----9------9-----9------9-----9-|
D|----------------------------------------|
A|----------------------------------------|
E|----------------------------------------|

e|----------------------------------------|
B|-10p7---9p7---10p7---9p7---10p7---9p7---|
G|------9-----9------9-----9------9-----9-|
D|----------------------------------------|
A|----------------------------------------|
E|----------------------------------------|

e|---------------------------------|
B|-10p7---9p7---6------------------|
G|------9-----9---9p7-9p7---7-9b11-|
D|------------------------9---a----|
A|---------------------------------|
E|---------------------------------|

e|------------------------------------------|
B|------------------------------------------|
G|-9b11-[9]10r9-7b8----7--------------------|
D|-------------------x---9-8-7---7----------|
A|-----------------------------9---9-8-7----|
E|---------------------------------------10-|

e|----------------------------|
B|----------------------------|
G|----------------------------|
D|------7/9-7~----[long hold]-|
A|----------------------------|
E|-7\5------------------------|

End Solo


Riff 6
e|--------------------------------|
B|--------------------------------|
G|--------------------------------|
D|----4-5h7--5----------4-5h7-5~--|
A|-/7----------7~----/7-----------|
E|--------------------------------|

e|--------------------------------|
B|--------------------------------|
G|--------------------------------|
D|----4-5h7--5----------4-5h7-----|
A|-/7----------7~----/7-------7~--|
E|--------------------------------|

e|--------------------------------|
B|--------------------------------|
G|--------------------------------|
D|----4-5h7--5----------4-5h7-5~--|
A|-/7----------7~----/7-----------|
E|--------------------------------|

e|-----------------------------------|
B|-----------------------------------|
G|-----------------------------------|
D|----4-5h7--5----------4-7b9r7p5----|
A|-/7----------7~----/7-----------7~-|
E|-----------------------------------|


Riff 6a
Guitar 1
e|--------------------------------|
B|--------------------------------|
G|--------------------------------|
D|----4-5h7--5----------4-5h7-5~--|
A|-/7----------7~----/7-----------|
E|--------------------------------|
     "On every street..."
e|--------------------------------|
B|--------------------------------|
G|--------------------------------|
D|----4-5h7--5----------4-5h7-----|
A|-/7----------7~----/7-------7~--|
E|--------------------------------|
    "Seven deadly sins..."

Guitar 2                         x2
e|----------2-------------3----0--|
B|-9--------3--------2----3----0--|
G|-9--------2--------2----0----1--|
D|-9--------0--------2----0----2--|
A|-7-----------------0----2----2--|
E|-0----------------------3----0--|

e|-0-0--------2-2---------------3-3----0-0-|
B|-0-0--------3-3--------2-2----3-3----0-0-|
G|-1-1--------2-2--------2-2----0-0----1-1-|
D|-2-2--------0-0--------2-2----0-0----2-2-|
A|-2-2-------------------0-0----2-2----2-2-|
E|-0-0--------------------------3-3----0-0-|


Guitar 3 (Comes in later)
e|--------------------------------|
B|--------------------------------|
G|----6-7h9--7----------6-7h9-7~--|
D|-/9----------9~----/9-----------|
A|--------------------------------|
E|--------------------------------|

e|--------------------------------|
B|--------------------------------|
G|----6-7h9--7----------6-7h9-----|
D|-/9----------9~----/9-------9~--|
A|--------------------------------|
E|--------------------------------|

e|--------------------------------|
B|--------------------------------|
G|----6-7h9--7----------6-7h9-7~--|
D|-/9----------9~----/9-----------|
A|--------------------------------|
E|--------------------------------|

e|-------------------------------------|
B|-------------------------------------|
G|----6-7h9--7----------6-9b10r9-7-----|
D|-/9----------9~----/9------------9~--|
A|-------------------------------------|
E|-------------------------------------|



Riff 7
e|--------------------------------|
B|-3------------------3-----------|
G|-2------------------2-----------|
D|-0----2-------------0----2------|
A|-0----0----2--------0----0----2-|
E|-----------0------------------0-|

e|--------------|
B|-3------------|
G|-2------------|
D|-0----2-------|
A|-0----0----2--|
E|-----------0--|

Guitar fill #1
Guitar 1
e|-14-12--------12------0---------|
B|------15-14-15--15-14---12------|
G|--------------------------14-13-|
D|--------------------------------|
A|--------------------------------|
E|--------------------------------|

e|--------------------------------|
B|-12-----------------------------|
G|---14-13-11--13-11--------------|
D|-----------12-----12-11---------|
A|-----------------------14-12-11-|
E|--------------------------------|

Guitar 2
e|-0-0-0-0---------------------|
B|-0-0-0-0-...--[tremolo pick]-|
G|-----------------------------|
D|-----------------------------|
A|-----------------------------|
E|-----------------------------|

Guitar fill #2
Guitar 1
e|-15p12-15p12-12-12------------12-12-|
B|------------------15-12--14-15------|
G|-----------------------15-----------|
D|------------------------------------|
A|------------------------------------|
E|------------------------------------|

e|-----------------------------------|
B|-15-12h15p12---------------12------|
G|------------15--12-12-12-14---12~~-|
D|-----------------------------------|
A|-----------------------------------|
E|-----------------------------------|

Guitar 2
e|-15b16--15b16--15b16--15b16--15b16~~-|
B|-14b15--14b15--14b15--14b15--14b15~~-|
G|-------------------------------------|
D|-------------------------------------|
A|-------------------------------------|
E|-------------------------------------|

Guitar fill #3
e|--0---0-----0---0---0--0--0--0-|
B|-17--15p0--14--12--10--9--7--5-|
G|-------------------------------|
D|-------------------------------|
A|-------------------------------|
E|-------------------------------|


Ending:
Guitar 1
e|----------------------------|
B|-3--------------------------|
G|-2--------------------------|
D|-0----2---------------------|
A|-0----0----2----------------|
E|-----------0-------/19\-12\-|

e|----------------------|
B|-3--3--3--2--2--2-----|
G|-2--2--2--2--2--2-----|
D|-0--0--0--2--2--2-----|
A|-0--0--0--0--0--0--2--|
E|-------------------0--|

e|-----------------------------------4-|
B|-----------------------------------5-|
G|-----------------------------------4-|
D|-------------------------------------|
A|-(2)----[long hold]----4~----3~------|
E|-(0)---------------------------------|

Guitar 2
e|-----------------------------------------|
B|-12^----12^----12^----12^----14----12----|
G|-12^----12^----12^----12^----14----12----|
D|-----14-----14-----14-----14----14----14-|
A|-----------------------------------------|
E|-----------------------------------------|

e|-------------------------------------------------|
B|-14----12----14----12----14----12----14----12----|
G|-14----12----14----12----14----12----14----12----|
D|----14----14----14----14----14----14----14----14-|
A|-------------------------------------------------|
E|-------------------------------------------------|

e|-----------------------|
B|-14-14----12-14--12tm--|
G|-14-14----12-14--12tm--|
D|-------14--------------|
A|-----------------------|
E|-----------------------|

e|----------------------------------------|
B|----------------------------------------|
G|----------------------------------------|
D|----------------------------------------|
A|-[Bunch of pick slides and hand slides]-|
E|----------------------------------------|

11.TIME THE BEGINNING

Tuning: Standard

NOTE: If you're playing with only one guitar, you may
want to use the following riff in replace of the
normal acoustic Em strumming. It's just the combination
of Guitar 1 & 2.

Alternate Riff:                 x3
e|--0----0-0----0--0-0--0-0-0-0--|
B|--0----0-0----0--0-0--0-0-0-0--|
G|--2----0-0----0--0-0--0-0-0-0--|
D|--2----2-2----2--2-2--2-2-4-2--|
A|--2----2-2----2--2-2--2-2-2-2--|
E|--0----0-0----0--0-0--0-0-0-0--|

e|--0----0-0----0--0-0--0-0-0-0--|
B|--0----0-0----0--0-0--0-0-0-0--|
G|--0----0-0----0--0-0--0-0-0-0--|
D|--4----2-2----2--2-2--2-2-2-2--|
A|--2----2-2----2--2-2--2-2-2-2--|
E|--0----0-0----0--0-0--0-0-0-0--|




Riff 1
Guitar 1 (Acoustic)
e|--0----0-0----0--0-0--0-0-0-0--|
B|--0----0-0----0--0-0--0-0-0-0--|
G|--0----0-0----0--0-0--0-0-0-0--|
D|--2----2-2----2--2-2--2-2-2-2--|
A|--2----2-2----2--2-2--2-2-2-2--|
E|--0----0-0----0--0-0--0-0-0-0--|
   "Father time..."

Guitar 2 (Slight distortion)
e|----------------------------------------------|
B|----------------------------------------------|
G|----------------------------------------------|
D|----------------------------------------------|
A|-10/12--10-10--------9h10-/12--10-10~~--10-10-|
E|------------0-------------------------------0-|
   "Father time..."
e|---------------------------------------------|
B|---------------------------------------------|
G|---------------------------------------------|
D|---------------------------------------------|
A|-(10)/12--10-10----10--10-10--9h10-9~--\7-7~-|
E|--------------0-----0---0--0------------0-0--|
   "...winding down..."
e|------------------------------------------------|
B|------------------------------------------------|
G|------------------------------------------------|
D|------------------------------------------------|
A|-----/12--10-10~----10-/12--10-9/10~~--(10)\7\2-|
E|-0-7--------------------------------------------|
   "Seconds drift..."
e|-------------------------------------------|
B|-------------------------------------------|
G|-------------------------------------------|
D|-------------------------------------------|
A|-2/7-/12--10-10~----9h10-9-\7-7~~----(7)\2-|
E|----------------------------0-0------------|
   "The clock just..."


Riff 2
Guitar 1 (Acoustic)
e|--------------------------------|
B|--------------------------------|
G|--5--5-5-5--5-5--x--4-4--4--x-x-|
D|--5--5-5-5--5-5--x--4-4--4--x-x-|
A|--3--3-3-3--3-3--x--2-2--2--x-x-|
E|--------------------------------|
   "You were once..."
e|---------------------------------|
B|---------------------------------|
G|--5--5-5-5--5-5--x--4-4----------|
D|--5--5-5-5--5-5--x--4-4----------|
A|--3--3-3-3--3-3--x--2-2--2-0-----|
E|-----------------------------3-2-|
   "Now I know..."

Guitar 2 (12 string acoustic)
e|--------------------------------|
B|--------------------------------|
G|------5-------5--x--4-4--4--x-x-|
D|----5-------5----x--4-4--4--x-x-|
A|--3--------------x--2-2--2--x-x-|
E|--------------------------------|

e|---------------------------------|
B|---------------------------------|
G|------5-------5--x--4-4----------|
D|----5-------5----x--4-4----------|
A|--3--------------x--2-2--2-0-----|
E|-----------------------------3-2-|


Guitar 3 (Slight distortion)
e|---------------------------------|
B|---------------------------------|
G|--5--------5---------4---4--4--4-|
D|--5--------5---------x---x--x--x-|
A|--3--------3----4/6--6---6--6--6-|
E|---------------------------------|

e|---------------------------------|
B|-----------5---------------------|
G|--5--------5----5----------------|
D|--x--------x----x-------9--------|
A|--7--------7----7--7/9--9-----9\-|
E|---------------------------------|



Riff 3
Guitar 1 & 2 (Acoustic & 12 string acoustic)
e|------------------------------0--|
B|----------------------------0----|
G|--------------------------0------|
D|------7-----5-----7-----5--------|
A|----7-----7-----7-----7----------|
E|--0-----0-----0-----0------------|

e|------------------------------0--|
B|----------------------------0----|
G|--------------------------0------|
D|------7-----5-----7-----5--------|
A|----7-----7-----7-----7----------|
E|--0-----0-----0-----0------------|


Guitar 3 (Slight distortion)
e|---------------------------------|
B|---------------------------------|
G|---------------------------------|
D|----------[silent]---------------|
A|---------------------------------|
E|---------------------------------|

e|--------------------------------------|
B|---------------------------12~--(12)\-|
G|---------------------------12~--(12)\-|
D|--------------------------------------|
A|--7~--(7)\2---------------------------|
E|--------------------------------------|



Riff 1a
Guitar 1 (Acoustic)
e|--0----0-0----0--0-0--0-0-0-0--|
B|--0----0-0----0--0-0--0-0-0-0--|
G|--0----0-0----0--0-0--0-0-0-0--|
D|--2----2-2----2--2-2--2-2-2-2--|
A|--2----2-2----2--2-2--2-2-2-2--|
E|--0----0-0----0--0-0--0-0-0-0--|
   "The days I saved..."

Guitar 2 (Slight distortion)
e|---------------------------------|
B|---------------------------------|
G|---------------------------------|
D|----------[silent]---------------|
A|---------------------------------|
E|---------------------------------|
                            "...hourglass..."
e|---------------------------------|
B|---------------------------------|
G|---------------------------------|
D|---------------------------------|
A|--9\7/10-9~~----7--(7)~~----(7)\-|
E|---------------------------------|


Guitar 3 (12 string acoustic)
e|-------------------------------|
B|-------------------------------|
G|--2----0--------2----0---------|
D|--2-------------2--------------|
A|--2-------------2--------------|
E|--0-------------0--------------|
   "The days I saved..."
e|-------------------------------|
B|-------------------------------|
G|--2----0------------(0)--------|
D|--2----------------------------|
A|--2----------------------------|
E|--0----------------------------|
   "They fell like sand..."
e|-------------------------------|
B|-------------------------------|
G|--2----0------------(0)--------|
D|--2----------------------------|
A|--2----------------------------|
E|--0----------------------------|
   "No time to lose..."



Riff 4
Guitar 1 & 3 (Acoustic & 12 string acoustic)
e|-----------------------------------|
B|--------------------------------0--|
G|--------0-------0-------0-----0----|
D|------2-------4-------5-----2------|
A|----2-------4-------5--------------|
E|--0-------0-------0-------0--------|
                 "Time taking time..."
e|-----------------------------------|
B|--------0-------0-------0----------|
G|------0-------0-------0------------|
D|----2-------2-------1--------------|
A|--3-------0-------2----------------|
E|--------------------------3---2----|
                 "It's taking mine..."

Guitar 2 (Slight distortion)
e|-------------------------------------|
B|-------------------------------------|
G|-----------------------------8/11~~--|
D|-------------------------------------|
A|-------------------------------------|
E|-------------------------------------|
                          "...mine..."
e|-------------------------------------|
B|-------------------------------------|
G|-------------------------9~~----12~~-|
D|-------------------------------------|
A|-------------------------------------|
E|-------------------------------------|
                          "...so unkind..."
e|------------------------------------12-|
B|-----12~~~--------------------------12-|
G|--------------7--(7)b8~~~/11--------h.-|
D|---------------------------------------|
A|---------------------------------------|
E|---------------------------------------|
    "Time chasing time..."


Riff 4a
Guitars 1 & 3 (Acoustic & 12 string acoustic)
e|--0------------0--------|
B|--1------------3--------|
G|--0------------0--------|
D|--2--------2/4-4--------|
A|--0---------------------|
E|------------------------|
  "...no one, not even me..."

Guitar 2 (Slight distortion)
e|------------------------------------|
B|------------------------------------|
G|------------------------------------|
D|-10---------------(10)/12----12/14--|
A|------------------------------------|
E|------------------------------------|


Riff 3a
Guitar 1 & 2 (Acoustic & 12 string acoustic)
e|------------------------------0--|
B|----------------------------0----|
G|--------------------------0------|
D|------7-----5-----7-----5--------|
A|----7-----7-----7-----7----------|
E|--0-----0-----0-----0------------|

e|------------------------------0--|
B|----------------------------0----|
G|--------------------------0------|
D|------7-----5-----7-----5--------|
A|----7-----7-----7-----7----------|
E|--0-----0-----0-----0------------|


Guitar 3 (Distortion)
e|---------------------------------|
B|---------------------------------|
G|---------------------------------|
D|----------[silent]---------------|
A|---------------------------------|
E|---------------------------------|

e|-----------------------------------------------|
B|-/14------/14----------------------------------|
G|-----12~------12~------12-14-14b15--(15)r14p12-|
D|-------------------/14-------------------------|
A|-----------------------------------------------|
E|-----------------------------------------------|


Riff 1b
Guitar 1 (Acoustic)
e|--0----0-0----0--0-0--0-0-0-0--|
B|--0----0-0----0--0-0--0-0-0-0--|
G|--0----0-0----0--0-0--0-0-0-0--|
D|--2----2-2----2--2-2--2-2-2-2--|
A|--2----2-2----2--2-2--2-2-2-2--|
E|--0----0-0----0--0-0--0-0-0-0--|
   "An enemy..."

Guitar 2 (12 string acoustic)
e|-------------------------------|
B|-------------------------------|
G|-------------------------------|
D|--7--5--------7--5-5-----------|
A|-------------------------------|
E|-------------------------------|
   "An enemy..."
e|-------------------------------|
B|-------------------------------|
G|-------------------------------|
D|--7--5-5------4-5-4------------|
A|---------------------7-7-------|
E|-------------------------------|
   "My final place..."

Guitar 3 (Distortion)
e|-------------------------------|
B|--15b17~~---------------12-12--|
G|------------------------12-12--|
D|------------------------12-12--|
A|-------------------------------|
E|-------------------------------|
                    "...defend..."
e|----------------------------------------|
B|----------------------------------------|
G|---------------------9/11-9--9/12-11~~--|
D|--14~~----------------------------------|
A|----------------------------------------|
E|----------------------------------------|
                "...deadly end..."
e|---------------------{14}-{17}--------------------|
B|--------------17b19~----------{17}-(19)r17--------|
G|-------------------------------------------16~~~--|
D|--------------------------------------------------|
A|--------------------------------------------------|
E|--------------------------------------------------|
            "...space..."
e|-------------------14h17p14--------------------------|
B|--------15p14--------------17-15h17p15---------------|
G|--12/14------14h16--------------------16-15-14-12-14-|
D|-----------------------------------------------------|
A|-----------------------------------------------------|
E|-----------------------------------------------------|
   "...resting place..."


Riff 2a
Guitar 1 (Acoustic)
e|--------------------------------|
B|--------------------------------|
G|--5--5-5-5--5-5--x--4-4--4--x-x-|
D|--5--5-5-5--5-5--x--4-4--4--x-x-|
A|--3--3-3-3--3-3--x--2-2--2--x-x-|
E|--------------------------------|
   "I can't get..."
e|---------------------------------|
B|---------------------------------|
G|--5--5-5-5--5-5--x--4-4----------|
D|--5--5-5-5--5-5--x--4-4----------|
A|--3--3-3-3--3-3--x--2-2--2-0-----|
E|-----------------------------3-2-|


Guitar 2 (12 string acoustic)
e|--------------------------------|
B|--------------------------------|
G|------5-------5--x--4-4--4--x-x-|
D|----5-------5----x--4-4--4--x-x-|
A|--3--------------x--2-2--2--x-x-|
E|--------------------------------|

e|---------------------------------|
B|---------------------------------|
G|------5-------5--x--4-4----------|
D|----5-------5----x--4-4----------|
A|--3--------------x--2-2--2-0-----|
E|-----------------------------3-2-|

Guitar 3 (Slight distortion)
e|---------------------------------|
B|---------------------------------|
G|--5-----------------4------------|
D|--x-----------------x------------|
A|--3-----------------2------------|
E|---------------------------------|


Guitar 4 (Distortion)
e|-------------------------------------|
B|-------------------------------------|
G|-12~~~----11~~~------5~~~~-----4~~~--|
D|-------------------------------------|
A|-------------------------------------|
E|-------------------------------------|



Riff 4a
Guitar 1 & 3 (Acoustic & 12 string acoustic)
e|-----------------------------------|
B|--------------------------------0--|
G|--------0-------0-------0-----0----|
D|------2-------4-------5-----2------|
A|----2-------4-------5--------------|
E|--0-------0-------0-------0--------|
                 "Time taking time..."
e|-----------------------------------|
B|--------0-------0-------0----------|
G|------0-------0-------0------------|
D|----2-------2-------1--------------|
A|--3-------0-------2----------------|
E|--------------------------3---2----|
                 "It's taking mine..."

Guitar 2 (Slight distortion)
e|-------------------------------------|
B|-------------------------------------|
G|-------------------------------------|
D|---------[silent]--------------------|
A|-------------------------------------|
E|-------------------------------------|

e|-------------------------------------|
B|-------------------------------------|
G|-------------------------2b4---------|
D|---------------------[grad. bend]----|
A|-------------------------------------|
E|-------------------------------------|
                      "...mine..."


Ending:
Guitars 1 & 3 (Acoustic & 12 string acoustic)
e|--0------------0------------0--|
B|--1------------3------------5--|
G|--0------------0------------0--|
D|--2--------2/4-4--------4/5-5--|
A|--0----------------------------|
E|-------------------------------|
  "...no one, waits for no one..."
e|-----------|
B|------7----|
G|------8----|
D|--5/7-9----|
A|------9----|
E|------7----|
            "...not even me."

12.TIME THE END

Tuning: Standard


Intro (Play 4x)
e|---------------------------------|
B|---------------------------------|
G|---------------------------------|
D|-5/6-----------------------------|
A|-6/7-----------------------------|
E|-----0-0-3p0-0-0-0-0-0-0-0-0-0-0-|
       * *     * * * * * * * * * *


Riff 1
e|---------------------------------|
B|---------------------------------|
G|---------------------------------|
D|-5/6-----------------------------|
A|-6/7-----------------------------|
E|-----0-0-3p0-0-0-0-0-0-0-0-0-0-0-|
       * *     * * * * * * * * * *
e|----------------------------------|
B|----------------------------------|
G|----------------------------------|
D|-5/6-----8/-9---------------------|
A|-6/7-----9/10---------------------|
E|-----0-0------0-0-0-0-0-0-0-0-0-0-|
       * *      * * * * * * * * * *
e|---------------------------------|
B|---------------------------------|
G|---------------------------------|
D|-5/6-----------------------------|
A|-6/7-----------------------------|
E|-----0-0-3p0-0-0-0-0-0-0-0-0-0-0-|
       * *     * * * * * * * * * *
e|-----------------------------|
B|-----------------------------|
G|-----------------------------|
D|-5/6-----8/-9---3-x----------|
A|-6/7-----9/10---1-x-3-x-2-2--|
E|-----0-0------0-----1-x-0-0--|
       * *      *


Riff 2
Guitar 1
e|---------------------------------|
B|---------------------------------|
G|---------------------------------|
D|-5/6-----------------------------|
A|-6/7-----------------------------|
E|-----0-0-3p0-0-0-0-0-0-0-0-0-0-0-|
       * *     * * * * * * * * * *
   "I see..."
e|----------------------------------|
B|----------------------------------|
G|----------------------------------|
D|-5/6-----8/-9---------------------|
A|-6/7-----9/10---------------------|
E|-----0-0------0-0-0-0-0-0-0-0-0-0-|
       * *      * * * * * * * * * *
   "...Chronos..."

Final time:
e|-----------------------------|
B|-----------------------------|
G|-----------------------------|
D|-5/6-----8/-9---3-x----------|
A|-6/7-----9/10---1-x-3-x-2-2--|
E|-----0-0------0-----1-x-0-0--|
       * *      *
   "...expire..."

Guitar 2 (w/ wah pedal, delay, and octaver (one octave down)
e|-------------------------------------|
B|-12~----11~--------------------------|
G|---------------[11]12r11-9~~----(9)\-|
D|-------------------------------------|
A|-------------------------------------|
E|-------------------------------------|

e|----------------------------------|
B|-----12~----11~-------------------|
G|-/9----------------[11]12r11-9~~--|
D|----------------------------------|
A|----------------------------------|
E|----------------------------------|

e|-----------12----------------------------------|
B|----12~-------11b12-11~------------------------|
G|-9-------------------------[11]12r11-9\7b9r7~~-|
D|-----------------------------------------------|
A|-----------------------------------------------|
E|-----------------------------------------------|

e|-12-------------12-------------------------------|
B|----15b17~~\-------15b17~~\----/15~--15----------|
G|----------------------------------------12~------|
D|--------------------------------------------14~\-|
A|-------------------------------------------------|
E|-------------------------------------------------|


Riff 3
Guitar 1            x3
e|-------------------|
B|-------------------|
G|-------------------|
D|-2----4----5----7--|
A|-0----2----3----5--|
E|-------------------|
  "Beat the clock..."
e|---------------------------|
B|---------------------------|
G|---------------------------|
D|-2------------4------------|
A|-0--0-7p0-6h7-2--0-5p0-3h5-|
E|---------------------------|
  "I can't let..."
e|------------------------------|
B|------------------------------|
G|------------------------------|
D|-5------------7-7-7-7-7-7-7-7-|
A|-3--0-3p0-3h5-5-5-5-5-5-5-5-5-|
E|------------------------------|

Guitar 2
e|-5-5-5-5-5-5-5-5-----5-5-5-5/-|
B|-5-5-5-5-5-5-5-5-...-5-5-5-5/-|
G|------------------------------|
D|------------------------------|
A|------------------------------|
E|------------------------------|
   "Beat the clock..."
e|-15-14-15-14-15-14-15-14-----14-15-14-15------|
B|-13-13-13-13-13-13-13-13-...-13-13-13-13-x-8/-|
G|----------------------------------------------|
D|----------------------------------------------|
A|----------------------------------------------|
E|----------------------------------------------|
   "Tick tock..."
e|-17-17-17-17-17-17-17-17-17-17-...-17-17-17-17-|
B|-------15-13-15-13-15-13-15-13-...-15-13-15-13-|
G|-----------------------------------------------|
D|-----------------------------------------------|
A|-----------------------------------------------|
E|-----------------------------------------------|
   "I can't let time..."
e|-17^-17^-17^-17^-17^-17^-17^-|
B|-15^-15^-15^-15^-15^-15^-15^-|
G|-----------------------------|
D|-----------------------------|
A|-----------------------------|
E|-----------------------------|
   "...win..."


Play Riff 2   Solo Rhythm

Solo (Mustaine)
e|------------------------------------------|
B|-15-12tr15----------(12tr15)d*------------|
G|----------[dive 5.5 steps then come back]-|
D|------------------------------------------|
A|------------------------------------------|
E|------------------------------------------|

e|--------12-------12-12---------|
B|-15b17----15b17--------15b17~~-|
G|-------------------------------|
D|-------------------------------|
A|-------------------------------|
E|-------------------------------|

e|-12-------------------------------12-12-|
B|----15b17-15b17-15b17-15b17-15b17-------|
G|----------------------------------------|
D|----------------------------------------|
A|----------------------------------------|
E|----------------------------------------|

e|-17b19--17b19--17b19--17b19-17b19-17b19~~-|
B|------------------------------------------|
G|------------------------------------------|
D|------------------------------------------|
A|------------------------------------------|
E|------------------------------------------|

e|-17p12---15p12---14p12---15p12---14p12---|
B|------12------12------12------12------12-|
G|-----------------------------------------|
D|-----------------------------------------|
A|-----------------------------------------|
E|-----------------------------------------|

e|-17p12---15p12---14p12---15p12---14p12---|
B|------12------12------12------12------12-|
G|-----------------------------------------|
D|-----------------------------------------|
A|-----------------------------------------|
E|-----------------------------------------|

e|-----------------------------------|
B|-12^-12^-12^-12^-12^-12^-----------|
G|-12^-12^-12^-12^-12^-12^-----------|
D|-------------------------14~~------|
A|-----------------------------------|
E|-------------------------------X\\-|

e|-----------------------------------------|
B|-----------------------------------------|
G|-----------------------------------------|
D|-----------------------------------------|
A|------------------------11p0--12--14--15-|
E|-1/--/12~--12-12~~--12-------------------|
              *        *
e|-------------------------------------16-17-19-20-|
B|----------------------------15-17-18-------------|
G|-------------------14-16-17----------------------|
D|----------14-15-18-------------------------------|
A|-14-15-17----------------------------------------|
E|-------------------------------------------------|

NOTE: The following bars go into the next section:

e|-19--------19----19--19--19--19--19--19--19-|
B|--------------------------------------------|
G|--------------------------------------------|
D|--------------------------------------------|
A|--------------------------------------------|
E|--------------------------------------------|

e|-19~~--19~~--19~-19-19-19--19-19-19-19-19-...-|
B|----------------------------------------------|
G|----------------------------------------------|
D|----------------------------------------------|
A|----------------------------------------------|
E|----------------------------------------------|

e|-19tm----------------19tm--|
B|---------------------------|
G|---------------------------|
D|---------------------------|
A|---------------------------|
E|---------------------------|

e|---------------------------|
B|---------------------------|
G|-4--[gradual dive w/ bar]--|
D|---------------------------|
A|---------------------------|
E|---------------------------|

End Solo


Ending:
Guitar 1
e|------------------------|
B|------------------------|
G|------------------------|
D|-9----9--x-7--7-7----7\-| ----|
A|-7----7--x-5--5-5----5\-|     |
E|------------------------|     |
                                |--> Play 4x
e|------------------------|     |
B|------------------------|     |
G|------------------------|     |
D|-2----2--x-5--5-5----5/-| ----|
A|-0----0--x-3--3-3----3/-|
E|------------------------|

e|---------------------|
B|---------------------|
G|---------------------|
D|-9----9--x-7--7-7----|
A|-7----7--x-5--5-5----|
E|---------------------|

e|---------------------|
B|---------------------|
G|---------------------|
D|-7----7--x-5--5-5----|
A|-4----4--x-3--3-3----|
E|---------------------|

e|-----------------------------|
B|-----------------------------|
G|-----------------------------|
D|-5--5--7-7--7-7----7----2----|
A|-2--2--4-5--4-5----4----3----|
E|-----------------------------|


Guitar 2 (Play 2x)
e|------------------------------------------------|
B|----9-10-9------7-8-7\-----2-3-2--5--5-5----7-7-|
G|----------------------------------5--5-5--------|
D|-/9---------9\7---------/2--------5--5-5--------|
A|------------------------------------------------|
E|------------------------------------------------|

Guitar 3 (Friedman)
e|------------------------------------------------------|
B|----9-10-9------7-8-7\--------------------------------|
G|-------------------------------4/12~~--[13]14r13------|
D|-/9---------9\7----------------------------------14~~-|
A|------------------------------------------------------|
E|------------------------------------------------------|

e|-------------------------------------------|
B|-------------------------------------------|
G|---------------1/12~~--[13]14r13-13--------|
D|-(14~~)-----------------------------14-----|
A|---------------------------------------14~-|
E|-------------------------------------------|

e|------------------------------------------|
B|------------------------------------------|
G|-11--(11)b12r11------11b12r11-------------|
D|----------------12------------14~---(14)\-|
A|------------------------------------------|
E|------------------------------------------|

e|----------8-12t5---------------------|
B|-------10--------13t5----------------|
G|-----9----------------14t5---------9-|
D|-/10-----------------------14t7t10---|
A|-------------------------------------|
E|-------------------------------------|

e|-------------------------------------|
B|-10b12--<15>p(12)r10-9-10-12-10--9---|
G|-----------------------------------9-|
D|-------------------------------------|
A|-------------------------------------|
E|-------------------------------------|

e|--------------------------------------------|
B|-10b12--<15>p(12)r10--8-10-10b11-10~--8-----|
G|----------------------------------------9-9-|
D|--------------------------------------------|
A|--------------------------------------------|
E|--------------------------------------------|

e|---------------------/16-17-19-17--16h17p16---16\12--------|
B|-10b12--<15>p(12)r10-----------------------17--------15b17-|
G|-----------------------------------------------------------|
D|-----------------------------------------------------------|
A|-----------------------------------------------------------|
E|-----------------------------------------------------------|

e|-12----12h15-12----12--------------------------------------|
B|----15----------15----15-12----15p12-----------------------|
G|----------------------------14-------[14]15r14-12~~--(12)\-|
D|-----------------------------------------------------------|
A|-----------------------------------------------------------|
E|-----------------------------------------------------------|

e|------12--------12----12-14----12-----------12----------|
B|-/12--12-15b16-----15-------15-----------12----12-15b17-|
G|----------------------------------14b16-----------------|
D|----------***-------------------------------------------|
A|--[gtr. 4 starts here]----------------------------------|
E|--------------------------------------------------------|

e|-12--12---------------------------------------|
B|--------15-12---------------------------------|
G|--------------15\14p12-14p12-14p12------------|
D|-----------------------------------14-12-14~~-|
A|----------------------------------------------|
E|----------------------------------------------|

e|---------------------------------------------------|
B|-12^-----------------------------------------------|
G|-12^-----------------------------------------------|
D|------14p12----------------------------------------|
A|------------14\12p10-12p10-12p10-12p10-------------|
E|---------------------------------------12p10-12~~\-|

Guitar 4
e|--------------------------------------------10--|
B|-9--10--8---10--9--10--12--10--9--10--12----10--|
G|----------9-------------------------------------|
D|------------------------------------------------|
A|------------------------------------------------|
E|------------------------------------------------|

13.DUKE NUKEM THEME

Standard Tuning [E A D G B E]


 intro                                                              x2
e|--------------------------------------------------------------------|
B|--------------------------------------------------------------------|
G|--------------------------------------------------------------------|
D|--2-2--2---2-2--2-----2-2--2---3-3--3-------------------------------|
A|--2-2--2---2-2--2-----2-2--2---3-3--3-------------------------------|
E|--0-0--0---0-0--0-----0-0--0---1-1--1-------------------------------|


  [riff 1]
                                                       x4   fill
e|------------------------------------------------3--3--3--|--3-3-3------|
B|------------------------------------------------3--3--3--|--3-3-3------|
G|------------------------------------------------3--3--3--|--3-3-3------|
D|--2-5-7-------7-9-------9-10--------------------5--5--5--|--5-5-5------|
A|--2-5-7-------7-9-------9-10-------2h3p2-0------5--5--5--|--5-5-5------|
E|--0-3-5-0-0-0-5-7-0-0-0-7--8-0-0-0---------3-0--3--3--3--|--3-3-3------|
          . . .     . . .      . . . 

  riff 2A
e|--------------------------------------------------------------------|
B|--------------------------------------------------------------------|
G|--------------------------------------------------------------------|
D|--3-3--3---3-3--3-----3-3--3---3-3--3-------------------------------|
A|--3-3--3---3-3--3-----3-3--3---3-3--3-------------------------------|
E|--1-1--1---1-1--1-----1-1--1---1-1--1-------------------------------|


  [riff 3 - variable (look the order just below)]

  3A                                 3B
e|----------------------------------|---------------------------------|
B|----------------------------------|---------------------------------|
G|----------------------------------|---------------------------------|
D|----------------------------------|---------------------------------|
A|-----2-----2-----2-----2----------|-----2-----2-----2---------------|
E|-0-0-0-0-0-0-0-0-0-0-0-0-0-0-000--|-0-0-0-0-0-0-0-0-0-0-0-0-000-000-|
   . .   . .   . .   . .   . . ...    . .   . .   . .   . . . ... ...

 3C                                  3D
e|----------------------------------|---------------------------------|
B|----------------------------------|---------------------------------|
G|----------------------------------|---------------------------------|
D|----------------------------------|------5-----5-----444-444-444-444|
A|-----2-----2----------------------|------5-----5-----444-444-444-444|
E|-0-0-0-0-0-0-0-0-000-000-000-000--|--3-3---3-3---3-3-222-222-222-222|
   . .   . .   . . ... ... ... ...     . .   . .   . .
 
  3E
e|---------------------------------|
B|---------------------------------|
G|---------------------------------|
D|---------------------------------|
A|------2-----2-----2-----2-----2--|
E|--0-0-0-0-0-0-0-0-0-0-0-0-0-0-0--|
    . .   . .   . .   . .   . .


Play riff 3 in this order:

 	0:53==> A B A C

	1:05==> A B A D (this rhythm along with solo 1)

	1:16==> E B E D (this rhythm along with solo 2)

  solo 1
e|---------------------------------------------------------------------
B|----------------------------------------------------------------------|
G|4-4~-4-4~-4-4~-5-5-5~-2-2~-2-2~-2~-0---0-4-4-4-4~-4^-4~-2-0-0---0----
D|-------------------------------------4-----------------------/2--/7-~|
A|---------------------------------------------------------------------
E|---------------------------------------------------------------------

-|


  solo 2
e|--------------------------------------------------------------------|
B|--12-12~-12-12~-12-12^~--10-10~-10-10-10~-8-7-8---------------------|
G|--------------------------------------------------------------------|
D|--------------------------------------------------------------------|
A|--------------------------------------------------------------------|
E|--------------------------------------------------------------------|

...


  ...solo 2
e|--------------------------------------------------------------------|
B|--12-12~-12~-12-12^-12~-10-8-8---8-8/10\-7~-------------------------|
G|-------------------------------9------------------------------------|
D|--------------------------------------------------------------------|
A|--------------------------------------------------------------------|
E|--------------------------------------------------------------------|


  after all this, play riff 2A

  and then (1:33) riff 1 (yep the riff 1 is allways x4 like is said 

above
his own tab, and includes fill part the last time)

  ...then riff 2A again

  and now riff 3 in this order:

	2:04==> E E E D (this rhythm along with solo 3)

	2:15==> E E E D (this rhythm along with solo 4)

  solo 3
e|--------------------------------------------------------------------|
B|--------------------------------------------------------------------|
G|--4-4-4-4-4-5-5~-2-2-2-2-2~-0---0-4-4-4-4-5-4-2-0-0---0-------------|
D|------------------------------4---------------------2---7\-4--------|
A|--------------------------------------------------------------------|
E|--------------------------------------------------------------------|


  solo 4
e|--------------------------------------------------------------------|
B|--12-12-12-12-12-10-10~-10-10-10-10-10-8-7-8------------------------|
G|--------------------------------------------------------------------|
D|--------------------------------------------------------------------|
A|--------------------------------------------------------------------|
E|--------------------------------------------------------------------|

...


  ...solo 4
e|--------------------------------------------------------------------|
B|--12-12-12-12-13-12-10-8-8---8-10\-7~-------------------------------|
G|---------------------------9----------------------------------------|
D|--------------------------------------------------------------------|
A|--------------------------------------------------------------------|
E|--------------------------------------------------------------------|


 (2:25) play solo 5 (both guitars playing solo 5 at the same time)

  solo 5 (with wah in some parts & no rhythm guitar here)

   guitar 1
e|---------------------15-15-15-15-15\----------------15-15-15-15-15\-|
B|----------------/15~---------------------------/15~-----------------|
G|--------------------------------------------------------------------|
D|-8--10--11--12\-----------------------------------------------------|
A|--------------------------------------------------------------------|
E|--------------------------------------------------------------------|

...
 | guitar 2                                                           |
e|--------------------------------------------------------------------|
B|----------------/15~---------------------------/15~-----------------|
G|--------------------------------------------------------------------|
D|----10--11--12\----------------------8-10-11^~----------------------|
A|-9------------------------------------------------------------------|
E|--------------------------------------------------------------------|

...


  ...solo 5
   ...guitar 1
e|----------------15-15-15-15-15\--------------------------------------
B|-----------/15~------------------------------------------------------
G|------------------------------------------------------------------9-10
D|------------------------------------------------------9-10-11-12-----
A|-8-10-11^~-------------------------------------10-11-----------------
E|---------------------------------------------------------------------


 | ...guitar 2                                                          

 |
e|---------------------------------------------------------------------
B|-----------/15~--------------------------------------------14-15-16-17\|
G|--------------------------------------------------13-15-16-----------
D|-----------------------------------------12-14-15--------------------
A|-9-11-12^~----------------------13-15-16-----------------------------
E|---------------------------------------------------------------------




 (2:39) link solo 5 with solo 6 (I can't hear the rhythm for solo 6, so 

no tab)

  solo 6
e|--------------------------------------------------------------------|
B|--/18~-18~-18~-19-19~-16-16-16\14-16-16~-14-13-14~------------------|
G|--------------------------------------------------------------------|
D|--------------------------------------------------------------------|
A|--------------------------------------------------------------------|
E|--------------------------------------------------------------------|

...


  ...solo 6
e|--------------------------------------------------------------------|
B|--/18-18-18-19~-18h19p18-16-14-14----14-15^-13~\--------------------|
G|----------------------------------15--------------------------------|
D|--------------------------------------------------------------------|
A|--------------------------------------------------------------------|
E|--------------------------------------------------------------------|


  2:54==> during rhythm 2B play solo 7

  riff 2B                                                           x4
e|--------------------------------------------------------------------|
B|--------------------------------------------------------------------|
G|--------------------------------------------------------------------|
D|--3-3--3---3-3--3-----3-3--3---3-3--3-------------------------------|
A|--3-3--3---3-3--3-----3-3--3---3-3--3-------------------------------|
E|--1-1--1---1-1--1-----1-1--1---1-1--1-------------------------------|


  solo 7
             right here non-stop picking fast, and play each slide x6!
e|--------------------------------------------------------------------|
B|--17~---------------------------------------------------------------|
G|------5/--10/12-8/10-6/8-3/5----------------------------------------|
D|------3/---8/10-6/8--4/6-1/3----------------------------------------|
A|--------------------------------------------------------------------|
E|--------------------------------------------------------------------|

...


  ...solo 7
e|--------------------------------------------------------------------|
B|-9p6---6------------------------------------------------------------|
G|-----8---8-5-8p5---5-----8p5---5-----5------------------------------|
D|-----------------8---8-6-----8---8-6---8-6-8p6----------------------|
A|-----------------------------------------------8-6-3~/8\-\pickslide-|
E|---------------------------------------------------1~/6\------------|
 | the next solo is the above solo but played differently, try both!! |
e|--4p1---1-----------------------------------------------------------|
B|------4---4-1-4p1---1-----------------------------------------------|
G|------------------3---3-1-3p1---1-----------------------------------|
D|------------------------------3---3-1-3p1---1-----------------------|
A|------------------------------------------3---3p0-3~/8\-\pickslide--|
E|--------------------------------------------------1~/6\-------------|


  after play rhythm 2B with solo 6 play the rest of the song:

  riff 2C                                                           x2
e|--------------------------------------------------------------------|
B|--------------------------------------------------------------------|
G|--------------------------------------------------------------------|
D|--3-3--3---3-3--3-----3-3--3---2-2--2-------------------------------|
A|--3-3--3---3-3--3-----3-3--3---2-2--2-------------------------------|
E|--1-1--1---1-1--1-----1-1--1---0-0--0-------------------------------|


  pre-end (3:24)                                                    x3
e|--------------------------------------------------------------------|
B|--------------------------------------------------------------------|
G|--------------------------------------------------------------------|
D|--2-5-7-------7-9-------9-10----------------------------------------|
A|--2-5-7-------7-9-------9-10-------2h3p2-0--------------------------|
E|--0-3-5-0-0-0-5-7-0-0-0-7--8-0-0-0---------3-0----------------------|
          . . .     . . .      . . . 

  and finally, the end (3:37)
e|--------------------------------------------------------------------|
B|--------------------------------------------------------------------|
G|--------------------------------------------------------------------|
D|--2-5-7-------7-9-------9-10----------------------------------------|
A|--2-5-7-------7-9-------9-10----------------------------------------|
E|--0-3-5-0-0-0-5-7-0-0-0-7--8----------------------------------------|
          . . .     . . .
comments
We did not receive enough feedback on this tab! Please rate:
print report bad tab
1 2 3 4 5
1 comment total.
0 reply
Asterix_13 wrote on September 20 2009, 07:06 pm

Thanks, very appreciated.

I want to post or [tab]
guest
You may want to rate the tab now too:
select rating
Please do not post tabs as comments. Select "correction" instead!