Oops, an error
Loading. Please wait.

Rust In Peace Tab

ver1
ver1

Album

Whole song

More versions @911Tabs.com
55,766 views 70 this week
8 commentsread comments
1 2 3 4 5
excellent!
x 10
add to favorites launch autoscroll
font size
0
reset
Autoscroll
+/-
esc
set tempo
stop
Contributor
WARNING: You are trying to view
                                    content from Ultimate-Guitar.com
                                    in an unauthorized application,
                                    which is prohibited.

                                    Please use an official Ultimate
                                    Guitar Tabs application for iPhone,
                                    iPad or Android to access legitimate
                                    chords, guitar, bass, and drum tabs
                                    from Ultimate-Guitar.com database.

                                    Type "ultimate guitar tabs" in Apple
                                    App Store's or Android Market's
                                    search to find the application.
Band- Megadeth
Album- Rust In Peace

1.HOLY WARS...THE PUNISHMENT DUE

Tuning: Standard

Riff 1 (slightly palm muted)
e|-----------------------------------|
B|-----------------------------------|
G|-----------------------------------|
D|-----------------------------------|
A|-5-6-7---------------------------2-|
E|--------5-6-7--7-6-5--5-4-3--5-5-0-|

e|-----------------------------------|
B|-----------------------------------|
G|-----------------------------------|
D|-----------------------------------|
A|-5-6-7---------------------------4-|
E|--------5-6-7--7-6-5--5-4-3--3-2-2-|

e|----------------------------|
B|----------------------------|
G|----------------------------|
D|----------------------------|
A|-5-6-7----------------------|
E|--------5-6-7--7-6-5--5-4-3-|

e|----------------------------|
B|----------------------------|
G|----------------------------|
D|-2-3-4----------------------|
A|--------3-4-5--5-4-3--4-3-2-|
E|----------------------------|

e|--------------------------------|
B|--------------------------------|
G|--------------------------------|
D|--------------------------------|
A|-5-6-7-----------------------05-|
E|--------5-6-7--7-6-5--5-4-3-----|
                               **

Riff 2
e|--------------------------------------------|
B|--------------------------------------------|
G|--------------------------------------------|
D|--------------------------------------------|
A|-5h7-----10p7----------5h7-----5h7------7-8-|
E|-----000------00000000-----000-----0000-5-6-|
       ***      ********     ***     ****
e|---------------------------------------------|
B|---------------------------------------------|
G|---------------------------------------------|
D|----------------------------------------10---|
A|-5h7-----10p7----------5h7-----5h7-------8-9-|
E|-----000------00000000-----000-----0000----7-|
       ***      ********     ***     ****
e|--------------------------------------------|
B|--------------------------------------------|
G|--------------------------------------------|
D|----------------------------------------4---|
A|-5h7-----10p7----------5h7-----5h7------2-5-|
E|-----000------00000000-----000-----0000---3-|
       ***      ********     ***     ****
e|------------------------------------------------|
B|------------------------------------------------|
G|------------------------------------------------|
D|---------------------------------------4------4-|
A|-5h7-----10p7--------9-------8-----7---2------2-|
E|-----000------000000-7--0000-6--00-5-0------0---|
       ***      ******    ****    **   *      *

e|----------|
B|----------|
G|----------|
D|-4--------|
A|-2--5--4--|
E|----3--2--|


Riff 3
e|--------------------------------------------|
B|--------------------------------------------|
G|--------------------------------------------|
D|--------------------------------------------|
A|-5h7-----10p7----------5h7-----5h7------7-8-|
E|-----000------00000000-----000-----0000-5-6-|
       ***      ********     ***     ****
e|---------------------------------------------|
B|---------------------------------------------|
G|---------------------------------------------|
D|----------------------------------------10---|
A|-5h7-----10p7----------5h7-----5h7-------8-9-|
E|-----000------00000000-----000-----0000----7-|
       ***      ********     ***     ****
e|--------------------------------------------|
B|--------------------------------------------|
G|--------------------------------------------|
D|----------------------------------------4---|
A|-5h7-----10p7----------5h7-----5h7------2-5-|
E|-----000------00000000-----000-----0000---3-|
       ***      ********     ***     ****

Riff 3a
Guitar 1                                  x4
e|-----------------------------------------|
B|-----------------------------------------|
G|-----------------------------------------|
D|-----------------------------------------|
A|-5h7-----10p7--------9~-------8~-----7---|
E|-----000------000000-----0000-----00---8-|
       ***      ******     ****     **

Guitar 2
e|-----------------------------------------|
B|-----------------------------------------|
G|-----------------------------------------|
D|-----------------------------------------|
A|-5h7-----10p7----------------------------|
E|-----000------000000-7~--0000-6~--00-5-0-|
       ***      ******     ****     **   *
e|-----------------------------------------|
B|-----------------------------------------|
G|-----------------------------------------|
D|-----------------------------------------|
A|-5h7-----10p7--------6~-------5~-----4---|
E|-----000------000000-----0000-----00---5-|
       ***      ******     ****     **
e|-----------------------------------------|
B|-----------------------------------------|
G|-----------------------------------------|
D|-----------------------------------------|
A|-5h7-----10p7--------9~-------8~-----7---|
E|-----000------000000-----0000-----00---8-|
       ***      ******     ****     **
e|--------------------------------------------|
B|--------------------------------------------|
G|--------------------------------------------|
D|--------------------------------------------|
A|-5h7-----10p7--------14~------13~----12-----|
E|-----000------000000-----0000-----00----13\-|
       ***      ******     ****     **


Riff 4
Guitar 1                                   x7
e|------------------------------------------|
B|------------------------------------------|
G|------------------------------------------|
D|------------------------------------------|
A|-5h7-----10p7----------5h7-----5h7------9-|
E|-----000------00000000-----000-----0000-7-|
       ***      ********     ***     ****
e|----------------------------------------|
B|----------------------------------------|
G|----------------------------------------|
D|----------------------------------------|
A|-5h7-----10p7----------5h7-----5h7------|
E|-----000------00000000-----000-----0000-|
       ***      ********     ***     ****

Guitar 2 (Mustaine)
e|----------------------------------------|
B|----------------------------------------|
G|----------------------------------------|
D|----12----------12----14------9---------|
A|-10----10----10----12-----7-6---9-5/7~--|
E|----------12----------------------------|

e|----------------------------------------|
B|----------------------------------------|
G|------------------------8------7--------|
D|----12----------12----------------------|
A|-10----10----10-----6-9----5-8----5/7~~-|
E|----------12----------------------------|


Riff 5
e|-------------------------------------|
B|-------------------------------------|
G|-------------------------------------|
D|-------------------------------------|
A|-5---4-5---4-----4-5-----5-4-----4-5-|
E|-3-0-2-3-0-2-0-0-2-3-0-0-3-2-0-0-2-3-|
     *     *   * *     * *     * *
e|----------------------------------------|
B|----------------------------------------|
G|----------------------------------------|
D|----------------------------------------|
A|-5h7-----10p7----------5h7-----5h7------|
E|-----000------00000000-----000-----0000-|
       ***      ********     ***     ****
e|-------------------------------------|
B|-------------------------------------|
G|-------------------------------------|
D|-------------------------------------|
A|-2---1-2---1-----1-2-----2-1-----1-2-|
E|-3-0-2-3-0-2-0-0-2-3-0-0-3-2-0-0-2-3-|
     *     *   * *     * *     * *
e|----------------------------------------|
B|----------------------------------------|
G|----------------------------------------|
D|----------------------------------------|
A|-5h7-----10p7----------5h7-----5h7------|
E|-----000------00000000-----000-----0000-|
       ***      ********     ***     ****
e|-------------------------------------|
B|-------------------------------------|
G|-------------------------------------|
D|-------------------------------------|
A|-5---4-5---4-----4-5-----5-4-----4-5-|
E|-3-0-2-3-0-2-0-0-2-3-0-0-3-2-0-0-2-3-|
     *     *   * *     * *     * *
e|----------------------------------------|
B|----------------------------------------|
G|----------------------------------------|
D|----------------------------------------|
A|-5h7-----10p7----------5h7-----5h7------|
E|-----000------00000000-----000-----0000-|
       ***      ********     ***     ****
e|-----------------------------------|
B|-----------------------------------|
G|-----------------------------------|
D|-----------------------------------|
A|-2---1-2---1-----1-2-----2-1-----1-|
E|-3-0-2-3-0-2-0-0-2-3-0-0-3-2-0-0-2-|
     *     *   * *     * *     * *

Riff 6
e|---------------------------------------|
B|---------------------------------------|
G|------------4---3----------------------|
D|------------5---4----------------------|
A|-5-6-7--------0---0--5-6-7------5--6-5-|
E|-------000-----------------0000-6--7-6-|
         ***    *   *        ****
  "Brother will kill brother..."
e|------------------------------------------|
B|------------------------------------------|
G|------------------------------------------|
D|-----------5---4--------------------------|
A|-5-6-7-----7---6----5-6-7-------------1-2-|
E|-------000---0---0---------0000-2~--0-2-3-|
         ***   *   *         ****     *
  "Spilling blood across the land..."
e|-------------------------------|
B|-------------------------------|
G|-------------------------------|
D|-------------------------------|
A|-4-----4----2-4-5-----5--4-2---|
E|-5-0-0-5--0-3-5-6-0-0-6--5-3-5-|
     * *      * *   * *      *
  "Killing for religion..."
e|------------------------------------|
B|------------------------------------|
G|------------------------------------|
D|------------------------------------|
A|----------5--4-2-------------8--7-5-|
E|-3p0-0000-6--5-3-5--3p0-0000-6--5-3-|
       ****               ****
  "Something I don't understand..."


Lead into next section:
e|-----------------------------------|
B|-----------------------------------|
G|-----------------------------------|
D|-----------------------------------|
A|-5-6-7---------------------------2-|
E|--------5-6-7--7-6-5--5-4-3--5-5-0-|
   "Holy Wars..."


Solo (Acoustic, Friedman)
e|---------------------11h12p11----11-|
B|------12----10-12-13----------13----|
G|-9h10-------------------------------|
D|------------------------------------|
A|------------------------------------|
E|------------------------------------|

e|-12----12-10----10-8----8-7---7-5---|
B|----13-------12------10-----9-----6-|
G|------------------------------------|
D|------------------------------------|
A|------------------------------------|
E|------------------------------------|

e|-5-4---4-5---5--7-7/10--7--5h6p5-----|
B|-----5-----6---------------------6---|
G|-----------------------------------7-|
D|-------------------------------------|
A|-------------------------------------|
E|-------------------------------------|

e|------------------------------------------0-|
B|-4-5---4-5-4------------------------------0-|
G|-----6-------7-6-5-4---5-4----------------x-|
D|---------------------7-----7-6-5-4-3-2----2-|
A|------------------------------------------2-|
E|------------------------------------------0-|

End solo


Riff 6a
e|--------------------------------|
B|--------------------------------|
G|--------------------------------|
D|--------------------------------|
A|-3-2---2-----3-2---2-----2-3-5~-|
E|-0-0-0-0-0-0-0-0-0-0-0-0-0-0-0--|
       *   * *     *   * * * *
  "Up on my podium..."



Riff 7
e|-----------------------------|
B|-----------------------------|
G|-----------------------------|
D|-----0h2---4-----5------(5)\-|
A|---------2-----3-3------(3)\-|
E|-0-0---------0---------------|
   * *
e|-----------------0--------0-------|
B|-------------------0--------0-----|
G|----------------------------------|
D|---0h2---4------------------------|
A|-------2-----2-1------1-0-----0-2-|
E|-0---------0-3-2------2-1-----1-0-|

e|-----------------------------|
B|-----------------------------|
G|-----------------------------|
D|-----0h2---4-----5------(5)\-|
A|-(2)-----2-----3-3------(3)\-|
E|-(0)---------0---------------|

e|-----------------0--------0-------|
B|-------------------0--------0-----|
G|----------------------------------|
D|---0h2---4------------------------|
A|-------2-----2-1------1-0-----0-2-|
E|-0---------0-3-2------2-1-----1-0-|



Riff 7a
e|----------------------------------|
B|----------------------------------|
G|----------------------------------|
D|-----0h2---4-----5--5-5-5-5-5-5-5-|
A|---------2-----3-3--3-3-3-3-3-3-3-|
E|-0-0---------0--------------------|
   * *                * * * * * * *
  "Wage the war..."
e|-------------------0--------0--------|
B|---------------------0--------0------|
G|-------------------------------------|
D|-----0h2---4-------------------------|
A|---------2-----2-1------1-0----------|
E|-0-0---------0-3-2------2-1-----0-/3-|
   * *
  "...on organized crime..."


Riff 8 (Solo Rhythm)
e|---------------------------------|
B|-----3-0-------------1-----------|
G|---------0---------3---3---------|
D|---0-------3-0---3-------3-------|
A|-2-------------1-------------3-4-|
E|---------------------------0-1-2-|
   * *     * * * * * *       * * *
                                  x2
e|---------------------------------|
B|-----3-0-------------1-----------|
G|---------0---------3---3---------|
D|-----------3-0---3-------3-------|
A|---2-----------1-------------3-4-|
E|-3-------------------------0-1-2-|
   * *     * * * * * *       * * *
e|------------------0--------0--------|
B|-----3-0------------0--------0------|
G|---------0--------------------------|
D|-----------3------------------------|
A|---2----------2-1------1-0------0-2-|
E|-3------------3-2------2-1------1-0-|
   * *     * *


Solo (Friedman)
e|----------------7-10p7-----------6-10p6-|
B|--------------8--------8-------8--------|
G|------------7------------7---7----------|
D|-------5-/9----------------9------------|
A|-----5----------------------------------|
E|-3h7------------------------------------|

e|---------------10-13p10----10-----13-18p13----13-|
B|-6----------11----------11----/15----------15----|
G|---7-----10--------------------------------------|
D|-----/12-----------------------------------------|
A|-------------------------------------------------|
E|-------------------------------------------------|

e|--19-19b20~~---15-----------------------20b22~~--20b22~~-|
B|------------------15-17b18r17b18r17-15-------------------|
G|---------------------------------------------------------|
D|---------------------------------------------------------|
A|---------------------------------------------------------|
E|---------------------------------------------------------|

e|---[24]25b27-[24]25b27-[24]25b27-[24]25~~-|
B|-x----------------------------------------|
G|-x----------------------------------------|
D|------------------------------------------|
A|------------------------------------------|
E|------------------------------------------|

e|-[24]25-\22-18--------------------------|
B|---------------20-----------------------|
G|------------------19--------------------|
D|---------------------20\19-15-----------|
A|------------------------------17\15-13~-|
E|----------------------------------------|

e|---------------------------------------------|
B|---------------------------------------------|
G|--12-12-12-12/14-14-14-14/15-15-15-15/17-17\-|
D|---------------------------------------------|
A|--12-10-10-10/12-12-12-12/13-13-13-13/15-15\-|
E|---------------------------------------------|

e|-------------18------------------------------|
B|-/18--15h18-----18p15----15h18p15-15---------|
G|----------------------18------------18p17p15-|
D|---------------------------------------------|
A|---------------------------------------------|
E|---------------------------------------------|

e|----------------------------------18b22-|
B|-18p15-15-15----------------------------|
G|-------------18p15----17-15-15b16-------|
D|-------------------17-------------------|
A|----------------------------------------|
E|----------------------------------------|

End solo


Riff 7b
e|--------------------------------------|
B|------------------------------5-------|
G|------------------------------h-5-----|
D|-----0h2---4-----5--5-5-5-5-5---h-5---|
A|-2-------2-----3-3--3-3-3-3-3-----h-5-|
E|-0-----------0----------------------h-|
               *      * * * * *
e|-------------------0--------0-------|
B|---------------------0--------0-----|
G|------------------------------------|
D|-----0h2---4------------------------|
A|-2-------2-----2-1------1-0-----0-2-|
E|-0-----------0-3-2------2-1-----1-0-|


Play Riff 7a  "They killed my wife..."
Play Riff 8   Solo Rhythm

Solo (Friedman)
e|--------------------------------|
B|-x------------------------------|
G|-x-5b7--(7)r5-3-----------------|
D|----------------5/8\5p3---------|
A|------------------------5-3-----|
E|----------------------------6~~-|

e|-------------------------------------------------|
B|----------------------------6-8--6h8p6---8-------|
G|------------------------5-7------------7---10b12-|
D|-8/10-10-10-10/12\10~~---------------------------|
A|-------------------------------------------------|
E|-------------------------------------------------|

e|---------------------------------------------------|
B|--------------------------------14-18b20~~--15--18-|
G|-7--10--10~~-----------------15--------------------|
D|-----------------------15-17-----------------------|
A|----------------/14-17-----------------------------|
E|--------------0------------------------------------|

e|-----22-18-------------18p15--------------|
B|-18/-------22-18\15-18-------18p15--------|
G|-----------------------------------18-18~-|
D|------------------------------------------|
A|------------------------------------------|
E|------------------------------------------|

e|---18h20b22--(22)r20---------------------------------------|
B|-x-------------------20-18-18b20~--------------------------|
G|-x--------------------------------15/17-17/18-18\17-(17)~\-|
D|-----------------------------------------------------------|
A|-----------------------------------------------------------|
E|-----------------------------------------------------------|

End solo


Riff 9 (Play 2x)
e|-------------------------|
B|-------------------------|
G|-------------------------|
D|-------------------------|
A|-------------------------|
E|-3-3-3-3-333-3-3-333-333-|
   h h h h hhh h h hhh hhh
e|---------------------------------------|
B|---------------------------------------|
G|---------------------------------------|
D|---------------------------------------|
A|-5---4-5---4-----4-5-----5-4-----4-5-2-|
E|-3-0-2-3-0-2-0-0-2-3-0-0-3-2-0-0-2-3-0-|
     *     *   * *     * *     * *
e|-------------------------|
B|-------------------------|
G|-------------------------|
D|-------------------------|
A|-------------------------|
E|-3-3-3-3-333-3-3-333-333-|
   h h h h hhh h h hhh hhh
e|---------------------------------------|
B|---------------------------------------|
G|---------------------------------------|
D|---------------------------------------|
A|-2---1-2---1-----1-2-----2-1-----1-2-2-|
E|-3-0-2-3-0-2-0-0-2-3-0-0-3-2-0-0-2-3-0-|
     *     *   * *     * *     * *


Riff 10 (Solo Rhythm)
e|-------------------------|
B|-------------------------|
G|-------------------------|
D|-------------------------|
A|-------------------------|
E|-0-0-0-0-000-0-0-000-000-|
   * * * * *** * * *** ***
e|---------------------------------------|
B|---------------------------------------|
G|---------------------------------------|
D|---------------------------------------|
A|-5---4-5---4-----4-5-----5-4-----4-5-2-|
E|-3-0-2-3-0-2-0-0-2-3-0-0-3-2-0-0-2-3-0-|
     *     *   * *     * *     * *
e|-------------------------|
B|-------------------------|
G|-------------------------|
D|-------------------------|
A|-------------------------|
E|-0-0-0-0-000-0-0-000-000-|
   * * * * *** * * *** ***
e|---------------------------------------|
B|---------------------------------------|
G|---------------------------------------|
D|---------------------------------------|
A|-2---1-2---1-----1-2-----2-1-----1-2-2-|
E|-3-0-2-3-0-2-0-0-2-3-0-0-3-2-0-0-2-3-0-|
     *     *   * *     * *     * *

Final time:
e|-------------------------------------|
B|-------------------------------------|
G|-------------------------------------|
D|-------------------------------------|
A|-2---1-2---1-----1-2-----2-1-----1-2-|
E|-3-0-2-3-0-2-0-0-2-3-0-0-3-2-0-0-2-3-|
     *     *   * *     * *     * *

Solo (Mustaine)
e|-17^b18-----17^b18-----17^b18--17^b18--17^b18--17^b18-|
B|------------------------------------------------------|
G|------------------------------------------------------|
D|------------------------------------------------------|
A|------------------------------------------------------|
E|------------------------------------------------------|

e|-17-15-12-12----12--------------------|
B|-------------17----17-15-12--17-15-12-|
G|--------------------------------------|
D|--------------------------------------|
A|--------------------------------------|
E|--------------------------------------|

e|----------------------------------|
B|-17-15-12----12-------------------|
G|----------15----15-14-12-15-14-12-|
D|----------------------------------|
A|----------------------------------|
E|----------------------------------|

e|--------------------------|
B|--------------------------|
G|-15-14-12-----12----------|
D|----------14-----14-13-12-|
A|--------------------------|
E|--------------------------|

e|-------------------------------------|
B|-------------------------------------|
G|-------------------------------------|
D|-14p13p12----13p12-------12----------|
A|----------14-------14p13----14p13p12-|
E|-------------------------------------|

e|------------------------------------------|
B|------------------------------------------|
G|------------------------------------------|
D|------------------------------------------|
A|-14p13p12----13p12----12----12----12-12---|
E|----------14-------14----15----15-------0-|

e|--------------------------|
B|--------------------------|
G|--------------------------|
D|--------------------------|
A|--------------------------|
E|-/5-8-5-8-5-8-5-8-4\3-5/--|

e|-------------------------------------------------|
B|-------------------------------------------------|
G|-------------------------------------------------|
D|----------------------12h13p12----12h13h14-12-12-|
A|-12h13p12----12h13h14----------14----------------|
E|----------14-------------------------------------|

e|----------------------------------------------------------------|
B|----------------------------------------12h15p12-15-15-17p15p12-|
G|-------12h14-12-14-15h16-15p12-14-12-14-------------------------|
D|-12h14----------------------------------------------------------|
A|----------------------------------------------------------------|
E|----------------------------------------------------------------|

e|-------------12h15h17----------12h15h17----------|
B|-17-12h15h17----------12h15h17----------12h15h17-|
G|-------------------------------------------------|
D|-------------------------------------------------|
A|-------------------------------------------------|
E|-------------------------------------------------|

e|-12h15h17----------12h15h17----------12h15h17--12h15h17-|
B|----------12h15h17----------12h15h17--------------------|
G|--------------------------------------------------------|
D|--------------------------------------------------------|
A|--------------------------------------------------------|
E|--------------------------------------------------------|

e|-17b18r17--12-17p15p12-------------------------|
B|-----------------------17-17p15p12-12-17p14p12-|
G|-----------------------------------------------|
D|-----------------------------------------------|
A|-----------------------------------------------|
E|-----------------------------------------------|

e|-------------------------------------------|
B|-------------------------------------15-12-|
G|-15-15-12----------------------12-12-------|
D|----------15-15-12-14-14-14-14-------------|
A|-------------------------------------------|
E|-------------------------------------------|

e|-------------------------------------------|
B|-15p12--12-15p12-17p12--12-15p12-17p12--12-|
G|------15--------------15--------------15---|
D|-------------------------------------------|
A|-------------------------------------------|
E|-------------------------------------------|

e|-------------------------------------------|
B|-17p12--12-15p12-17p12--12-15p12-17p12--12-|
G|------15--------------15--------------15---|
D|-------------------------------------------|
A|-------------------------------------------|
E|-------------------------------------------|

e|-------------------------------------------|
B|-17p12--12-15p12-17p12--12-15p12-17p12--12-|
G|------15--------------15--------------15---|
D|-------------------------------------------|
A|-------------------------------------------|
E|-------------------------------------------|

e|-------------------------------------------|
B|-17p12--12-15p12-17p12--12-15p12-17p12--12-|
G|------15--------------15--------------15---|
D|-------------------------------------------|
A|-------------------------------------------|
E|-------------------------------------------|

e|-------------------------------------------------|
B|-15p12----12-17p12----12-15p12----12-17p12----12-|
G|-------15----------15----------15----------15----|
D|-------------------------------------------------|
A|-------------------------------------------------|
E|-------------------------------------------------|

e|-------------------------------------------------|
B|-15p12----12-17p12----12-15p12----12-17p12----12-|
G|-------15----------15----------15----------15----|
D|-------------------------------------------------|
A|-------------------------------------------------|
E|-------------------------------------------------|

e|----------------------------------------|
B|-17p15p12--12-17p15p12--12-17p15p12--12-|
G|---------15-----------15-----------15---|
D|----------------------------------------|
A|----------------------------------------|
E|----------------------------------------|

e|--------------------------------------|
B|-17p15p12--12-17p15p12-----x-12-12-17-|
G|---------15-----------15-x------------|
D|--------------------------------------|
A|--------------------------------------|
E|--------------------------------------|

e|---------------------------------------------|
B|-17p15p12---17p15p12---17p15p12---17p15p12---|
G|---------12---------12---------12---------12-|
D|---------------------------------------------|
A|---------------------------------------------|
E|---------------------------------------------|

e|---------------------------------------------|
B|-18p16p13---18p16p13---18p16p13---18p16p13---|
G|---------13---------13---------13---------13-|
D|---------------------------------------------|
A|---------------------------------------------|
E|---------------------------------------------|

e|---------------------------------------------|
B|-19p17p14---19p17p14---19p17p14---19p17p14---|
G|---------14---------14---------14---------14-|
D|---------------------------------------------|
A|---------------------------------------------|
E|---------------------------------------------|

e|---------------------------------------------|
B|-20p18p15---20p18p15---20p18p15---20p18p15---|
G|---------15---------15---------15---------15-|
D|---------------------------------------------|
A|---------------------------------------------|
E|---------------------------------------------|

e|---------------------------------------------|
B|-21p19p16---21p19p16---22p20p17---22p20p17---|
G|---------16---------16---------17---------17-|
D|---------------------------------------------|
A|---------------------------------------------|
E|---------------------------------------------|

e|-------------------------------------------|
B|-23p21p18---23p21p18---24p22p19---24p22p19-|
G|---------18---------18---------19----------|
D|-------------------------------------------|
A|-------------------------------------------|
E|-------------------------------------------|

e|-22b24----22b24--|
B|-----------------|
G|-----------------|
D|-----------------|
A|-----------------|
E|-----------------|

e|-22b24--22b25--22b24--22b24----|
B|-------------------------------|
G|-------------------------------|
D|-------------------------------|
A|-------------------------------|
E|-----------------------------0-|

e|--------------------------------------------------|
B|--------------------------------------------------|
G|--------------------------------------------------|
D|--[Let note ring and depress with whammy bar]-----|
A|--[        then raise back up to E          ]-----|
E|--(0)----------------(0)*d----------------(raise)-|

End Solo


Riff 11 (Play 4x)
e|----------------------------------------|
B|----------------------------------------|
G|----------------------------------------|
D|----------------------------------------|
A|-5h7-----10p7---------5h7-----5h7-----9-|
E|-----000------0-0-0-0-----000-----0-0-7-|
       ***      * * * *     ***     * *
  "Fill the cracks in ..."


Riff 11a
Guitar 1                                x10
e|----------------------------------------|
B|----------------------------------------|
G|----------------------------------------|
D|----------------------------------------|
A|-5h7-----10p7---------5h7-----5h7-----9-|
E|-----000------0-0-0-0-----000-----0-0-7-|
       ***      * * * *     ***     * *
  "Next thing you know..."

e|------------------------------------|
B|------------------------------------|
G|--------------------------8------7--|
D|------------------------------------|
A|-5h7-----10p7---------6-9----5-8----|
E|-----000------0-0-0-0---------------|
       ***      * * * *
                    "...mercy..."

Guitar 2 (Mustaine)
e|----------------------------------------|
B|----------------------------------------|
G|----------------------------------------|
D|----12----------12----14------9---------|
A|-10----10----10----12-----7-6---9-5/7~--|
E|----------12----------------------------|

e|----------------------------------------|
B|----------------------------------------|
G|------------------------8------7--------|
D|----12----------12----------------------|
A|-10----10----10-----6-9----5-8----5/7~~-|
E|----------12----------------------------|



Riff 12
e|----------------------------------------|
B|----------------------------------------|
G|----------------------------------------|
D|----------------------------------------|
A|-5h7-----10p7---------5h7-----5h7-----9-|
E|-----000------0-0-0-0-----000-----0-0-7-|
       ***      * * * *     ***     * *
   "Killings...                    ...mercy..."
e|----------------------------------------|
B|----------------------------------------|
G|----------------------------------------|
D|----------------------------------------|
A|-5h7-----10p7---------5h7-----5h7-----9-|
E|-----000------0-0-0-0-----000-----0-0-7-|
       ***      * * * *     ***     * *
   "...killings...                  ...mercy..."


Riff 13
e|--------------------------------------------|
B|--------------------------------------------|
G|--------------------------------------------|
D|--------------------------------------------|
A|-5h7-----10p7----------5h7-----10p7---------|
E|-----000------0000000------000------0000000-|
       ***      *******      ***      *******
  "...killings...     ...killings..."
e|-----------------------------------------|
B|-----------------------------------------|
G|-----------------------------------------|
D|-----------------------------------------|
A|-5h7-----10p7----------5h7-----10p7------|
E|-----000------00000000-----000------0000-|
       ***      ********     ***      ****
  "...killings...     ...killings..."


Riff 14
e|---------------------------------|
B|---------------------------------|
G|---------------------------------|
D|---------------------------------|
A|-5---4-5---4-----4-5-----5-4-----|
E|-3-0-2-3-0-2-0-0-2-3-0-0-3-2-0-0-|
     *     *   * *     * *     * *
e|---------------------------------|
B|---------------------------------|
G|---------------------------------|
D|---------------------------------|
A|-2---1-2---1-----1-2-----2-1-----|
E|-3-0-2-3-0-2-0-0-2-3-0-0-3-2-0-0-|
     *     *   * *     * *     * *
e|-----------------------------------|
B|-----------------------------------|
G|-----------------------------------|
D|-----------------------------------|
A|-5---4-5---4-----4-5-----5-4-----4-|
E|-3-0-2-3-0-2-0-0-2-3-0-0-3-2-0-0-2-|
     *     *   * *     * *     * *
   "Next thing you know, they'll take..."

e|--------------|
B|--------------|
G|--------------|
D|--------------|
A|-5-6-7-----2--|
E|-------0-0-0--|
         * *
  "...away!"

2.HANGER 18

Standard Tuning:
Intro Riff A
  Dm                                 Bb 
e|--1-1-1-1-1-1-1-1-1-1-1-1-1-1-1-1-|-1-1-1-1-1-1-1-1-1-1-1-1-1-1-1-1-|
B|--3-3-3-3-3-3-3-3-3-3-3-3-3-3-3-3-|-3-3-3-3-3-3-3-3-3-3-3-3-3-3-3-3-|
G|�-2-2-2-2-2-2-2-2-2-2-2-2-2-2-2-2-|-3-3-3-3-3-3-3-3-3-3-3-3-3-3-3-3-|
D|�---------------------------------|---------------------------------|
A|----------------------------------|---------------------------------|
E|----------------------------------|---------------------------------|

  B�                                 C
e|-1-1-1-1-1-1-1-1-1-1-1-1-1-1-1-1-|-5-5-5-5-5-5-5-5-5-5-5-5-5-5-5-5-|
B|-3-3-3-3-3-3-3-3-3-3-3-3-3-3-3-3-|-3-3-3-3-3-3-3-3-3-3-3-3-3-3-3-3-|
G|-4-4-4-4-4-4-4-4-4-4-4-4-4-4-4-4-|-5-5-5-5-5-5-5-5-5-5-5-5-5-5-5-5-|
D|---------------------------------|---------------------------------|
A|---------------------------------|---------------------------------|
E|---------------------------------|---------------------------------|

  Dm                                 Bb
e|-5-5-5-5-5-5-5-5-5-5-5-5-5-5-5-5-|-6-6-6-6-6-6-6-6-6-6-6-6-6-6-6-6-|
B|-6-6-6-6-6-6-6-6-6-6-6-6-6-6-6-6-|-6-6-6-6-6-6-6-6-6-6-6-6-6-6-6-6-|
G|-7-7-7-7-7-7-7-7-7-7-7-7-7-7-7-7-|-7-7-7-7-7-7-7-7-7-7-7-7-7-7-7-7-|
D|---------------------------------|---------------------------------|
A|---------------------------------|---------------------------------|
E|---------------------------------|---------------------------------|

  B�                                 C
e|-7-7-7-7-7-7-7-7-7-7-7-7-7-7-7-7-|-8-8-8-8-8-8-8-8-8-8-8-8-8-8-8-8--|
B|-6-6-6-6-6-6-6-6-6-6-6-6-6-6-6-6-|-8-8-8-8-8-8-8-8-8-8-8-8-8-8-8-8--|
G|-7-7-7-7-7-7-7-7-7-7-7-7-7-7-7-7-|-9-9-9-9-9-9-9-9-9-9-9-9-9-9-9-9-�|
D|---------------------------------|---------------------------------�|
A|---------------------------------|----------------------------------|
E|---------------------------------|----------------------------------|
Intro Riff B
               Let Ring - - - - - ]              Let Ring - - - - - ]
e|-------1------5-------------------|------1------6-------------------|
B|-----3----------6-----------------|----3----------6-----------------|
G|�--2-----2/5------7---------------|--3-----3/7------7---------------|
D|�-------------------0-------------|-------------------0-------------|
A|----------------------------------|---------------------------------|
E|----------------------------------|---------------------------------|
               Let Ring - - - - - ]              Let Ring - - - - - ]
e|------1------7-------------------|------5------8--------------------|
B|----3----------6-----------------|----3----------8------------------|
G|--4-----4/7------7---------------|--5-----5/9------9---------------�|
D|-------------------0-------------|-------------------0-------------�|
A|---------------------------------|----------------------------------|
E|---------------------------------|----------------------------------|
    Play Twice, then do little harmony fill (1):
e|-----------------------------------|
B|---10-8----------------------------|
G|�-------10-9-7--------------------�|  Marty (Higher Voice)
D|�--------------10-9-7-------------�|
A|-----------------------------------|
E|-----------------------------------|
 |                                   |
e|-----------------------------------|
B|-----------------------------------|
G|�--10-9-7-------------------------�|
D|�---------10-8-7------------------�|   Dave (Lower Voice)
A|----------------10-8---------------|
E|-----------------------------------|

Then comes the verse, which also consists of harmonies. Remember to use
a VERY wide vibrato when playing these parts:
e|-------------------|------------------|------------------|-------------------|
B|-------------------|------------------|------------------|-------------------|
G|�-7-----/10~~~-----|-7-----/10~~~-----|-7-----/10~~~-----|-9-----/12~~~-----�|
D|�---0-0--------0-0-|---0-0--------0-0-|---0-0--------0-0-|---0-0--------0-0-�|
A|-------------------|------------------|------------------|-------------------|
E|-------------------|------------------|------------------|-------------------|
 |                                                                             |x4
e|-------------------|------------------|------------------|-------------------|
B|-------------------|------------------|------------------|-------------------|
G|�-2-----/ 7~~~-----|-3-----/ 7~~~-----|-4-----/ 7~~~-----|-5-----/ 7~~~-----�|
D|�---0-0--------0-0-|---0-0--------0-0-|---0-0--------0-0-|---0-0--------0-0-�|
A|-------------------|------------------|------------------|-------------------|
E|-------------------|------------------|------------------|-------------------|

Chorus:
e|-------------------|------------------|------------------|-------------------|
B|-------------------|------------------|------------------|-------------------|
G|�-10\-----2~~~~----|-10\-----7~~~~----|-10\-----7~~~~----|-10--9----9~~~----�|
D|�--------------0-0-|--------------0-0-|--------------0-0-|--------------0-0-�|
A|-------------------|------------------|------------------|-------------------|
E|-------------------|------------------|------------------|-------------------|
 |                                                                             |
e|-------------------|------------------|------------------|-------------------|
B|-------------------|------------------|------------------|-------------------|
G|�--7\-----2~~~~----|--7\-----3~~~~----|--7\-----4~~~~----|--7--5----5~~~----�|
D|�--------------0-0-|--------------0-0-|--------------0-0-|------------------�|
A|-------------------|------------------|------------------|-------------------|
E|-------------------|------------------|------------------|-------------------|

Ok, here is the first of the many solos.  Marty plays the lead (top), while Dave plays the 
rhythm (bottom)-A little note about how Marty plays the first part of this solo- He bends the
string up to an e note (17th fret on the b string), then he hammers onto the 16th fret while
still holding the e note.  Then, gradually release the bend while still fretting the 16th fret.
After the first four measures, Marty ends the solo and plays a harmony
consisting of all octaves.  Then, he goes back into another solo, plays the harmony
part again, and then they both go into a fast harmony fill.   
Solo 1 (With Riff A):
e|-------------------|------------------|---15-17-20-17h20p17---------|
B|--(17)~~~~15b17-h16|---r--------------|-13-----------------20-x-22~-|
G|�------------------|-----14-17~~~~-14-|-----------------------------|
D|�------------------|------------------|-----------------------------|
A|-------------------|------------------|-----------------------------|
E|-------------------|------------------|-----------------------------|
 |                                                                    |
e|-------------------|------------------|-----------------------------|
B|-------------------|------------------|-----------------------------|
G|�------------------|------------------|-----------------------------|
D|�---.-7---.-7---7--|---.-8---.-8---8--|-----.---9-----.---9------9--|
A|--.-5---.-5---.----|-.-5---.-5---.----|-.---5-----.---5-----.-------|
E|--5-----5-----5----|-6-----6-----6----|-7---------7---------7-------|

e|-----------------------------|
B|-20b22r18-18b20--r18---------|
G|-----------------------19~~~�|
D|----------------------------�|
A|-----------------------------|
E|-----------------------------|
 |                             |
e|-----------------------------|
B|-----------------------------|
G|----------------------------�|
D|----.--8-----.--8------8----�|
A|-.--5-----.--5------.--------|
E|-6--------6---------6--------|

 Octave Riff:
e|--------------------|-------------------|-------------------|-----------------|
B|--------------------|-------------------|-------------------|-----------------|
G|�------12-----12--12|------14-----14--14|------12-----12--12|----10---10--10-�|
D|�--.--.---.--.---.--|--.--.---.--.---.--|--.--.---.--.---.--|-.-.--.-.--.----�|
A|--10-10--10-10--10--|-12-12--12-12--12--|-10-10--10-10--10--|-8-8--8-8--8-----|
E|--------------------|-------------------|-------------------|-----------------|
 |                                                                              |
e|-------------------|-------------------|-------------------|------------------|
B|-------------------|-------------------|-------------------|------------------|
G|�------------------|-------------------|-------------------|-----------------�|
D|�----.-7----.-7---7|-----.-8----.-8---8|-----.-9----.-9---9|---.-8---.-8---8-�|
A|--.--5---.--5---.--|--.--5---.--5---.--|--.--5---.--5---.--|-.-5---.-5--.-----|
E|--5------5------5--|--6------6------6--|--7------7------7--|-6-----6----6-----|

2nd Solo: This solo is sweep-picked, a very hard technique to learn.  If you want more
info on how to do this, email me, and I'll be glad to help you.  Play the same rhythm
part as before.
e|--17p13----------13-17p13-17p13-17p13--13--|
B|-------15------15--------------------15----|
G|�--------14--14----------------------------|
D|�----------15------------------------------|
A|-------------------------------------------|
E|-------------------------------------------|

e|-18p13----------13-18p13-15p12-13-12------|
B|------15------15--------------------15-13-|
G|--------15--15----------------------------|
D|----------15------------------------------|
A|------------------------------------------|
E|------------------------------------------|

e|-17p13--16p13--16-16~~~-x-20b22-|-------20p17-22b25~~~-|
B|------15-----15---------x-------|----------------------|
G|--------------------------------|---------------------�|
D|--------------------------------|---------------------�|
A|--------------------------------|----------------------|
E|--------------------------------|----------------------|

Repeat the Harmony Riff
Then comes the fast harmony part:
e|---------------------------------------------------|
B|--10--8-------8------------------------------------|
G|�-------10--9---10--9--7--10--9--7----9--7--------�|
D|�----------------------------------10------10--8--�| Marty
A|---------------------------------------------------|
E|---------------------------------------------------|
 |                                                   |
e|---------------------------------------------------|
B|---------------------------------------------------|
G|�-10--9--7----9--7--------7-----------------------�|
D|�----------10------10--8-----10--8--7-10--8-7-----�| Dave
A|---------------------------------------------10----|
E|---------------------------------------------------|
 
Ok, now go back to the verse, play it 4 times, play the chorus, and you're
off to some more solos.  Like like time, use the same rhythm part...
Solo 3:
e|--------------------|--------------------|
B|------------x15--17-|-18r17--18--r17--15-|
G|�-(19)~~~~--x-------|--------------------|
D|�-------------------|--------------------|
A|--------------------|--------------------|
E|--------------------|--------------------|

e|---------------------------------|-------------------|
B|-18b20-------18p15-15h18p15------|-------------------|
G|---------------------------17b19-|--(17)~~~~~(17)\--�|
D|---------------------------------|------------------�|
A|---------------------------------|-------------------|
E|---------------------------------|-------------------|

Repeat Harmony Riff- Bend the B string, 20th fret up a whole step on last 
note...
Solo 4                     Rake 
e|--------------------17-|---18~~~~-------------17-|
B|--(22)~~~~~18-17-------|--x-----------17-18-20---|
G|�---------------19-----|-x-------17-19-----------|
D|�-----------------19---|-------------------------|
A|-----------------------|-------------------------|
E|-----------------------|-------------------------|
               Sweep- - - ]      *Hold bend - - -]
e|-19-16-----------------16-20b22---------------|-r(20)-20b22-20-20b22~~~-|
B|------18-15------15--18-----------------------|-------------------------|
G|-----------16--16--19-------------------------|------------------------�|
D|-------------18-------------------------------|------------------------�|
A|----------------------------------------------|-------------------------|
E|----------------------------------------------|-------------------------|

Solo 5:                              *tap w/edge of pick   
e|------------------------9-13p9----|---12~~~~~~~-----------------------|
B|-------------------9h12--------12-|------------------*----------------|
G|�---------------10----------------|-19p7~~~~~~~(7)\5-17p5~~~~~------4-|
D|�----------9h11-------------------|-----------------------------------|
A|--------11------------------------|-----------------------------------|
E|---9h13---------------------------|-----------------------------------|
 |Riff A Fill                        Riff B                                 |
e|---------------------------------|-----------------------------------|
B|---------------------------------|-----------------------------------|
G|---------------------------------|--7--------------------------------|
D|-----.--11-----.--11------11-----|------------------------.--8---.---|
A|--.--8------.--8------.----------|----5--5--5---5--8--5---5--6---5---|
E|--9---------9---------9----------|-----------------------------------|
                                      *Play 6 more times, then Fill A 
e|--7/10\7-------------------------|-14/17\14-11-----------------------|
B|---------7-------10p7h8-7------10|-------------13~~----15h20p16------|
G|-----------7\5/7----------8-7~~--|-----------------------------17----|
D|---------------------------------|------------------11-----------19~~|
A|---------------------------------|-----------------------------------|
E|---------------------------------|-----------------------------------|

e|-----------11-15-14--11---------------|
B|---------13--------13--15--13-13b15~~-|
G|-------12----------------14-----------|
D|-/12-13-------------------------------|
A|--------------------------------------|
E|--------------------------------------|

e|-/17-14-14-14-15-11-11-14-10-10-10-11-8-8-10-6-|
B|-----------------------------------------------|
G|-----------------------------------------------|
D|-----------------------------------------------|
A|-----------------------------------------------|
E|-----------------------------------------------|

e|-6-6-8-6-5-6-5h6p5--5--------------------------|
B|------------------8--8-10r8--8b10~~------------|
G|-----------------------------------------------|
D|-----------------------------------------------|
A|-----------------------------------------------|
E|-----------------------------------------------|

e|-----------------------------------------------|
B|-7h8h10p8p7--7h8p7~~--10h11h13p11p10--10h11p10~|
G|-----------8------------------------10---------|
D|-----------------------------------------------|
A|-----------------------------------------------|
E|-----------------------------------------------|

e|-----------------------------------14-15-17-18b20~~~-|
B|-13h15h16p15p13--15p13--13-13-15-16------------------|
G|---------------15-----15----------------------------�|
D|----------------------------------------------------�|
A|-----------------------------------------------------|
E|-----------------------------------------------------|

Fill A (See 6 bars up)
e|---------------------------------|
B|---------------------------------|
G|�-7-----------------------------�|
D|�--------------8-7-----9-7------�|
A|----5--5--5--5-----8-5-----8-5---|
E|---------------------------------|

"Never-Ending" Riff
e|-----------------------------------|-----------------------------------|
B|-----------------------------------|-----------------------------------|
G|�----------------------------------|-----------------------------------|
D|�-------4-----------------------5--|-------4---------------------------|
A|-------------------.--------.-.----|------------------.--------3-2-----|
E|--0-1-2-----2----2-5-2----2-3-3----|-0-1-2-----2----2-5-2----2-----5-2-|

e|----------------------------------|------------------------------------|
B|----------------------------------|------------------------------------|
G|----------------------------------|------------------5-4-----6-5------�|
D|-------4-----------------------5--|-------4--------------7-4-----8-5--�|
A|------------------.--------.-.----|------------------------------------|
E|-0-1-2-----2----2-5-2----2-3-3----|-0-1-2-----2----2-------------------|

Solo 6 (With Riff B):                                     *Tap w/pick
e|---------------------------------------14-15p14-10-----------------------|
B|---------10-13-10-13/15-13-15-10-13-15-------------13p10-22p13p10-13p10\7|
G|�---11-12----------------------------------------------------------------|
D|�-12---------------------------------------------------------------------|
A|-------------------------------------------------------------------------|
E|-------------------------------------------------------------------------|

e|--------------------------------------/15-11----------------------------|
B|-8-7h8p7\3b4--------7-10-9-10-7-8-7----------13------------13-16-----13-|
G|---------------5-7/8---------------8-7----------14-11/13-14-----13-14---|
D|------------------------------------------------------------------------|
A|------------------------------------------------------------------------|
E|------------------------------------------------------------------------|
                                W/Bar
e|-------------------17---------------------------------------------------|
B|-16-----13-16-15/16--16\5-13------10-10\13-13-13-13\12-12-12-12/20-20-20|
G|---13-14---------------------16~\_--------------------------------------|
D|------------------------------------------------------------------------|
A|------------------------------------------------------------------------|
E|------------------------------------------------------------------------|

e|------------------------------------------------------------------------|
B|-20\19-19-19-19\13-13-13-13h15p13-10h13-15-12h13p12-10-12-13-12-10h12p10|
G|------------------------------------------------------------------------|
D|------------------------------------------------------------------------|
A|------------------------------------------------------------------------|
E|------------------------------------------------------------------------|

e|----------------------7-8-10-12p10-8-10p8-7-10p8-7--7-8-7---------10----|
B|-8-12-10-8h10p8-8-7-10----------------------------10-----10-8-7p10--10p7|
G|------------------------------------------------------------------------|
D|------------------------------------------------------------------------|
A|------------------------------------------------------------------------|
E|------------------------------------------------------------------------|

e|--------------------------------------|
B|---7---7------------------------------|
G|-9---9---9b11--r-7~~~----------------�|
D|-------------------------------------�|
A|--------------------------------------|
E|--------------------------------------|

Riff C:
e|---------------------------------------|
B|---------------------------------------|
G|�-------------------------------------�|
D|�-------------------------------------�|
A|--.-.-.-.-.-.-.-.-4/5--4/5--4/5--------|
E|--3-2-0-2-3-2-0-2-2/3--2/3--2/3--------|

Solo 7 (With "Never-Ending Riff"):
e|--17171717171614-17171717171614-17171717171614-171717171614-171717171614|
B|------------------------------------------------------------------------|
G|�-----------------------------------------------------------------------|
D|�-----------------------------------------------------------------------|
A|------------------------------------------------------------------------|
E|------------------------------------------------------------------------|

e|-----------------------------------------------------------------------|
B|-171717171614--------17---------------------------------------------16-|
G|-------------16161616--14-------14--14----16----14----16--1414h16/17---|
D|-------------------------1616x14--14--1616--1616--1616--16-------------|
A|-----------------------------------------------------------------------|
E|-----------------------------------------------------------------------|

e|------------------------------x--14-17p14-14-17-14-19p17p14-14-14-14---|
B|------1716141719p17p1414141417x----------------------------------------|
G|-17h18------------------------x----------------------------------------|
D|-----------------------------------------------------------------------|
A|-----------------------------------------------------------------------|
E|-----------------------------------------------------------------------| 

e|-19b20--r(19)p17p14-19b21~~~~~~~~~~~--|
B|--------------------------------------|
G|-------------------------------------�|
D|-------------------------------------�|
A|--------------------------------------|
E|--------------------------------------|

Solo 8:
e|--------------------------------22b24r--(22)-21p20--21~~~~~-------------|
B|--21b22r--(22)------------------------------------20--------------------|
G|�-------------18-21b23~~~~-21-18----------------------------18p14-------|
D|�----------------------------------------------------------------18-14--|
A|------------------------------------------------------------------------|
E|------------------------------------------------------------------------|

e|-14-15------------------------------------------------------------------|
B|------15---------------------------------14-17p14--17p14--------14-17p14|
G|--------17-14--14-17-14h17p14h17p14\_/-17--------17-----17-14-17--------|
D|-------------18---------------------------------------------------------|
A|------------------------------------------------------------------------|
E|------------------------------------------------------------------------|
             Rake  
e|----------------------|
B|---17p14-----17b19----|
G|-17-----17-14--------�|
D|---------------------�|
A|----------------------|
E|----------------------|

Solo 9:
e|--21p17p14h17p14-----------------------------------------------------------|
B|----------------x21p17p14-17p14-14-21p17p14-17p14--------------------------|
G|�------------------------------------------------14-17-14-14h21p17p14-17-14|
D|�--------------------------------------------------------------------------|
A|---------------------------------------------------------------------------|
E|---------------------------------------------------------------------------|

e|------------------------------------------------------------------------|
B|------------------------------------------------------------------------|
G|-16-16-14-14-13-13-14-14-16---------------------------------------------|
D|------------------------------14h18p14----------------------------------|
A|---------------------------0-0--------21-17p14h17p14-14-----------------|
E|--------------------------------------------------------14h17h21p17h21--|

e|---------------------------------------------------------14h21p14\--------|
B|-------------------------------------------14h21p14h17h21--------\--------|
G|-----------------------------14h21p14h17h21------------------------------�|
D|---------------14h21p14h17h21--------------------------------------------�|
A|-14h21p14h17h21-----------------------------------------------------------|
E|--------------------------------------------------------------------22b24-|

Solo 10:
e|---------------------10-9-------14p10-12--10----------------------------|
B|--9-12-10-9--10-9--------12-10-9--------14--13h14p10-14/15\14/15--------|
G|�----------11----11-9---------------------------------------------------|
D|�-----------------------------------------------------------------------|
A|------------------------------------------------------------------------|
E|------------------------------------------------------------------------|

e|-12h14h18p14h18p14h18p14h18p14h18p14-------14------------14------------|
B|------------------------------------17b19~~--17p14-----14--14-17p14-19-|
G|--------------------------------------------------16b18----------------|
D|-----------------------------------------------------------------------|
A|-----------------------------------------------------------------------|
E|-----------------------------------------------------------------------|

e|------------------------14--------14------------------14----------------|
B|-14--------14-17-14-------14p17-14--14-----------14-17-----17---~~~-----|
G|---16b18r16--------16b18--------------16b18r16-14-------16-17b19~~~----�|
D|-----------------------------------------------------------------------�|
A|------------------------------------------------------------------------|
E|------------------------------------------------------------------------|

Solo 11: Tremelo Pick all the notes
e|--5-4-2h4p2-2---------5-8-7-5h7p5-----------8-11-10-8h10p8--------------|
B|-------------5-4-2h5p2-----------7-9-7-5h7p5--------------11-11p10p8----|
G|�-----------------------------------------------------------------------|
D|�-----------------------------------------------------------------------|
A|------------------------------------------------------------------------|
E|------------------------------------------------------------------------|

e|-----11-14-13-11h13p11-----------11-14-17p16p14h16p14------------------|
B|-10p8-----------------14-13-11-14--------------------17-17p16p14-14-17-|
G|-----------------------------------------------------------------------|
D|-----------------------------------------------------------------------|
A|-----------------------------------------------------------------------|
E|-----------------------------------------------------------------------|

e|-17-17-20-20p17h19p17--------------------20-20-23-22-20h22p20----------|
B|---------------------21-21-19p17-17-19h21--------------------2323-2222-|
G|-----------------------------------------------------------------------|
D|-----------------------------------------------------------------------|
A|-----------------------------------------------------------------------|
E|-----------------------------------------------------------------------|
   Tremelo Pick
e|-6/7/9/11/13/15/16/18/19/20/22/23/24b26--24b26--24b26--24b26--24b26---|
B|----------------------------------------------------------------------|
G|----------------------------------------------------------------------|
D|----------------------------------------------------------------------|
A|----------------------------------------------------------------------|
E|----------------------------------------------------------------------|

e|-24b26-24b26-24b26-24b26-24b26-24b26-24b26-24b26-24b26----------(24)\--|
B|-----------------------------------------------------------------------|
G|----------------------------------------------------------------------�|
D|----------------------------------------------------------------------�|
A|-----------------------------------------------------------------------|
E|-----------------------------------------------------------------------|

End With Riff D:
e|----------------------------------------------------------------------|
B|----------------------------------------------------------------------|
G|----------------------------------------------------------------------|
D|----------------------------------------------------------------------|
A|-.-.-.-.-.-.-.-.-4/5-4/5-4/5-4-\--------------------------------------|
E|-3-2-0-2-3-2-0-2-2/3-2/3-2/3-2-\--------------------------------------|

3.TAKE NO PRISONERS

Tuning: Standard

Riff 1 (Play 2x)        x3
e|-----------------------|
B|-----------------------|
G|-----------------------|
D|-----------------------|
A|-4--4--4--4------------|
E|-2--2--2--2--0-3-0-2-0-|
               * * * * *
e|---------------------------|
B|---------------------------|
G|---------------------------|
D|---------------------------|
A|---------------------------|
E|-2-1-0-3--2-1-0-5--2-1-0-3-|
   * * *    * * *    * * * *


Riff 1a (Play 2x)
e|-----------------------|
B|-----------------------|
G|-----------------------|
D|-----------------------|
A|-4--4--4--4------------|
E|-2--2--2--2--0-3-0-2-0-|
               * * * * *
e|---------------------------|
B|---------------------------|
G|---------------------------|
D|---------------------------|
A|---------------------------|
E|-2-1-0-3--2-1-0-5--2-1-0-3-|
   * * *    * * *    * * * *

Riff 1b
e|-----------------------|
B|-----------------------|
G|-----------------------|
D|-----------------------|
A|-4--4--4--4------------|
E|-2--2--2--2--0-3-0-2-0-|
               * * * * *    x3
e|---------------------------|
B|---------------------------|
G|---------------------------|
D|---------------------------|
A|---------------------------|
E|-2-1-0-3--2-1-0-5--2-1-0-3-|
   * * *    * * *    * * * *


Riff 2
e|-------------------------------------|
B|-------------------------------------|
G|-------------------------------------|
D|-------------------------------------|
A|-------------------------------------|
E|-2-1-0--3-2-0--2-1-0--3-2-0--3-2-1-0-|
   * * *  * * *  * * *  * * *  * * * *


Riff 3
e|-----------------------|
B|-----------------------|
G|-----------------------|
D|----------------0----5-|
A|-4-4-4-5-5-5-4--0----3-|
E|-2-2-2-3-3-3-2----22-3-|
   * * * * * *      **


Riff 3a
e|----------------|
B|----------------|
G|----------------|
D|----------0---5-|
A|-4--5--4--0-4-3-|
E|-2--3--2----2-3-|
   *          *
  "Got one chance..."

Riff 3b
e|-----------------------|
B|-----------------------|
G|-----------------------|
D|----------------4----7-|
A|-6-6-6-7-7-7-6--2----5-|
E|-4-4-4-5-5-5-4----44---|
   * * * * * *      **
  "And their people..."


Play Riff 3a  "Epidemic..."

Final bar:
e|-----------------|
B|-----------------|
G|-----------------|
D|----------0------|
A|-4--5--4--0-4----|
E|-2--3--2----2-9/-|
   *          *
   "Cremate them..."


Riff 4
e|-------------------------------------|
B|-------------------------------------|
G|-------------------------------------|
D|-------------------------------------|
A|-------------------------------------|
E|-14--12-13--11-12--10-11--9-10-8-9-7-|

e|-----------------------------|
B|-----------------------------|
G|-----------------------------|
D|-----------------------------|
A|-----------------------------|
E|-8--6-7--5-6--4-5--3-4-2-3-1-|

e|------------------------------------------|
B|------------------------------------------|
G|----------------------------2--4-----2--4-|
D|-------------------------4--2--4--4--2--4-|
A|-4-x-4-x-4-x-4-----------4--------4-------|
E|-2-x-2-x-2-x-2-0-3-0-2-0------------------|
                 * * * * *
                         "Burn!"
e|-------------------------------------|
B|-------------------------------------|
G|-------------------------------------|
D|-------------------------------------|
A|-------------------------------------|
E|-14--12-13--11-12--10-11--9-10-8-9-7-|

e|-----------------------------|
B|-----------------------------|
G|-----------------------------|
D|-----------------------------|
A|-----------------------------|
E|-8--6-7--5-6--4-5--3-4-2-3-1-|

e|-------------------------------------------|
B|-------------------------------------------|
G|-------------------------------------------|
D|-------------------------2--0--2--2/3-2--0-|
A|-4-x-4-x-4-x-4-----------2--0--2--2/3-2--0-|
E|-2-x-2-x-2-x-2-0-3-0-2-0-------------------|
                 * * * * *
e|------------------------------------------|
B|------------------------------------------|
G|----------------------------2--4-----2--4-|
D|-------------------------4--2--4--4--2--4-|
A|-4-x-4-x-4-x-4-----------4--------4-------|
E|-2-x-2-x-2-x-2-0-3-0-2-0------------------|
                 * * * * *
e|-------------------------------------------|
B|-------------------------------------------|
G|-------------------------------------------|
D|-------------------------2--0--2--2/3-2--0-|
A|-4-x-4-x-4-x-4-----------2--0--2--2/3-2--0-|
E|-2-x-2-x-2-x-2-0-3-0-2-0-------------------|
                 * * * * *
e|-------------------------------------|
B|-------------------------------------|
G|-------------------------------------|
D|-------------------------------------|
A|-------------------------------------|
E|-14--12-13--11-12--10-11--9-10-8-9-7-|

e|-----------------------------|
B|-----------------------------|
G|-----------------------------|
D|-----------------------------|
A|-----------------------------|
E|-8--6-7--5-6--4-5--3-4-2-3-1-|

e|-----------------------|
B|-----------------------|
G|-----------------------|
D|-----------------4/-11-|
A|-4-x-4-x-4-x-4-x-2/--9-|
E|-2-x-2-x-2-x-2-x-------|


Riff 5
e|-------------------------|
B|-------------------------|
G|-------------------------|
D|-------------------------|
A|-4-x-4-x-4-x-4-----------|
E|-2-x-2-x-2-x-2-0-3-0-2-0-|
                 * * * * *
  "Go to war..."
e|---------------------------------|
B|---------------------------------|
G|---------------------------------|
D|---------------------------------|
A|-----2-3-2-----------2-3-2-------|
E|-2-5-------5-2-0-2-5-------5-2-0-|

e|-------------------------|
B|-------------------------|
G|-------------------------|
D|-------------------------|
A|-4-x-4-x-4-x-4-----------|
E|-2-x-2-x-2-x-2-0-3-0-2-0-|
                 * * * * *
  "D-day next stop..."
e|---------------------------------|
B|---------------------------------|
G|---------------------------------|
D|---------------------------------|
A|-----0-1-0-----------0-1-0-------|
E|-0-3-------3-0-0-0-3-------3-0-0-|



Riff 4a
e|-------------------------------------|
B|-------------------------------------|
G|-------------------------------------|
D|-------------------------------------|
A|-------------------------------------|
E|-14--12-13--11-12--10-11--9-10-8-9-7-|
   "A playground..."
e|-----------------------------|
B|-----------------------------|
G|-----------------------------|
D|-----------------------------|
A|-----------------------------|
E|-8--6-7--5-6--4-5--3-4-2-3-1-|
   "...demented a haven..."
e|---------------------------|
B|---------------------------|
G|---------------------------|
D|---------------------------|
A|-4-x-4-x-4-x-4-----------4-|
E|-2-x-2-x-2-x-2-0-3-0-2-0-2-|
                 * * * * *
   "...those who walk..."


Riff 6
e|--------------------------------------------|
B|--------------------------------------------|
G|--------------------------------------------|
D|-4-3-2---4--4-3-2---------------------------|
A|-------4----------3-2--4-3-2-0----1-0-----3-|
E|-------------------------------3------3-2-1-|


Riff 7
Guitar 1                    x3
e|---------------------------|
B|---------------------------|
G|---------------------------|
D|---------------------------|
A|-5-x-4-x-5-x-4-----------4-|
E|-3-x-2-x-3-x-2-0-3-0-2-0-2-|
                 * * * * *
   "Love and war they..."
e|-------------------------|
B|-------------------------|
G|-------------------------|
D|-------------------------|
A|-5-x-4-x-5-x-4-----------|
E|-3-x-2-x-3-x-2-0-3-0-2-0-|
                 * * * * *
   "By the way..."
e|-------------------------------|
B|-------------------------------|
G|-------------------------------|
D|-4p2---------------------------|
A|-----4p0-4p0-4-4-3-2-0---2p0---|
E|-----------------------2-----0-|
   "...wheelchair..."

Guitar 2
e|-------------------------|
B|-------------------------|
G|-------------------------|
D|-------------------------|
A|-5-x-4-x-5-x-4-----------|
E|-3-x-2-x-3-x-2-0-3-0-2-0-|
                 * * * * *
   "Love and war they..."
e|-------------------------------|
B|-------------------------------|
G|-------------------------------|
D|-------------------------2-3-4-|
A|-----2-3-2-0-2-2-2-3-4-5-------|
E|-2-5---------------------------|

e|-------------------------|
B|-------------------------|
G|-------------------------|
D|-------------------------|
A|-5-x-4-x-5-x-4-----------|
E|-3-x-2-x-3-x-2-0-3-0-2-0-|
                 * * * * *
   "Take his life..."
e|-------------------------------|
B|-------------------------------|
G|-------------------------------|
D|-4p2---------------------------|
A|-----4p0-4p0-4-4-3-2-0---2p0---|
E|-----------------------2-----0-|

e|-------------------------|
B|-------------------------|
G|-------------------------|
D|-------------------------|
A|-5-x-4-x-5-x-4-----------|
E|-3-x-2-x-3-x-2-0-3-0-2-0-|
                 * * * * *
   "Your body has parts..."
e|-------------------------------|
B|-------------------------------|
G|-------------------------------|
D|-------------------------2-3-4-|
A|-----2-3-2-0-2-2-2-3-4-5-------|
E|-2-5---------------------------|

e|-------------------------|
B|-------------------------|
G|-------------------------|
D|-------------------------|
A|-5-x-4-x-5-x-4-----------|
E|-3-x-2-x-3-x-2-0-3-0-2-0-|
                 * * * * *
   "By the way..."
e|-------------------------------|
B|-------------------------------|
G|-------------------------------|
D|-4p2---------------------------|
A|-----4p0-4p0-4-4-3-2-0---2p0---|
E|-----------------------2-----0-|
   "...wheelchair..."



Riff 8
e|-------------------------------|
B|-------------------------------|
G|-6--7-6------------------------|
D|-4--5-4--6-7-------------------|
A|---------4-5-7--6--7--6--4-6-7-|
E|-------------5--4--5--4--2-4-5-|
                           * *
  "He once had..."
e|-------------------------|
B|-------------------------|
G|-------------------------|
D|-------------------------|
A|-5-x-4-x-5-x-4-----------|
E|-3-x-2-x-3-x-2-0-3-0-2-0-|
                 * * * * *
   "...nothing for no one..."
e|-------------------------------|
B|-------------------------------|
G|-------------------------------|
D|-------------------------2-3-4-|
A|-----2-3-2-0-2-2-2-3-4-5-------|
E|-2-5---------------------------|
   "...nowhere to see..."
e|-------------------------------|
B|-------------------------------|
G|-6--7-6------------------------|
D|-4--5-4--6-7-------------------|
A|---------4-5-7--6--7--6--4-6-7-|
E|-------------5--4--5--4--2-4-5-|
                           * *
  "Funny thing..."
e|-------------------------|
B|-------------------------|
G|-------------------------|
D|-------------------------|
A|-5-x-4-x-5-x-4-----------|
E|-3-x-2-x-3-x-2-0-3-0-2-0-|
                 * * * * *
   "...funny thing..."
e|-------------------------------|
B|-------------------------------|
G|-------------------------------|
D|-4p2---------------------------|
A|-----4p0-4p0-4-4-3-2-0---2p0---|
E|-----------------------2-----0-|
   "...a funny thing..."


Riff 7a
e|-------------------------|
B|-------------------------|
G|-------------------------|
D|-------------------------|
A|-5-x-4-x-5-x-4-----------|
E|-3-x-2-x-3-x-2-0-3-0-2-0-|
                 * * * * *
   "Tears streak..."
e|-------------------------------|
B|-------------------------------|
G|-------------------------------|
D|-------------------------2-3-4-|
A|-----2-3-2-0-2-2-2-3-4-5-------|
E|-2-5---------------------------|
   "...solemn stare..."
e|-------------------------|
B|-------------------------|
G|-------------------------|
D|-------------------------|
A|-5-x-4-x-5-x-4-----------|
E|-3-x-2-x-3-x-2-0-3-0-2-0-|
                 * * * * *
   "Abandoned for wreckage..."
e|-------------------------------|
B|-------------------------------|
G|-------------------------------|
D|-4p2---------------------------|
A|-----4p0-4p0-4-4-3-2-0---2p0---|
E|-----------------------2-----0-|
   "...no one cares..."


Riff 8a
e|-------------------------------|
B|-------------------------------|
G|-6--7-6------------------------|
D|-4--5-4--6-7-------------------|
A|---------4-5-7--6--7--6--4-6-7-|
E|-------------5--4--5--4--2-4-5-|
                           * *
   "No one knew what..."
e|------------------------------|
B|------------------------------|
G|-6--7-6---------6--7-6--------|
D|-4--5-4--6-7----4--5-4--6-7---|
A|---------4-5-7----------4-5-7-|
E|-------------5--------------5-|
   "No one spoke..."


Play Riff 3a  "Don't ask..."


Riff 9
e|------------------------------------|
B|------------------------------------|
G|------------------------------------|
D|----0--5--4--0--4-------------------|
A|-4--0--3--2--0--2--3333333333333333-|
E|-2----------------------------------|
                     ****************
                     "Take no prisoners..."
e|------------------------------------|
B|------------------------------------|
G|------------------------------------|
D|----0--5--4--0----------------------|
A|-4--0--3--2--0--5--4--4--2--4--4--2-|
E|-2--------------3--2--2--0--2--2--0-|
                      "Take no shit!"

Final time:
e|------------------------------------|
B|------------------------------------|
G|------------------------------------|
D|----0--5--4--0--4-------------------|
A|-4--0--3--2--0--2--3333333333333333-|
E|-2----------------------------------|
                     ****************
                     "Take no prisoners..."
e|------------------------------------|
B|------------------------------------|
G|------------------------------------|
D|----0--5--4--0----------------------|
A|-4--0--3--2--0--5--4--4--2--4--4--2-|
E|-2--------------3--2--2--0--2--2--0-|
                       "Take no..."
e|------------------------------------|
B|------------------------------------|
G|------------------------------------|
D|------------------------------------|
A|-4--4--2--4--4--2--4--4--2--4--4--2-|
E|-2--2--0--2--2--0--2--2--0--2--2--0-|

e|---------------|
B|---------------|
G|---------------|
D|----------11\--|
A|-4--4--2---9\--|
E|-2--2--0-------|
         "...shit!"


Ending solo (Friedman)
e|------------------------------------------------|
B|------------------------------------------------|
G|-----12b14--(14)r12----12b14--(14)r12p9---------|
D|--------------------10------------------12-10~~-|
A|------------------------------------------------|
E|-X\\--------------------------------------------|

e|--------------14-20b21--17-------21p17-----------|
B|-0--------14---------------19----------19--------|
G|---16b18----------------------18----------18~~~\-|
D|-------------------------------------------------|
A|-------------------------------------------------|
E|-------------------------------------------------|

e|--------------------------------------------------|
B|--------------------------------------------------|
G|-----14-13-----------------------14-16-14h16p14---|
D|-/16-------14-16-14-16p14--14-16---------------16-|
A|--------------------------------------------------|
E|--------------------------------------------------|

e|-------------------------------|
B|-------------------------------|
G|-14-16b17--(17)r16b17r16b17~~~-|
D|-------------------------------|
A|-------------------------------|
E|-------------------------------|

e|----------------------------------------------------|
B|----------------14-13h15-13-18h19p18p15-18h19p18p15-|
G|-------11-13-14-------------------------------------|
D|-10\9/----------------------------------------------|
A|----------------------------------------------------|
E|----------------------------------------------------|

e|-----------------------|
B|-15--------------------|
G|----19--19p17p14-------|
D|-----------------16~~\-|
A|-----------------------|
E|-----------------------|

e|------------------------------------------17b20~~--x\-|
B|---17b19-17b19~--19p17p14-17b19--19p17p14----------x\-|
G|-x----------------------------------------------------|
D|-x----------------------------------------------------|
A|------------------------------------------------------|
E|------------------------------------------------------|

e|-16h21p16p14h16-21-14-16---------------------------------|
B|------------------------14h17h21p14--------------17b19~~-|
G|-----------------------------------21-14-14-21-x---------|
D|---------------------------------------------------------|
A|---------------------------------------------------------|
E|---------------------------------------------------------|

e|-x--14b15r14--12h14p12--12-14-11-14p11--11----------|
B|-x--------------------14--------------14--14-13~~~\-|
G|-x--------------------------------------------------|
D|----------------------------------------------------|
A|----------------------------------------------------|
E|----------------------------------------------------|

e|------------------------------------------------|
B|-/14-13-12--------------------------------------|
G|-----------14-13-12-11----/14-12-14-11----------|
D|-----------------------14--------------12-11~~~-|
A|------------------------------------------------|
E|------------------------------------------------|

e|--------------------------------------------------------|
B|--------------------------------------------------------|
G|--------------------------------------------------------|
D|-10b11r10--(10)b11--(11)tm----(11)tm----(11)tm----(11)\-|
A|--------------------------------------------------------|
E|--------------------------------------------------------|

End Solo

4.FIVE MAGICS

Tuning: Standard


Intro
e|-------------------------|
B|-------------------------|
G|-------------------------|
D|-------------------------|
A|-7p5----8----7p5----8----|
E|-----00-6-00-----00-6-00-|
       **   **     **   **
e|-----------------------|
B|-----------------------|
G|-----------------------|
D|-----------------------|
A|-7p5----8----7p5----5--|
E|-----00-6-00-----00-3--|
       **   **     **
e|-------------------------|
B|-------------------------|
G|-------------------------|
D|-------------------------|
A|-7p5----8----7p5----8----|
E|-----00-6-00-----00-6-00-|
       **   **     **   **
e|-------------------------|
B|-------------------------|
G|-------------------------|
D|-------------------------|
A|-7p5----8----7p5----5--2-|
E|-----00-6-00-----00-3--0-|
       **   **     **



Riff 1
Guitar 1
e|-----------------------------------------|
B|---------------------------------------8-|
G|-------------------------9--8------------|
D|-4/-14--13--9------------------9---------|
A|--------------10--9--------------10--9---|
E|---------------------11------------------|

e|--------------------------------------------|
B|--------------------------------------------|
G|-9--8~-----------------9--8~-------------8\-|
D|--------9---------------------9-------------|
A|----------10~--9~---------------10~--9~-----|
E|-------------------11-----------------------|

Guitar 2
e|-------------------------------------|
B|-------------------------------------|
G|-------------------------------------|
D|-----------[silent]------------------|
A|-------------------------------------|
E|-------------------------------------|

e|----------------------------------------------|
B|-13--12~-----------------13--12~--------------|
G|----------11--9~--8~--------------11--9~--8~--|
D|----------------------9-----------------------|
A|----------------------------------------------|
E|----------------------------------------------|

e|--------------------------------------|
B|--16--17~~--[let ring into next riff]-|
G|--------------------------------------|
D|--------------------------------------|
A|--------------------------------------|
E|--------------------------------------|



Riff 2
e|--------------------------------------|
B|--------------------------------------|
G|-------------0------------------11----|
D|-----5-----8---8------9------10----10-|
A|---7-----7---------10-----12----------|
E|-0-----0---------0------0-------------|
   * *   * * *     *  *   *  *  *
e|--------------------------------------|
B|--------------------------------------|
G|-------------0------------------11~~--|
D|-----5-----8---8------9------10-------|
A|---7-----7---------10-----12----------|
E|-0-----0---------0------0-------------|
   * *   * * *     *  *   *  *  *
e|--------------------------------------|
B|--------------------------------------|
G|-------------0------------------11----|
D|-----5-----8---8------9------10----10-|
A|---7-----7---------10-----12----------|
E|-0-----0---------0------0-------------|
   * *   * * *     *  *   *  *  *     *
                                  x3
e|---------------------------------|
B|---------------------------------|
G|---------------------------------|
D|-----5-----5-----2-0-2-4-5-4-5-7-|
A|---5-----5-------2-0-2-4-5-4-5-7-|
E|-7-----6-----3-2-----------------|
   * *   * *   * * * * * * * * * *
e|--------------------------------|
B|--------------------------------|
G|--------------------------------|
D|-----5-----5--------------------|
A|---5-----5-------2--[let ring]--|
E|-7-----6-----3-2-0--------------|
   * *   * *   * *



Play Riff 1

Riff 2a
e|--------------------------------------|
B|--------------------------------------|
G|-------------0------------------11----|
D|-----5-----8---8------9------10----10-|
A|---7-----7---------10-----12----------|
E|-0-----0---------0------0-------------|
   * *   * * *     *  *   *  *  *
e|--------------------------------------|
B|--------------------------------------|
G|-------------0------------------11~~--|
D|-----5-----8---8------9------10-------|
A|---7-----7---------10-----12----------|
E|-0-----0---------0------0-------------|
   * *   * * *     *  *   *  *  *
e|--------------------------------------|
B|--------------------------------------|
G|-------------0------------------11----|
D|-----5-----8---8------9------10----10-|
A|---7-----7---------10-----12----------|
E|-0-----0---------0------0-------------|
   * *   * * *     *  *   *  *  *     *
e|--------------------------------|
B|--------------------------------|
G|--------------------------------|
D|-----5-----5--------------------|
A|---5-----5-------2--[let ring]--|
E|-7-----6-----3-2-0--------------|
   * *   * *   * *


Riff 3
e|-------------------------------|
B|-------------------------------|
G|-------------------------------|
D|-------------------------------|
A|---2-02-3--3-3-3-3-3-3-3-3-3-3-|
E|-0------1--1-1-1-1-1-1-1-1-1-1-|
   * * **    * * * * * * * * * *
           "Bestow upon me..."
e|-----------------------------|
B|-----------------------------|
G|-----------------------------|
D|---------------4-------------|
A|---2-02-2------2-------------|
E|-0------0--0-0----0-0-66-3~--|
   * * **    * *    * * **
      "...wizard, all-knowing..."

Final time:
e|--------------------------------------|
B|--------------------------------------|
G|--------------------------------------|
D|--------------------------------------|
A|---2-02-3--3-3-3-3-3-3-3-3-3-3---2-02-|
E|-0------1--1-1-1-1-1-1-1-1-1-1-0------|
   * * **    * * * * * * * * * * * * **
           "...in..."


Solos over Riff 3 (Friedman)
#1
e|--------------------------------------------------|
B|--------------------------------------------------|
G|--------------------------------------------------|
D|--------------------------------14-14-14h15p14h15-|
A|--------------12h14-12-12-14/15-------------------|
E|-/13~~--12h13-------------------------------------|

e|------------------------------19-12h17p12------|
B|------------------17-----17h18-----------17p12-|
G|-14h16-14-14-16h17--17-17----------------------|
D|-----------------------------------------------|
A|-----------------------------------------------|
E|-----------------------------------------------|

e|-17-----15------------------------------------|
B|---12h15--15p12\10-12h15p12--12---------------|
G|---------------------------14--14-12--14-12~~-|
D|------------------------------------14--------|
A|----------------------------------------------|
E|----------------------------------------------|

e|---------------------|
B|---------------------|
G|---------------------|
D|-14-12---------------|
A|-------14-12---(12)\-|
E|---------------------|


#2
e|------13-------------------------------------|
B|-10h13--13p10--13p10-----10------------------|
G|-------------12-----12p10--12p10--12p10------|
D|--------------------------------12-----12p10-|
A|---------------------------------------------|
E|---------------------------------------------|

e|------------------------------------|
B|------------------------------------|
G|-10---------------------------------|
D|---10h12p10--12p10-----10-----------|
A|-----------12-----12p10--10h12p10---|
E|---------------------------------13-|

e|--------------------------------------------|
B|--------------------------------------------|
G|-------------------------------7b9r7-(7)b9--|
D|----------5--7--7b9r7p5--7--5---------------|
A|-X/--X/-------------------------------------|
E|-X/--X/-------------------------------------|


#3
e|-19p15-------15-17-------17p13-15----13----------|
B|-------17h18-------18-------------17----17-15p13-|
G|----------------------18-------------------------|
D|-------------------------------------------------|
A|-------------------------------------------------|
E|-------------------------------------------------|

e|-15p12-----12h13------13----12---------------------|
B|------13h15-----15p12----15----13-15-13-12---------|
G|-------------------------------------------14-12~~-|
D|---------------------------------------------------|
A|---------------------------------------------------|
E|---------------------------------------------------|

e|--------------------------------------------------------|
B|-----------14--(14)b16r14p12-14b16----------------------|
G|-9-9/12-12-14--(14)b16r14p12-14b16----12----13--(13)~~~-|
D|-----------------------------------------14-------------|
A|--------------------------------------------------------|
E|--------------------------------------------------------|


#4
e|---17-21p17--17-20p17--17\13-17-17-13-17-13-10-13-13-10-13-10-13-|
B|-18--------18--------18---------------------------------------13-|
G|-----------------------------------------------------------------|
D|-----------------------------------------------------------------|
A|-----------------------------------------------------------------|
E|-----------------------------------------------------------------|

e|--11-8-10-9-5-8-5h8p5---5---------------|
B|----------------------8---6-------------|
G|----------------------------7---4//15\\-|
D|------------------------------7---------|
A|----------------------------------------|
E|----------------------------------------|

End Solos


Riff 4
Guitar 1                   x4
e|--------------------------|
B|--------------------------|
G|--------------------------|
D|-----02---------4-------5-|
A|---2------3---4---2---5---|
E|-0------1---2-------3-----|
   * * ** * * * * * * * *

Guitar 2
e|------------------------|
B|------------------------|
G|------------------------|
D|------[silent]----------|
A|------------------------|
E|------------------------|

e|------------------------|
B|------------------------|
G|------------------------|
D|------------------------|
A|-2---[let ring]---------|
E|-0----------------------|

e|------------------------|
B|------------------------|
G|------------------------|
D|------------------------|
A|-2----------------------|
E|-0----------------------|

e|------------------------|
B|------------------------|
G|------------------------|
D|------------------------|
A|-2---[let ring]---------|
E|-0----------------------|



Riff 4a (Solo Rhythm)
e|--------------------------|
B|--------------------------|
G|--------------------------|
D|-----02---------4-------5-|
A|---2------3---4---2---5---|
E|-0------1---2-------3-----|
   * * ** * * * * ** * *

Solo (Friedman)
e|-15-14h15p14-----14-15---------------------------------|
B|-------------17--------17-15h17p15-----15-[17]19r17b19-|
G|-----------------------------------16---a--------------|
D|-------------------------------------------------------|
A|-------------------------------------------------------|
E|-------------------------------------------------------|

e|---------------------------------------------|
B|---------------------------------------------|
G|-16-15h16p15-----14b16r14--------------------|
D|-------------17--------------17-16-17-14~~~\-|
A|---------------------------------------------|
E|---------------------------------------------|

e|--------------------------x--------8h9h11-13p9p8-12p11-|
B|---8h9h11p9p8h9h11p9p8h9--x-8h9h11---------------------|
G|-9-----------------------------------------------------|
D|-------------------------------------------------------|
A|-------------------------------------------------------|
E|-------------------------------------------------------|

e|-9---------9-----------|
B|---12p11-x---12b14~~~--|
G|-----------------------|
D|-----------------------|
A|-----------------------|
E|-----------------------|

e|-------------------------------------|
B|----12-11h12p11----------------------|
G|----------------12-14b15r14-11-12----|
D|-14-------------------------------14-|
A|-------------------------------------|
E|-------------------------------------|

e|--------------------------------------|
B|-----15-14h15p14----------------------|
G|-----------------16-17b18r17-14-15----|
D|-/17-------------------------------17-|
A|--------------------------------------|
E|--------------------------------------|

e|-----19-----------19-------------17-------18p15----|
B|--------20-19--------20----19-20----19----------17-|
G|-------------21---------19-------------19----------|
D|-/21-----------21----------------------------------|
A|---------------------------------------------------|
E|---------------------------------------------------|

e|----------------------15-18-19-18-15----15-19-|
B|-------------------17----------------19-------|
G|-18-15----15-18-18----------------------------|
D|-------17-------------------------------------|
A|----------------------------------------------|
E|----------------------------------------------|

e|-15h19p15----15-19b22r19-18-19~~\-|
B|----------19----------------------|
G|----------------------------------|
D|----------------------------------|
A|----------------------------------|
E|----------------------------------|

End Solo


Riff 4a
e|-------------------------------|
B|-------------------------------|
G|-----79-----------11--------12-|
D|---9------10---11----11---12---|
A|-7------8----9----------10-----|
E|-------------------------------|
   "Let the ceremony..."
e|-------------------------------|
B|-------------------------------|
G|-----79-----------11--------12-|
D|---9------10---11----11---12---|
A|-7------8----9----------10-----|
E|-------------------------------|
   "Let me be the protege..."
e|----------------------------|
B|----------------------------|
G|-----9-9----8------7-7----6-|
D|---9-9-9----8----7-7-7----6-|
A|-7--------6----5--------4---|
E|----------------------------|
   * *      *    * *      *
e|----------------------|
B|--------------------0-|
G|-----5-5----4-------0-|
D|---5-5-5----4--3------|
A|-3--------2----1-11---|
E|----------------------|
   * *      *    * **

Riff 5
e|---------------------------------|
B|---------------------------------|
G|---------------------------------|
D|-4--2-------------4--2-----------|
A|-2--0--5--4--2----2--0--5--4--3--|
E|-------3--2--0----------3--2--1--|
   *  *  *  *       *  *  *  *
   "Give me alchemy..."
e|-----------------------------------|
B|-----------------------------------|
G|-----------------------------------|
D|-4--2---------------4--2-----------|
A|-2--0--5-----3-4----2--0--5--4--5--|
E|-------3--0--1-2----------3--2--3--|
   *  *  *  *         *  *  *  *
   "Give me sorcery..."


Riff 5a
e|-------------------------|
B|-------------------------|
G|-------------------------|
D|-4--2--------------------|
A|-2--0--5--4--2-----2-----|
E|-------3--2--0-0-0-0-0-0-|
   *  *  *  *    * *   * *
   "I master..."
e|-------------------------|
B|-------------------------|
G|-------------------------|
D|-4--2--------------------|
A|-2--0--5--4--3-----3-----|
E|-------3--2--1-1-1-1-1-1-|
   *  *  *  *    * *   * *
e|-------------------------|
B|-------------------------|
G|-------------------------|
D|-4--2--------------------|
A|-2--0--5-----3/4---4-----|
E|-------3--0--1/2-2-2-2-2-|
   *  *  *  *      *   * *
  "Five magics..."
e|-------------------------|
B|-------------------------|
G|-------------------------|
D|-4--2--------------------|
A|-2--0--5--4--5-----5-----|
E|-------3--2--3-3-3-3-3-3-|
   *  *  *  *    * *   * *

Final time:
e|------------------------------------|
B|------------------------------------|
G|------------------------------------|
D|-4--2--------------------4--2-------|
A|-2--0--5--4--5-----5-----2--0--5--4-|
E|-------3--2--3-3-3-3-3-3-------3--2-|
   *  *  *  *    * *   * * *  *  *  *
  "Five magics..."


Riff 6
e|-------------------------------|
B|-------------------------------|
G|-------------------------------|
D|-------------------------------|
A|-3------------------------2-02-|
E|-1--1-1-1-1-1-1-1-1-1-1-0------|
      * * * * * * * * * * * * **
       "Possessed by..."
e|-------------------------------|
B|-------------------------------|
G|-------------------------------|
D|-------------------------------|
A|-2------------------------2-02-|
E|-0--0-000-000-000-000-000------|
      * *** *** *** *** *** * **
       "...possessed by..."

Riff 6a
e|-------------------------------|
B|-------------------------------|
G|-------------------------------|
D|-------------------------------|
A|-3------------------------2-02-|
E|-1----------------------0------|
                          * * **
       "He who lives..."
e|-------------------------------|
B|-------------------------------|
G|-------------------------------|
D|-------------------------------|
A|-2------------------------2-02-|
E|-0--0-000-000-000-000-000------|
      * *** *** *** *** *** * **
       "...he who lives..."


Final time:
e|---------------------------------|
B|---------------------------------|
G|---------------------------------|
D|---------------------------------|
A|-3------------------------2-02-2-|
E|-1----------------------0------0-|
                          * * **
      "Will surely live the lie..."


Riff 7
Guitar 1                                x4
e|---------------------------------------|
B|---------------------------------------|
G|---------------------------------------|
D|------------------------------9--8-----|
A|------------------------------7--6-9-8-|
E|-0000-7-00000-6-00000-7-00000------7-6-|
   **** * ***** * ***** * *****

Guitar 2
e|---------------------------------------|
B|---------------------------------------|
G|---------------------------------------|
D|------------[silent]-------------------|
A|---------------------------------------|
E|---------------------------------------|

e|---------------------------------------|
B|---------------------------------------|
G|---------------------------------------|
D|---------------------------------------|
A|-2-------------------------------------|
E|-0-------------------------------------|

e|---------------------------------------|
B|---------------------------------------|
G|---------------------------------------|
D|------------------------------9--8-----|
A|-2----9-------8-------9-------7--6-9-8-|
E|-0----7-------6-------7------------7-6-|

e|---------------------------------------|
B|---------------------------------------|
G|---------------------------------------|
D|------------------------------9--8-----|
A|-2----9-------8-------9-------7--6-9-8-|
E|-0----7-------6-------7------------7-6-|



Riff 7a (Solo Rhythm, Play 1x)          x4
e|---------------------------------------|
B|---------------------------------------|
G|---------------------------------------|
D|------------------------------9--8-----|
A|------------------------------7--6-9-8-|
E|-0000-7-00000-6-00000-7-00000------7-6-|
   **** * ***** * ***** * *****
e|-------------------------|
B|-------------------------|
G|-------------------------|
D|-------------------------|
A|-7p5----8----7p5----8----|
E|-----00-6-00-----00-6-00-|
       **   **     **   **
e|-----------------------|
B|-----------------------|
G|-----------------------|
D|-----------------------|
A|-7p5----8----7p5----5--|
E|-----00-6-00-----00-3--|
       **   **     **



Riff 7b (Solo Rhythm)
e|---------------------------------------|
B|---------------------------------------|
G|---------------------------------------|
D|------------------------------9--8-----|
A|------------------------------7--6-9-8-|
E|-0000-7-00000-6-00000-7-00000------7-6-|
   **** * ***** * ***** * *****
e|---------------------------------------|
B|---------------------------------------|
G|---------------------------------------|
D|------------------------------9--8-----|
A|------------------------------7--6-9-8-|
E|-0000-7-00000-6-00000-7-00000------7-6-|
   **** * ***** * ***** * *****
e|-------------------------|
B|-------------------------|
G|-------------------------|
D|-------------------------|
A|-7p5----8----7p5----8----|
E|-----00-6-00-----00-6-00-|
       **   **     **   **
e|-----------------------|
B|-----------------------|
G|-----------------------|
D|-----------------------|
A|-7p5----8----7p5----5--|
E|-----00-6-00-----00-3--|
       **   **     **


Final time: (Solo Rhythm)
e|---------------------------------------|
B|---------------------------------------|
G|---------------------------------------|
D|------------------------------9--8-----|
A|------------------------------7--6-9-8-|
E|-0000-7-00000-6-00000-7-00000------7-6-|
   **** * ***** * ***** * *****
e|---------------------------------------|
B|---------------------------------------|
G|---------------------------------------|
D|------------------------------9--8-----|
A|------------------------------7--6-9-8-|
E|-0000-7-00000-6-00000-7-00000------7-6-|
   **** * ***** * ***** * *****
e|-------------------------|
B|-------------------------|
G|-------------------------|
D|-------------------------|
A|-7p5----8----7p5----8----|
E|-----00-6-00-----00-6-00-|
       **   **     **   **
e|-----------------------|
B|-----------------------|
G|-----------------------|
D|-----------------------|
A|-7p5----8----7p5----5--|
E|-----00-6-00-----00-3--|
       **   **     **
e|-------------------------|
B|-------------------------|
G|-------------------------|
D|-------------------------|
A|-7p5----8----7p5----8----|
E|-----00-6-00-----00-6-00-|
       **   **     **   **
e|-------------------------|
B|-------------------------|
G|-------------------------|
D|-------------------------|
A|-7p5----8----7p5----5--2-|
E|-----00-6-00-----00-3--0-|
       **   **     **



Ending solo (Mustaine)
e|-24t12-22t12-20t12-22t12-20t12-19t12-|
B|-------------------------------------|
G|-------------------------------------|
D|-------------------------------------|
A|-------------------------------------|
E|-------------------------------------|

e|-24t12-23t12-20t12-22t12-20t12-19t12-|
B|-------------------------------------|
G|-------------------------------------|
D|-------------------------------------|
A|-------------------------------------|
E|-------------------------------------|

e|-24t12-22t12-20t12-22t12-20t12-19t12-|
B|-------------------------------------|
G|-------------------------------------|
D|-------------------------------------|
A|-------------------------------------|
E|-------------------------------------|

e|-20t12-19t12-17t12-19t12-17t12-15t12-|
B|-------------------------------------|
G|-------------------------------------|
D|-------------------------------------|
A|-------------------------------------|
E|-------------------------------------|

e|-17t12-15t12-14t12-15t12-17t12-19t12-|
B|-------------------------------------|
G|-------------------------------------|
D|-------------------------------------| --> Play 3x
A|-------------------------------------|
E|-------------------------------------|

e|-17t12-19t12-20t12-19t12-20t12-22t12-|
B|-------------------------------------|
G|-------------------------------------|
D|-------------------------------------|
A|-------------------------------------|
E|-------------------------------------|

e|----------------------------------|
B|-17p15------------17p15-----------|
G|-------16-16-15~--------16-16-15~-|
D|----------------------------------| --> Play 2x
A|----------------------------------|
E|----------------------------------|

e|----------------------------------------|
B|----------------------------------------|
G|-12h15p12--12-12------------------------|
D|---------14-----14-14-12-15-14-12-14-12-|
A|----------------------------------------|
E|----------------------------------------|

e|-------------------------------------------|
B|-------------------------------------------|
G|-------------------------------------------|
D|---12--------------------------------------|
A|-14--14p13p12-14p13p12h13p12---------------|
E|----------------------------15p14-12h15p12-|

e|-----------------------------------------------|
B|-----------------------------------------------|
G|-----------------------------------------------|
D|----------------------12h13p12--12h13h14p13p12-|
A|------13------13h16p13--------13---------------|
E|-12h15---12-15---------------------------------|

e|-x------------------10---------------------------|
B|-x-------------11h12--10-11-12/14p12-15p12-17p15-|
G|---12-9h11h12p9----------------------------------|
D|-------------------------------------------------|
A|-------------------------------------------------|
E|-------------------------------------------------|

e|----------------------------------|
B|-17p15------------17p15-----------|
G|-------16-16-15~--------16-16-15~-|
D|----------------------------------| --> Play 2x
A|----------------------------------|
E|----------------------------------|

e|----------10/12-12-12-12------12-12-12-12-12-12-12-|
B|-17p15------------------15b17----------------------|
G|-------16------------------------------------------|
D|---------------------------------------------------|
A|---------------------------------------------------|
E|---------------------------------------------------|

e|-------12-12-12-12-12-12------12-12------12-12------|
B|-15b17------------------15b17------15b17------15b17-|
G|----------------------------------------------------|
D|----------------------------------------------------|
A|----------------------------------------------------|
E|----------------------------------------------------|

e|-12-12------{12}---------12-17-15-12------12-------|
B|------15b17-----(17)r15-------------15b17----13-13-|
G|---------------------------------------------------|
D|---------------------------------------------------|
A|---------------------------------------------------|
E|---------------------------------------------------|

e|-12-12-12---12-12---------------------------------------|
B|---------15--------15-15-15-12-----------12-------------|
G|------------------------------14b16-{14}----14b16r14p12-|
D|--------------------------------------------------------|
A|--------------------------------------------------------|
E|--------------------------------------------------------|

e|----------------------|
B|----------------------|
G|-15-14-12-14-12-14/16-|
D|----------------------|
A|----------------------|
E|----------------------|

e|----------------------------------|
B|-17p15------------17p15-----------|
G|-------16-16-15~--------16-16-15~-|
D|----------------------------------| --> Play 2x
A|----------------------------------|
E|----------------------------------|

e|-------------------------------------------------|
B|-12-15-12---12-12--------------------------------|
G|---------15-------15-14-12-15-14-12-14-12-----12-|
D|-------------------------------------------14----|
A|-------------------------------------------------|
E|-------------------------------------------------|

e|------------------------------------------------|
B|------------------------------------------------|
G|------------------------------------------------|
D|-14p13p12h14p13p12h14p13p12---------------------|
A|---------------------------14p13p12-14p13p12-12-|
E|------------------------------------------------|

e|-----------------------------------------------------|
B|-----------------------------------------------------|
G|-----------------------------------------------------|
D|-----------------------------------------------------|
A|------12h14-13p12------x-----x-x-x-x-x-x-x-x-x-x-x-x-|
E|-12h15-----------14p12-x-/7\-x-x-x-x-x-x-x-x-x-x-x-x-|

e|----------------------------------|
B|-17p15------------17p15-----------|
G|-------16-16-15~--------16-16-15~-|
D|----------------------------------|
A|----------------------------------|
E|----------------------------------|

e|----------------------------------|
B|-17p15------------17p15-----------|
G|-------16-16-15~--------16-16-15/-|
D|----------------------------------|
A|----------------------------------|
E|----------------------------------|

e|-24p22-----------24p22----------|
B|-------24-24-23--------24-24-23-|
G|--------------------------------|
D|--------------------------------|
A|--------------------------------|
E|--------------------------------|

e|-24p22-----------24p22------------------|
B|-------24-24-23--------24-24-23--20-----|
G|------------------------------------21\-|
D|----------------------------------------|
A|----------------------------------------|
E|----------------------------------------|

End Solo

5.POISON WAS THE CURE

Tuning: Standard

Riff 1                                    x3
e|-----------------------------------------|
B|-----------------------------------------|
G|-----------------------------------------|
D|---------------------------------5-6-2-2-|
A|-0-0-0-0-0-0-0-0-0-0-0-0-0-0-0-0-3-4-0-0-|
E|-----------------------------------------|
   * * * * * * * * * * * * * * * *
e|----------------------------------------------|
B|----------------------------------------------|
G|----------------------------------------------|
D|---------------------------------5-6/14-14-14-|
A|-0-0-0-0-0-0-0-0-0-0-0-0-0-0-0-0-3-4/12-12-12-|
E|----------------------------------------------|
   * * * * * * * * * * * * * * * *
e|-----------------------------|
B|-----------------------------|
G|-----------------------------|
D|--------(14)\----------------|
A|--------(12)\---[slow slide]-|
E|-----------------------------|


Riff 2
Guitar 1
e|--------------------------------|
B|--------------------------------|
G|--------------------------------|
D|----7p5---5-----5h7p5---5-------|
A|-0------7---6h7-------7---7-6p5-|
E|--------------------------------|

e|------------------------------|
B|------------------------------|
G|----------------7p5p0-5p2p0-4-|
D|----7p5---5-------------------|
A|-0------7---6p0---------------|
E|------------------------------|

e|--------------------------------|
B|--------------------------------|
G|--------------------------------|
D|----7p5---5-----5h7p5---5-------|
A|-0------7---6h7-------7---7-6p5-|
E|--------------------------------|

e|-------------------------------|
B|-------------------------------|
G|-------------------------------|
D|----7p5---5--------------------|
A|-0------7---6p0-5p3p0--6p4p0-7-|
E|-------------------------------|


Guitar 2
e|---------------------|
B|---------------------|
G|---2---0---2-------0-|
D|---2---0---2---2---0-|
A|-0---0---0---0-2-0---|
E|---------------------|
   *   *   *   *   *
e|-------------------|
B|-------------------|
G|---2---0-----------|
D|---2---0---7--5--4-|
A|-0---0---0-5--3--2-|
E|-------------------|
   *   *   *
e|---------------------|
B|---------------------|
G|---2---0---2-------0-|
D|---2---0---2---2---0-|
A|-0---0---0---0-2-0---|
E|---------------------|
   *   *   *   *   *
e|-------------------|
B|-------------------|
G|---2---0-----------|
D|---2---0---7--8--9-|
A|-0---0---0-5--6--7-|
E|-------------------|
   *   *   *



Riff 3
e|----------------------|
B|----------------------|
G|----------------------|
D|-------------------2--|
A|-3--4--5--6--5--4--0--|
E|-1--2--3--4--3--2-----|
   *  *  *  *  *  *
                  "Once stalked..."
e|---------------------|
B|---------------------|
G|---------------------|
D|----------------5-4--|
A|-3--4--5--6--5--3-2--|
E|-1--2--3--4--3-------|
   *  *  *  *  *
           "Sleep walk to..."
e|-------------------------------------|
B|-------------------------------------|
G|-------------------------------------|
D|-------------------------------------|
A|-3--4--5--6--5--2---4--5--6--7--6--2-|
E|-1--2--3--4--3--0---2--3--4--5--4--0-|
   *  *  *  *  *  *   *  *  *  *  *  *
        "I'm the sun..."
e|-------------------------------------|
B|-------------------------------------|
G|-------------------------------------|
D|-------------------------------------|
A|-5--6--7--8--7--2---7--8--9--7--8--9-|
E|-3--4--5--6--5--0---5--6--7--5--6--7-|
   *  *  *  *  *  *   *  *  *  *  *  *
   "...til I finally..."


Riff 4
e|------------------------------------|
B|------------------------------------|
G|-12--------------12-11--------------|
D|-10--------------10--9--------------|
A|----000000000000-------000000000000-|
E|------------------------------------|
      ************       ************
   "...knowing when I'd..."
e|--------------------------------------|
B|--------------------------------------|
G|-11-10--------------10-9--------------|
D|--9--8---------------8-7--------------|
A|-------000000000000------000000000000-|
E|--------------------------------------|
         ************      ************
   "...brain was just..."
e|------------------------------------|
B|------------------------------------|
G|-9-8--------------8-7---------------|
D|-7-6--------------6-5---------------|
A|-----000000000000------000000000000-|
E|------------------------------------|
       ************      ************
   "...rock star..."
e|-----------------------|
B|-----------------------|
G|-7-6--------------6-5--|
D|-5-4--------------4-3--|
A|-----000000000000------|
E|-----------------------|
       ************
   "...tidepool, taste the..."


Riff 5
e|--------------------------------|
B|--------------------------------|
G|--------------------------------|
D|----5------------------------2--|
A|-3--3--5---3--4--5--6--5--4--0--|
E|-1--3--3---1--2--3--4--3--2-----|
             *  *  *  *  *  *
e|-------------------------|
B|-------------------------|
G|-------------------------|
D|----------------5--4-----|
A|-3--4--5--6--5--3--2--5--|
E|-1--2--3--4--3--------3--|
   *  *  *  *  *
                   "Taste me..."


Riff 6 (Solo Rhythm)
e|-----------------------------------|
B|-----------------------------------|
G|-----------------------------------|
D|-2----------------5----------------|
A|-0-00000000000000-3-00000000000000-|
E|-----------------------------------|
     **************   **************
e|-------------------------------------|
B|-------------------------------------|
G|-------------------------------------|
D|-7----------------10--------9--------|
A|-5-00000000000000--8-000000-7-000000-|
E|-------------------------------------|
     **************    ******   ******

Final time:
e|-------------------------------------|
B|-------------------------------------|
G|-------------------------------------|
D|-7-------------------7-10------6-9---|
A|-5-00000000000000--8------8--7-----7-|
E|-------------------------------------|
     **************

Solo (Mustaine)
e|-------------------------------|
B|-------------------------------|
G|---2p0---5p2p0-2p0-------------|
D|-------------------2p0-0h1h2p0-|
A|-0-----0-----------------------|
E|-------------------------------|
         *
e|-----------------------------|
B|-----------------------------|
G|---2p0---5p2p0-2p0-----------|
D|-------------------2p0-0h1h2-|
A|-3-----3---------------------|
E|-----------------------------|
         *
e|------------------------------|
B|------------------------------|
G|---2p0---5~----2p0---5~---2-0-|
D|-0-----0-----------0----------|
A|------------------------------|
E|------------------------------|
         *           *
e|---------------------|
B|---------------------|
G|----2-5--------1-4---|
D|-3------3--2-------2-|
A|---------------------|
E|---------------------|



Riff 7 (Solo Rhythm)
e|-----------------------------------|
B|-----------------------------------|
G|-----------------------------------|
D|-2----------------5----------------| ----|
A|-0-00000000000000-3-33333333333333-|     |
E|-----------------------------------|     |
     **************   **************       |
e|-------------------------------------|   |--> Play 2x
B|-------------------------------------|   |
G|-------------------------------------|   |
D|-7----------------10--------9--------| --|
A|-5-55555555555555--8-888888-7-777777-|
E|-------------------------------------|
     **************    ******   ******
e|-------------------------------|
B|-------------------------------|
G|-------------------------------|
D|-2--------2-3-4-5--------5-6-9-|
A|-0-000000-0-1-2-3-333333-3-4-7-|
E|-------------------------------|
     ******         ******
e|-----------------------------------|
B|-----------------------------------|
G|-----------------------------------|
D|-7--------7-8-9-10--------9--------|
A|-5-555555-5-6-7--8-888888-7-777777-|
E|-----------------------------------|
     ******          ******   ******
e|-------------------------------|
B|-------------------------------|
G|-------------------------------|
D|-2--------2-3-4-5--------5-6-9-|
A|-0--------0-1-2-3--------3-4-7-|
E|-------------------------------|

e|-----------------------------|
B|-----------------------------|
G|-----------------------------|
D|-7--------7-8-9-10----9----2-|
A|-5--------5-6-7--8----7----0-|
E|-----------------------------|


Ending Solo (Friedman)
e|------------------------------------|
B|-----------------------------7b8~~~-|
G|-7b9r7b9~~--(9)b10--7b9r7p5---------|
D|------------------------------------|
A|------------------------------------|
E|------------------------------------|

e|-5------------------------------------------------|
B|---8-5---------------------------5----------------|
G|-------8-7-5-5b7--(7)r5----7-5-7---7-5------5-4~~-|
D|---------------------------------------7~~--------|
A|--------------------------------------------------|
E|--------------------------------------------------|

e|--------------------------12-15-15p12-------|
B|--------------------12-13-------------13-12-|
G|---------------9-12-------------------------|
D|----------9-10------------------------------|
A|-----7-10-----------------------------------|
E|-7-8----------------------------------------|

e|-15p12-----12-13-----15b17---------|
B|------13h15-----15p12------[15]17~-|
G|-----------------------------------|
D|-----------------------------------|
A|-----------------------------------|
E|-----------------------------------|

e|----13-17p13-------------------10-13-10----------|
B|-15----------15-------------10----------10-------|
G|----------------14\10----10----------------10-10-|
D|----------------------12-------------------------|
A|-------------------------------------------------|
E|-------------------------------------------------|

e|-/22p17------------------------|
B|--------18---------------------|
G|-----------19\14-12----14-12~~-|
D|--------------------12---------|
A|-------------------------------|
E|-------------------------------|

e|-20-17-------------20-17-------------20-17-------|
B|-------20-17-------------20-17-------------20-17-|
G|-------------19-17-------------19-17-------------|
D|-------------------------------------------------|
A|-------------------------------------------------|
E|-------------------------------------------------|

e|-20-17-------------20-17-------20b24r20\-|
B|-------20-17-------------20-17-----------|
G|-------------19-17-----------------------|
D|-----------------------------------------|
A|-----------------------------------------|
E|-----------------------------------------|

e|--------------------------------------------------------------|
B|--------------10-9-8-7----------------------------------------|
G|------------9----------10-9-7-10-9-7--------------------------|
D|-0h1/7-9-10--------------------------9-11-10-9----9h10p9------|
A|-----------------------------------------------12--------12~~-|
E|--------------------------------------------------------------|
                                                         Guitar division
New guitar:
e|-5-----------------5-------------------5-----------|
B|---8-5---------------8-5-----------------8-5-------|
G|-------7-5---------------8-7-5---------------8-7-5-|
D|-----------7~~~----------------7~~~----------------|
A|---------------------------------------------------|
E|---------------------------------------------------|

e|-----------------10-15p10-----------------------------|
B|-/13p10----10h13----------13p10----10-----17-20p17-17-|
G|--------12----------------------12----/19-------------|
D|------------------------------------------------------|
A|------------------------------------------------------|
E|------------------------------------------------------|

e|-22b24r22\20p17-----------|
B|----------------20b22~~\--|
G|--------------------------|
D|--------------------------|
A|--------------------------|
E|--------------------------|

End Solo

6.LUCRETIA

Tuning: Standard

Riff 1
Guitar 1 (slight palm mutes)      x4
e|-5-----4-----7---5-----4-----7---|
B|---5-----5---------5-----5-------|
G|-----6-----6---6-----6-----6---6-|
D|---------------------------------|
A|---------------------------------|
E|---------------------------------|

Guitar 2      x7
e|-----|-------|------------------|
B|-----|-------|------------------|
G|-----|-------|------------------|
D|-----|-------|--9-11------------|
A|--4--|--2-4--|--7--9-[let ring]-|
E|--2--|--0-2--|------------------|



Riff 2
e|-5-----4------------------------------------------|
B|---5-----5---5------------------------------------|
G|-----6-----6---6-----------6----9-8-----------7~~-|
D|-----------------7-----6h7---/9-----9-------7-----|
A|-------------------6h7----------------9-7h9-------|
E|--------------------------------------------------|

e|---------------|
B|---------------|
G|-------------7-|
D|-------7-8-9---|
A|-7-8-9---------|
E|---------------|

e|-5-----4------------------------------------------|
B|---5-----5---5------------------------------------|
G|-----6-----6---6-----------6----9-8-----------7~~-|
D|-----------------7-----6h7---/9-----9-------7-----|
A|-------------------6h7----------------9-7h9-------|
E|--------------------------------------------------|

e|---------------|
B|---------------|
G|---------------|
D|-------9-8-7---|
A|-7-8-9-------9-|
E|---------------|


Riff 3
e|-------------------------------|
B|-------------------------------|
G|-------------------------2---2-|
D|-----------------4-3-2---2-4-2-|
A|-4-------4-------------4-------|
E|-2-2-2-2-2-2-2-2---------------|
     * * *   * * *           *
  "Sitting down..."
e|---------------------------|
B|---------------------------|
G|---------------------------|
D|-------------------4-------|
A|-4-------4---------2----5--|
E|-2-2-2-2-2-2-2-2-2----0-3--|
     * * *   * * * *    *
  "...tiptoe through the..."
e|---------------------------------|
B|---------------------------------|
G|---------------------------------|
D|-----------------4-3-2---4-3-2---|
A|-4-------4-------------4-------4-|
E|-2-2-2-2-2-2-2-2-----------------|
     * * *   * * *
  "Cold as hell...."
e|------------------------------|
B|------------------------------|
G|------------------------------|
D|------------------------------|
A|-4-------4--2-0-2-3-2-0-2-0-5-|
E|-2-2-2-2-2------------------3-|
     * * *    * * * * * * * *
  "Aware of my immediate surroundings."


Riff 4                     x3
e|--------------------------|
B|--------------------------|
G|--------------------------|
D|--------------------------|
A|-0h4-4-4---0h4-4-4---2--5-|
E|-0h2-2-2---0h2-2-2---0--3-|

e|-------------------------------|
B|-------------------------------|
G|-------------------------------|
D|-----------0---------4-----2~~-|
A|-0h4-4-4---0-4-----1-----1-----|
E|-0h2-2-2-----2---2-----2-------|
                   * *   * *

Play Riff 1
Play Riff 2
Play Riff 3  "Hypnosis guides my hand..."
Play Riff 4

Riff 5 (slight palm muting)
e|------------------------------------|
B|------------------------------------|
G|------------------------------------|
D|-----4-----2------------------------|
A|---1-----1---2-3-4--4---3---2---1---|
E|-2-----2--------------5---4---3---2-|

e|------------------------------------|
B|------------------------------------|
G|------------------------------------|
D|-----6-----4------------------------|
A|---3-----3---4-5-6--6---5---4---3---|
E|-4-----4--------------7---6---5---4-|

e|---------------------------------|
B|---------------------------------|
G|---------------------------------|
D|-----7-----4-----------4---------|
A|---4-----4-----4-7---4-----4-7---|
E|-5-----5-----5-----5-----5-----5-|

e|---------------------------------|
B|---------------------------------|
G|---------------------------------|
D|-----9-----7-----6---------------|
A|---6-----6-----6-----5---4---3---|
E|-7-----7-----7-----7---6---5---4-|



Riff 6 (Solo Rhythm, slighty palm muted)
e|------------------------------|
B|------------------------------|
G|------------------------------|
D|-----4-----2-----4-----2------|
A|---4-----4-----4-----4----4-3-|
E|-2-----2-----2-----2------2-1-|

e|------------------------------|
B|------------------------------|
G|------------------------------|
D|-----2-----0-----2-----0--9-8-|
A|---2-----2-----2-----2----7-6-|
E|-0-----0-----0-----0----------|

e|------------------------------|
B|------------------------------|
G|-----7-----5-----7-----5------|
D|---7-----7-----7-----7----7---|
A|-5-----5-----5-----5------5-7-|
E|----------------------------5-|

e|------------------------------|
B|------------------------------|
G|-----4-----2----------6-------|
D|---4-----4---4------6-----6---|
A|-2-----2-------2/4------4-4-5-|
E|----------------------------3-|


Solo (Friedman)
e|-----------------4-5-9\8-5-4---|
B|---------------7-------------7-|
G|-5/6-7-6~--5h6-----------------|
D|-------------------------------|
A|-------------------------------|
E|-------------------------------|

e|-------------------------------------|
B|-------------------------------------|
G|-6-5---------------------------------|
D|-----7-6-7/9-7-6~--6-6-6h7p6h7p6-----|
A|---------------------------------9-7-|
E|-------------------------------------|

e|----------------------------|
B|----------------------------|
G|------------------14-16-----|
D|--------9-----/16-------16~-|
A|-9~---9---9~----------------|
E|----------------------------|

e|--14------------------------------------------------|
B|-----17-14-------------------------16b19~--(19)\----|
G|-----------16b18r16p14-16b18r16p14----------------5-|
D|----------------------------------------------------|
A|----------------------------------------------------|
E|----------------------------------------------------|

e|--5-2---/9-6-----9--9p5---/14-9--------------|
B|------2------7----------7----------------17--|
G|---------------6----------------14-11--------|
D|--------------------------------------14-----|
A|---------------------------------------------|
E|---------------------------------------------|

e|------------------------8/10p7------------|
B|--12---------------------------9-9p7------|
G|-----13------9------7----------------9-8--|
D|--------14\9---0-10---9-------------------|
A|------------------------------------------|
E|------------------------------------------|

e|---/14----10-------------------10-14/17p14--------------|
B|-------12------12------------12-----------15------------|
G|-7----------11------11-----11---------------14\11-------|
D|-----------------12------12--------------------------12-|
A|-----------------------14-------------------------14----|
E|--------------------------------------------------------|

e|---------------------------------------------13-16b19r16-16-|
B|------------------------------------------14----------------|
G|-11h14p11-----11-16b18r16--16b18~~--13h16-------------------|
D|------------12----------------------------------------------|
A|----------14------------------------------------------------|
E|------------------------------------------------------------|

e|--16b17~~----16b17-16-14-16-16b17r16--16-16~~----19b21-|
B|-------------------------------------------------------|
G|-------------------------------------------------------|
D|-------------------------------------------------------|
A|-------------------------------------------------------|
E|-------------------------------------------------------|

e|-17b19r17--------------------------------------|
B|-----------19-19-19~---17h19-19b22r19p17h19p17-|
G|-----------------------------------------------|
D|-----------------------------------------------|
A|-----------------------------------------------|
E|-----------------------------------------------|

e|----------------------------------------------------------|
B|---17-19-16b17r16p14-16-17-15-16p14----14-----------------|
G|-18---------------------------------17----17-16-14-16b18~-|
D|----------------------------------------------------------|
A|----------------------------------------------------------|
E|----------------------------------------------------------|

e|-------14-------14----------------------|
B|---------17b19-----17-14----------------|
G|-16b18-------------------17-16-14-16p14-|
D|----------------------------------------|
A|----------------------------------------|
E|----------------------------------------|

e|--/19-17-14h17p14----14----------------|
B|------------------17----17-14h17p14----|
G|------------------------------------17-|
D|---------------------------------------|
A|---------------------------------------|
E|---------------------------------------|

e|-------------------------------|
B|-14----------------------------|
G|----17-16-14-16b18-16-14-14h16-|
D|-------------------------------|
A|-------------------------------|
E|-------------------------------|

e|----------------------------------------------14-|
B|----------------------------------------14-17----|
G|-14b16~~*-------------------------14-16----------|
D|-------------16-14----16\15/16-16----------------|
A|-------------------16----------------------------|
E|-------------------------------------------------|

e|-16h19p16--------16--16-----19-----19-16-----------------|
B|---------19-15h19--19-----19-----19-----18-15--------17\-|
G|------------------------19-----19------------16------18\-|
D|-----------------------------------------------18-19-----|
A|---------------------------------------------------------|
E|---------------------------------------------------------|

End Solo

Riff 7 (Solo Rhythm)
e|-------------------------------|
B|-------------------------------|
G|-------------------------2---2-|
D|-----------------4-3-2---2-4-2-|
A|-4-------4-------------4-------|
E|-2-2-2-2-2-2-2-2---------------|
     * * *   * * *           *
e|---------------------------------|
B|---------------------------------|
G|---------------------------------|
D|-----------------4-3-2---4-3-2---|
A|-4-------4-------------4-------4-|
E|-2-2-2-2-2-2-2-2-----------------|
     * * *   * * *
e|-------------------------------|
B|-------------------------------|
G|-------------------------2---2-|
D|-----------------4-3-2---2-4-2-|
A|-4-------4-------------4-------|
E|-2-2-2-2-2-2-2-2---------------|
     * * *   * * *           *

1st, 3rd ending
e|---------------------------|
B|---------------------------|
G|---------------------------|
D|-------------------4-------|
A|-4-------4---------2----5--|
E|-2-2-2-2-2-2-2-2-2----0-3--|
     * * *   * * * *    *

2nd, 4th ending
e|------------------------------|
B|------------------------------|
G|------------------------------|
D|------------------------------|
A|-4-------4--2-0-2-3-2-0-2-0-5-|
E|-2-2-2-2-2------------------3-|
     * * *    * * * * * * * *


Solo (Mustaine)
e|-19b21r19-19b21r19-19b21-----{19}--{19}--{19}--{19}-19b21r19-|
B|-----------------------[19]21---{19}--{19}--{19}-------------|
G|-------------------------------------------------------------|
D|-------------------------------------------------------------|
A|-------------------------------------------------------------|
E|-------------------------------------------------------------|

e|-14-17-17p14-14-14-----14-----14-----------------------------------|
B|------------------17p14--17p14--17p14-14h17p14-14-x----------------|
G|----------------------------------------------------17-16-14-16-14-|
D|-------------------------------------------------------------------|
A|-------------------------------------------------------------------|
E|-------------------------------------------------------------------|

e|--------------------------------------------|
B|----14b15--------------16b17r16b17r16b17r16-|
G|----14b16--------------16b18r16b18r16b18r16-|
D|-16-------16-14-----------------------------|
A|-----------------16-14----------------------|
E|--------------------------------------------|

e|-14h17p14----14-------------------------------|
B|-14h17p14-17-14-17p16p14----------14-17b19~~\-|
G|----------17----17p16p14-16-14-16-------------|
D|-------------------------16-------------------|
A|----------------------------------------------|
E|----------------------------------------------|

e|------------------------------------------|
B|------------------------------------------|
G|--4b6-----4b6-----4b6--4b6--4b6--4b6--4b6-|
D|------------------------------------------|
A|------------------------------------------|
E|------------------------------------------|

e|-------------------------------------------------|
B|-------------------------------------------------|
G|-5p4p2-------------------------------------------|
D|-------4p2-4-4p3p2-----3-4p3p2-3p2---------------|
A|-------------------4p3-------------4-4p3p2-2h3h4-|
E|-------------------------------------------------|

e|-------------------------------------------------|
B|-------------------------------------------------|
G|-----------------------------------2-3-4p3---4~*-|
D|-------------2-----2h3p2---2h3-4-4---------4-----|
A|-------2-3-4---4-3-------4-----------------------|
E|-5p3p2-------------------------------------------|

e|---------------------------------------|
B|---------------------------------------|
G|--0-4-2-0-0-2-4-2-0-4p2p0-4p2p0-4b6r4--|
D|--------------------------------a------|
A|---------------------------------------|
E|---------------------------------------|

e|--------------------------|
B|--------------------------|
G|--------------------------|
D|--------------------------|
A|---[long slow slide]------|
E|-2/3/4/5/6/7/8/9/10/11/12-|

e|-------------------------------------x-17---|
B|-------------------------------19-19-x----0-|
G|-------------------14-16-17-18--------------|
D|----------14-15-16--------------------------|
A|-14-15-16-----------------------------------|
E|--------------------------------------------|

e|--21~~--19-18h19p18------------------------|
B|--------------------20--19-17-19-20-19-17~-|
G|-------------------------------------------|
D|-------------------------------------------|
A|-------------------------------------------|
E|-------------------------------------------|

e|---------------------------------|
B|---------------------------------|
G|-19-18-16-18-16-15-16p15---------|
D|------------------------17-17p14-|
A|---------------------------------|
E|---------------------------------|

e|---------------------------------------|
B|---------------------------------------|
G|---------------------------------------|
D|-16-17-14-16h17p14---------------------|
A|------------------16h17p16p14~~--------|
E|---------------------------------12h15-|

e|-------------------------------------|
B|-------------------------------------|
G|-------------------------------------|
D|-------------------------------14h17-|
A|----------------13h16p13h15h16-------|
E|-12h15p12h14h15----------------------|

e|-------------------------------------|
B|-------------------------------------|
G|-------------------------------15h18-|
D|----------------14h17p14h16h17-------|
A|-13h16p13h15h16----------------------|
E|-------------------------------------|

e|-------------------------------------|
B|-------------------------------17h20-|
G|----------------15h18p15h17h18-------|
D|-14h17p14h16h17----------------------|
A|-------------------------------------|
E|-------------------------------------|

e|-------------------------------19h22-|
B|----------------17h20p17h19h20-------|
G|-15h18p15h17h18----------------------|
D|-------------------------------------|
A|-------------------------------------|
E|-------------------------------------|

e|-24b26--24b26--24b26-[24]26-{24}-{24}-{24}-{24}-{24}~~-------|
B|-------------------------------------------------------------|
G|-------------------------------------------------------------|
D|-------------------------------------------------------------|
A|-------------------------------------------------------------|
E|--------------------------------------------------------X\\--|

End solo


Riff 4a                    x3
e|--------------------------|
B|--------------------------|
G|--------------------------|
D|--------------------------|
A|-0h4-4-4---0h4-4-4---2--5-|
E|-0h2-2-2---0h2-2-2---0--3-|

e|----------------------|
B|----------------------|
G|----------------------|
D|-----------0----------|
A|-0h4-4-4---0-4--------|
E|-0h2-2-2-----2---X\\--|


Riff 7
Guitar 1                             x3
e|------------------------------------|
B|------------------------------------|
G|------------------------------------|
D|------------------------------------|
A|-7--9----------7--9----------7--10~-|
E|-------7--8----------9-10-----------|

Guitar 2                             x3
e|------------------------------------|
B|------------------------------------|
G|------------------------------------|
D|-9--11---------9--11---------9--12~-|
A|-------9-10----------11-12----------|
E|------------------------------------|


Ending:
e|---------------------------|
B|---------------------------|
G|---------------------------|
D|---------------------------|
A|-7-9---9-7---7-9\------5-4-|
E|-----9-----9---------0-3-2-|
   * * * * * * *       *

7.TORNADO OF SOULS

Tuning: Standard

Riff 1
NOTE: Slight palm mute during harmonics)
e|--------------------------|
B|--------------------------|
G|----------------------7---|
D|----------------7---------|
A|-9------------------------|
E|-7--7-7-7-7-7-7---7-7---7-|
      h.h.h.h.h.h.h.h.h.h.h.
e|----------------------------------|
B|----------------------------------|
G|--------------------------7-------|
D|--------------------7-----------7-|
A|-9-9-9----------------------------|
E|-7-7-7--7-7-7-7-7-7---7-7---7-7---|
          h.h.h.h.h.h.h.h.h.h.h.h.h.

Riff 2
e|-----------------------------------|
B|-----------------------------------|
G|---------------------------------7-|
D|-------------------------7---9p7---|
A|-----------7h8p7---7-8h9---9-------|
E|-7--7-9-10------10-----------------|

e|-----------------------------------|
B|-----------------------------------|
G|-----------------------------------|
D|-------------------------7---9p7---|
A|-----------7h8p7---7-8h9---9-----9-|
E|-7--7-9-10------10-----------------|

e|-----------------------------------|
B|-----------------------------------|
G|---------------------------------7-|
D|-------------------------7---9p7---|
A|-----------7h8p7---7-8h9---9-------|
E|-7--7-9-10------10-----------------|

e|--------------------------------|
B|--------------------------------|
G|--------------------------------|
D|-/7----5------------------------|
A|-/5----3----7h8p7-5h7p5-4h5p4-3-|
E|--------------------------------|


Riff 3                          x6
e|-------------------------------|
B|-------------------------------|
G|-------------------------------|
D|-4-----------------------------|
A|-2---2-2-2---------------------|
E|-----------2-2-3-3-0-0-2-2-3-0-|
       * * * * * * * * * * * * *
   "This morning I made the call..."

                                x2
e|-------------------------------|
B|-------------------------------|
G|-------------------------------|
D|-2--------------------2--/5--5-|
A|-0---0-0-0-2---3------0--/3--3-|
E|-----------0-0-1--3-0----------|
       * * *   *    * *
   "Not for the money..."
                                x2
e|-------------------------------|
B|-------------------------------|
G|-------------------------------|
D|-4-----------------------------|
A|-2---2-2-2---------------------|
E|-----------2-2-3-3-0-0-2-2-3-0-|
       * * * * * * * * * * * * *
   "Not for the power..."


Riff 4                                         x3
e|----------------------------------------------|
B|----------------------------------------------|
G|----------------------------------------------|
D|-4---------------------------------------/7-7-|
A|-2----4-5--------------2----1/2--2-1~----/5-5-|
E|----0-2-3--0-2-3-3-2-1-0--0-2/3--3-2~--0------|
      * *    * * * * * *    *            *
   "But now I'm safe...."
e|---------------------------------------------------|
B|---------------------------------------------------|
G|---------------------------------------------------|
D|-4-------------------------------------------------|
A|-2----4-5--------------2----1/2--2-1~--4h5p4-4-0-1-|
E|----0-2-3--0-2-3-3-2-1-0--0-2/3--3-2~--------------|
      * *    * * * * * *    *
   "In the eye of the tornado, blow me away..."


Play Riff 3    "You've grown to loathe my name..."
Play Riff 4    "But now I'm safe..."

Riff 5                           x2
e|--------------------------------|
B|--------------------------------|
G|--------------------------------|
D|-4-x-x----------4-x-x---------7-|
A|-2-x-x-4-5-x----2-x-x-4-5-x-x-5-|
E|-------2-3-x----------2-3-x-x---|
  "Who's to say...."
e|--------------------------------|
B|--------------------------------|
G|--------------------------------|
D|-2-x-x----------2-x-x---------5-|
A|-0-x-x-2-3-x----0-x-x-2-3-x-x-3-|
E|-------0-1-x----------0-1-x-x---|
  "Who's to say, what's for me to do..."
e|----------------------------------|
B|----------------------------------|
G|----------------------------------|
D|-4-x-x----------4-x-x---------7-4-|
A|-2-x-x-4-5-x----2-x-x-4-5-x-x-5-2-|
E|-------2-3-x----------2-3-x-x-----|
  "Cause a big nothing..."


Riff 6
e|-----------------------------------|
B|-----------------------------------|
G|---------------------------------7-|
D|-------------------------7---9p7---|
A|-----------7h8p7---7-8h9---9-------|
E|-7--7-9-10------10-----------------|
  "The land of opportunity..."
e|-----------------------------------|
B|-----------------------------------|
G|-----------------------------------|
D|-------------------------7---9p7---|
A|-----------7h8p7---7-8h9---9-----9-|
E|-7--7-9-10------10-----------------|
  "...the golden chance for me..."


Riff 7
Guitar 1
e|-------------------------------|
B|-------------------------------|
G|-------------------------------|
D|-------------------------------|
A|------5---7-5--------7-----5h7-|
E|-7--7---7-----5-7--7---7-7-----|
      *   *          *   * *

Guitar 2 (Comes in 4th time on last two notes of above)
e|-------------------------------|
B|-------------------------------|
G|-------------------------------|
D|------4---5-4--------5-----4h5-|
A|-5--5---5-----4-5--5---5-5-----|
E|-------------------------------|
      *   *          *   * *

Riff 8  (Solo Rhythm)
e|---------------------------------|
B|---------------------------------|
G|---------------------------------|
D|---------------------------------|
A|-9----------------------9-9-(9)\-|
E|-7--7-7-7-7-7-7-7-7-7-7-7-7-(7)\-|
      * * * * * * * * * *
e|------------------------------|
B|------------------------------|
G|------------------------------|
D|------------------------------|
A|-5----------------------5-5---|
E|-3--3-3-3-3-3-3-3-3-3-3-3-3-3-|
      * * * * * * * * * *     *
e|------------------------------|
B|------------------------------|
G|------------------------------|
D|------------------------------|
A|-2----------------------2-2---|
E|-0--0-0-0-0-0-0-0-0-0-0-0-0-0-|
      * * * * * * * * * *     *
e|---------------------------|
B|---------------------------|
G|---------------------------|
D|---------------------------|
A|-4------------7--------8---|
E|-2--2-2-2-2-2-5--5-5-5-6-6-|
      * * * * *    * * *   *


Solo (Friedman)
e|----------------------------------------|
B|----------------------------------------|
G|-3b5^r3b4~~--------4------6--7--(7)/9~~-|
D|-----------------x------x---------------|
A|---------------x------x-----------------|
E|----------------------------------------|

e|-------------------------------|
B|-------------------------------|
G|-9/11-11-9~----9-7-8b10^r8b9~~-|
D|-------------------------------|
A|-------------------------------|
E|-------------------------------|

e|-----------------------------|
B|-----10-7--------------------|
G|-7-9------9-7-6-7----6h7-6~~-|
D|------------------9----------|
A|-----------------------------|
E|-----------------------------|

e|----------------------------|
B|----------------------------|
G|-6b7-6-6h7-6----------------|
D|-------------9-7---7-9------|
A|-----------------9-----9~~--|
E|----------------------------|

e|--------------------------------------|
B|-----------------12-14-12-14-14-12-14-|
G|--------------11----------------------|
D|------9h11h12-------------------------|
A|-9h10---------------------------------|
E|--------------------------------------|

e|--------------------------------------------------------|
B|-13b15--[14]15r14-12-[13]14r13b14-(14)r13--12-12-14-----|
G|----------------------------------------------------12~-|
D|--------------------------------------------------------|
A|--------------------------------------------------------|
E|--------------------------------------------------------|

e|-------14-14/15\14-10-14p10h14-10----10----|
B|----------------------------------14----14-|
G|-12-12-------------------------------------|
D|-------------------------------------------|
A|-------------------------------------------|
E|-------------------------------------------|

e|---------------------------------|
B|-12------------------------------|
G|----11\9-11-9\7-9b11--7-6~~-/15\-|
D|---------------------------------|
A|---------------------------------|
E|---------------------------------|

e|-/14-10h14p10------------10-/19p14------------14-|
B|-------------14-12--12-14---------15-14--14h15---|
G|------------------11-------------------16--------|
D|-------------------------------------------------|
A|-------------------------------------------------|
E|-------------------------------------------------|

e|-19-15h19p15----------15-19-19b22r19-19p18-19~~-|
B|------------17------17--------------------------|
G|--------------16--16----------------------------|
D|----------------17------------------------------|
A|------------------------------------------------|
E|------------------------------------------------|

e|-0-19-16h19p16----------------12-16p12-----------------|
B|--------------17---------------------------------------|
G|----------------16\13---13h16----------16-13--13\9-9~~-|
D|----------------------14--------------------15---------|
A|-------------------------------------------------------|
E|-------------------------------------------------------|

e|--------------------------------------------|
B|--------------------------------------------|
G|-11-11-11/12-12-12/15-15-15\7-7-7/9-9-9\6~~-|
D|--------------------------------------------|
A|--------------------------------------------|
E|--------------------------------------------|

e|-----------------------------------------------------|
B|-----------------------------------------------------|
G|-7~----------------7-9-8b10---(10)r8-7~-------7------|
D|-------9-------7h9-------------------------/9---9-9~-|
A|---------9~------------------------------------------|
E|-----------------------------------------------------|

e|------------------------------------|
B|------------------------------------|
G|-7---9-7----------------------------|
D|---9-----9-7--9b12r9--7-------------|
A|-------------------------9\7~----\5-|
E|------------------------------------|

e|------------------------------------|
B|--------------8h11/14p11------------|
G|------------9------------12---------|
D|----8h11-11----------------14-12----|
A|-/9------------------------------14-|
E|------------------------------------|

e|-------------------------------------|
B|----------10h14/19\14p10----10h14p10-|
G|-------------------------12----------|
D|----11h14----------------------------|
A|-12----------------------------------|
E|-------------------------------------|

e|-/14p10--10--14p10-14p10--10--14p10-14p10--10-|
B|-------12---------------12---------------12---|
G|----------------------------------------------|
D|----------------------------------------------|
A|----------------------------------------------|
E|----------------------------------------------|

e|-15p10--10-14p10--10-15p10--10-14p10--10-|
B|------12--------12--------12--------12---|
G|-----------------------------------------|
D|-----------------------------------------|
A|-----------------------------------------|
E|-----------------------------------------|

e|-15p10--10--15p10-15p10--10--15p10-15p10--10-|
B|------12---------------12---------------12---|
G|---------------------------------------------|
D|---------------------------------------------|
A|---------------------------------------------|
E|---------------------------------------------|

e|-17p10--10-15p10--10-17p10--10-15p10--10-|
B|------12--------12--------12--------12---|
G|-----------------------------------------|
D|-----------------------------------------|
A|-----------------------------------------|
E|-----------------------------------------|

e|-16p10--10--16p10-16p10--10--16p10-16p10--10-|
B|------12---------------12---------------12---|
G|---------------------------------------------|
D|---------------------------------------------|
A|---------------------------------------------|
E|---------------------------------------------|

e|-17p10--10-16p10--10-17p0--10-16p10----14-|
B|------12--------12-------12--------12/----|
G|------------------------------------------|
D|------------------------------------------|
A|------------------------------------------|
E|------------------------------------------|

e|-18p14--14--18p14-18p14--14--18p14-18p14--14-|
B|------14---------------14---------------14---|
G|---------------------------------------------|
D|---------------------------------------------|
A|---------------------------------------------|
E|---------------------------------------------|

e|-17p12--12-17p12-17p12--12-17p12-12-12-|
B|------14--------------14---------------|
G|---------------------------------------|
D|---------------------------------------|
A|---------------------------------------|
E|---------------------------------------|

e|-17b19~~----(19)r17\--2/13-10-|
B|------------------------------|
G|------------------------------|
D|------------------------------|
A|------------------------------|
E|------------------------------|

e|-14-10----------10h14-10-/17-14/17-21-17-|
B|-------14p12-----------------------------|
G|-------------12--------------------------|
D|-----------------------------------------|
A|-----------------------------------------|
E|-----------------------------------------|

e|----------19-24p19----19-------------22-------------|
B|-19----19----------22----22-22p19h22----22p19\18h20-|
G|----19----------------------------------------------|
D|----------------------------------------------------|
A|----------------------------------------------------|
E|----------------------------------------------------|

e|-19----------17----------15----------14------------------------|
B|----18\15h17----15\14h15----14\12h14----12\10-12p10-12p10\8h10-|
G|---------------------------------------------------------------|
D|---------------------------------------------------------------|
A|---------------------------------------------------------------|
E|---------------------------------------------------------------|

e|--------------------------------------|
B|-10p8\7-8p7-10p7h8p7------------------|
G|---------------------9p7-10p9p7-9p7~~-|
D|--------------------------------------|
A|--------------------------------------|
E|--------------------------------------|

e|--------7----------------|
B|----------10p7-10b12~~\--|
G|-9b10^-------------------|
D|-------------------------|
A|-------------------------|
E|-------------------------|

e|-------------------------------------|
B|-------4-5p4---------------8p7-------|
G|-4h5h7-------7/10-7h8h10p7-----10/12-|
D|-------------------------------------|
A|-------------------------------------|
E|-------------------------------------|

e|---------------------------------------------|
B|----------12p11----11-12p11----11-12-11-12~~-|
G|-11h12h14-------14----------14---------------|
D|---------------------------------------------|
A|---------------------------------------------|
E|---------------------------------------------|

End Solo


Riff 9
e|--------------------------------|
B|--------------------------------|
G|------4-----------4-----2---2h4-|
D|------4-----4-----4-----2---2h4-|
A|-2--2---2-2-4-2-2---2-2---2-----|
E|--------------------------------|
      *   * *   * *   * *   *
e|--------------------------------|
B|--------------------------------|
G|------4-----------4-----2---2h4-|
D|------4-----4-----4-----2---2h4-|
A|------------4-------------------|
E|-3--3---3-3---3-3---3-3---3-----|
      *   * *   * *   * *   *
e|--------------------------------|
B|--------------------------------|
G|------4-----------4-----2---2h4-|
D|------4-----4-----4-----2---2h4-|
A|------------4-------------------|
E|-0--0---0-0---0-0---0-0---0-----|
      *   * *   * *   * *   *
e|------------------------------|
B|------------------------------|
G|------4--------------4--------|
D|------4-----4--------4--------|
A|------------4---0--0---0-0-1--|
E|-2--2---2-2---2---------------|
      *   * *   *    *   * *


Riff 10
Guitar 1
e|-------------------------------|
B|-------------------------------|
G|-------------------------------|
D|-----------0-----------------0-|
A|-2-----0-2---2-0-2~------0-2---|
E|---0-2---------------0-2-------|
     * * * *           * * * *

Guitar 2
e|-------------------------------|
B|-------------------------------|
G|-------------------------------|
D|-----------7-----------------7-|
A|-2-----7-9---9-7-9~------7-9---|
E|---7-9---------------7-9-------|
     * * * *           * * * *
                                x3
e|-------------------------------|
B|-------------------------------|
G|-------------------------------|
D|-----------7-----------------7-|
A|-9-----7-9---9-7-9~------7-9---|
E|---7-9---------------7-9-------|
     * * * *           * * * *



Riff 11
e|-------------------------------|
B|-------------------------------|
G|-------------------------------|
D|-----------0-----------------0-|
A|-2-----0-2---2-0-2~------0-2---|
E|---0-2---------------0-2-------|
     * * * *           * * * *
  "I warn you of the fate..."


Riff 12
e|--------------------------------|
B|--------------------------------|
G|--------------------------------|
D|------------0-----------------0-|
A|-3------0-3---3-0-3~------0-3---|
E|----0-3---------------0-3-------|
      * * * *           * * * *
  "You feel my fingertips..."
e|--------------------------------|
B|--------------------------------|
G|--------------------------------|
D|------------0-----------------0-|
A|-2------0-2---2-0-2~------0-2---|
E|----0-2---------------0-2-------|
      * * * *           * * * *
  "You won't forget my lips..."
e|--------------------------------|
B|--------------------------------|
G|--------------------------------|
D|------------0-----------------0-|
A|-3------0-3---3-0-3~------0-3---|
E|----0-3---------------0-3-------|
      * * * *           * * * *
  "You feel my cold breath..."
e|--------------------------------|
B|--------------------------------|
G|--------------------------------|
D|------------0-----------------0-|
A|-2------0-2---2-0-2~------0-2---|
E|----0-2---------------0-2-------|
      * * * *           * * * *
  "It's the kiss of death..."


Riff 13
e|--------------------------------------|
B|--------------------------------------|
G|--------------------------------------|
D|-4--x-x----------2---------------2--x-|
A|-2--x-x-4-5--x-x-0-2--x-x-4-5--x-0--x-|
E|--------2-3--x-x---0--x-x-2-3--x------|

e|-------------------------------------------------|
B|-------------------------------------------------|
G|-------------------------------------------------|
D|-4--x-x----------2--/7--5----------------------4-|
A|-2--x-x-4-5--x-x-0--/5--3--7h8p7-5h7p5-4h5p4-3-2-|
E|--------2-3--x-x---------------------------------|

8.DAWN PATROL

G |-------|-----------------------------|------------------------------|
D |-------|.----------------------------|--------------8/9-----7/8-----|
A |-------|.5h7----7--7-7-5h8----8--8-8-|5h7----7--7-7-----9\8-----8\7-|
E |12\----|-----0-------------0---------|----0-------------------------|


                                1.=========================|
G |----------------------------|--------------------2--0---|
D |----------------------------|--------------------------.|
A |5h7----7--7-7-5h8----8--8-8-|5h7----7--7\-1-0----------.|
E |----0-------------0---------|----0------------3---------|


   2.========================
G |-------------------------|
D |-------------------------|
A |5h7----7--7\-3-2-0-------|
E |----0---------------0----|

9.RUST IN PEACE...POLARIS

Standard Tuning 

Intro
-----------------------------------------------------------------
-----------------------------------------------------------------
-----------------------------------------------------------------
-----4-------4---5----04-5----04-----4-------4---5---5---5---5---
------433-----43-3--4--2-3--4--2------433-----43-3---3---3---3---
-2-2-----2-2--------2-------2----2-2-----2-2---------------------

Verse
-----------------------------------------------------------------
-----------------------------------------------------------------
-----------------------------------------------------------------
-5-----------------------------------2-----4---------------------
-3-----------2h3p2-------------------0-----2---------------------
-------------------5-2-0-5---2-----2-----------------------------

-----------------------------------------------------------------
-----------------------------------------------------------------
-----------------------------------------------------------------
-5---------------------------------------2-----4-----------------
-3-----------2h3p2-----------4-----x-x-x-0-----2-----------------
-------------------5-2-0-5---2-----x-x-x-------------------------

Pre-Chorus
-----------------------------------------------------------------
-----------------------------------------------------------------
-----------------------------------------------------------------
-----------------------------------------------------------------
-4-----x-x-x-4-----x-x-x-4-----x-x-x-4---2---4-------------------
-2-----x-x-x-2-----x-x-x-2-----x-x-x-2---0---2-------------------

-----------------------------------------------------------------
-----------------------------------------------------------------
-----------------------------------------------------------------
-----------------------------------------------------------------
-5-----x-x-x-5-----x-x-x-5-----x-x-x-7---7---x-x-----------------
-3-----x-x-x-3-----x-x-x-3-----x-x-x-5---5---x-x-----------------

Chorus
-----------------------------------------------------------------
-----------------------------------------------------------------
-----------------------------------------------------------------
-4p2---2-----------4p2---2-----------5-------3-------------------
-----4---4-0-3-2-0-----4---4-0-3-2-0-3---5---1-------------------
-----------------------------------------3-----------------------

Outro
-----------------------------------------------------------------
-----------------------------------------------------------------
-----------------------------------------------------------------
-------------------------------------------------------------5---
-4---4-----4-5---4-----4-----4-5-4---4-----4-5---4-----4-----3---
-2---2---0-2-3---0---0-2---0-2-3-2---2---0-2-3---2---0-2---0-----

Outro Interlude
-----------------------------------------------------------------
-----------------------------------------------------------------
-----------------------------------------------------------------
-----------------------------------------------------------------
-2h3p2p0-2p0-----------------------------------------------------
-------------3p2-2-2-2-5-2-0-2-----------------------------------

-----------------------------------------------------------------
-----------------------------------------------------------------
-----------------------------------------------------------------
-----------------------------------------------------------------
-----------------------------------------------------------------
-----------------------------------------------------------------
comments
print report bad tab
8 comments total. Showing first comments.
0 reply
grave wrote on January 22 2005, 12:00 am

man, you didnt inlude the polaris part

0 reply
grave wrote on January 22 2005, 12:00 am

*include

+1 reply
Total Pigeon wrote on August 9 2005, 12:00 am

Hangar 18 has a bunch of numbers across two of the strings, throws the whole thing out, shame

I want to post or [tab]
guest
You may want to rate the tab now too:
select rating
Please do not post tabs as comments. Select "correction" instead!