Oops, an error
Loading. Please wait.

Rust In Peace Polaris Bass Tab

ver1
ver1

Whole song

More versions @911Tabs.com
8,212 views 45 this week
2 commentsread comments
1 2 3 4 5
accurate
x 3
Autoscroll
+/-
esc
set tempo
stop
Contributor
Difficulty
intermediate
WARNING: You are trying to view
                                    content from Ultimate-Guitar.com
                                    in an unauthorized application,
                                    which is prohibited.

                                    Please use an official Ultimate
                                    Guitar Tabs application for iPhone,
                                    iPad or Android to access legitimate
                                    chords, guitar, bass, and drum tabs
                                    from Ultimate-Guitar.com database.

                                    Type "ultimate guitar tabs" in Apple
                                    App Store's or Android Market's
                                    search to find the application.
                           Rust In Peace... Polaris                             


                                                                        MegadetH
Bass



G||-------|-------|-------|-------|-------|-------|-------|-------|
D||-------|-------|-------|-------|-------|-------|-------|-------|
A||-------|-------|-------|-------|-------|-------|-------|-------|
E||-------|-------|-------|-------|-------|-------|-------|-------|
B||-------|-------|-------|-------|-------|-------|-------|-------|


  E  E  Q    E  E  Q       E  S S S S E  E  S S S S E   
------------------------|------------------------------|
------------------------|------------------------------|
------------------------|--3--L-----0-2--3--L-----0-2--|
--2--2-------2--2-------|-------2-------------2--------|
------------------------|------------------------------|


  E  E  Q    E  E  Q       E  E  E  E  E  E  Q       E  E  Q    E  E  Q     
------------------------|-------------------------|------------------------|
------------------------|-------------------------|------------------------|
------------------------|--3-----3-----3-----3----|------------------------|
--2--2-------2--2-------|-------------------------|--2--2-------2--2-------|
------------------------|-------------------------|------------------------|


  E  S S S S E  E  S S S S E     E  E  Q    E  E  Q     
------------------------------|------------------------|
------------------------------|------------------------|
--3--L-----0-2--3--L-----0-2--|------------------------|
-------2-------------2--------|--2--2-------2--2-------|
------------------------------|------------------------|


  E  E  E  E  E  E  E  E     E  E  Q    E  E  Q     
--------------------------|------------------------|
--------------------------|------------------------|
--3-----3--------3--3-----|------------------------|
--------------------------|--2--2-------2--2-------|
--------------------------|------------------------|


  E  S S S S E  E  S S S S E     E  E  Q    E  E  Q     
------------------------------|------------------------|
------------------------------|------------------------|
--3--L-----0-2--3--L-----0-2--|------------------------|
-------2-------------2--------|--2--2-------2--2-------|
------------------------------|------------------------|


  E  E  E  E  E  E  Q       E  E  Q    E  E  Q     
-------------------------|------------------------|
-------------------------|------------------------|
--3-----3-----3-----3----|------------------------|
-------------------------|--2--2-------2--2-------|
-------------------------|------------------------|


  E  S S S S E  E  S S S S E     E  E  Q    E  E  Q     
------------------------------|------------------------|
------------------------------|------------------------|
--3--L-----0-2--3--L-----0-2--|------------------------|
-------2-------------2--------|--2--2-------2--2-------|
------------------------------|------------------------|


  |--3--|  |--3--|  |--3--|  |-3|                       |--3--|      
  E  E  E  E  E  E  E  E  E  E  Q       Q    E  S S S S E  E  E  E   
-------------------------------------|--------------4---------------|
-------------------------------------|------------------3--------2--|
--3-----3-----3-----3-----3-----3----|--2----L--L-2-----------------|
-------------------------------------|------------------------------|
-------------------------------------|------------------------------|


         |--3-|  |--3--|  |--3--|          |--3--|  |--3--|  |--3--|   
  E  S S Q    E  E  E  E  E  E  E     Q    E  E  E  E  E  E  E  E  E   
-----------------------------------|----------------------------------|
--L--L---4----0--2--0--------------|----------------------------------|
-------2---------------3--2--------|-------------0--3--2--------------|
-----------------------------3--2--|--1----L--L-----------5--3--2--1--|
-----------------------------------|----------------------------------|


        |--3--|  |--3--|  |--3--|              |---3---|  |--3--|   
  E  E  E  E  E  E  E  E  E  E  E     H        E   E   E  E  E  E   
-----------------------------------|-------------------------------|
-----------------------------------|-------------------------------|
-----------------0--------2--------|--3--------2h--3p--2-----------|
--2-----------2--------------------|----------------------5--2--0--|
-----------------------------------|-------------------------------|


        |--3--|  |--3--|  |--3--|              |---3---|  |--3--|   
  E  E  E  E  E  E  E  E  E  E  E     H        E   E   E  E  E  E   
-----------------------------------|-------------------------------|
-----------------------------------|-------------------------------|
-----------------0--------2--------|--3--------2h--3p--2-----------|
--5--2--------2--------------------|----------------------5--2--0--|
-----------------------------------|-------------------------------|


       |--3--|  |--3--|  |--3--|              |---3---|  |--3--|   
  Q    E  E  E  E  E  E  E  E  E     H        E   E   E  E  E  E   
----------------------------------|-------------------------------|
----------------------------------|-------------------------------|
----------------0--------2--------|--3--------2h--3p--2-----------|
--2----x--x--x--------------------|----------------------5--2--0--|
----------------------------------|-------------------------------|


        |--3--|  |--3--|  |--3--|          |---3---|  |--3--|  |--3--|   
  E  E  E  E  E  E  E  E  E  E  E     Q    E   E   E  E  E  E  E  E  E   
-----------------------------------|------------------------------------|
-----------------------------------|------------------------------------|
-----------------0--------2--------|--3----2h--3p--2--------------------|
--5--2--------2--------------------|------------------5--2--0--5--2--0--|
-----------------------------------|------------------------------------|


       |--3--|  |--3--|  |--3--|              |---3---|  |--3--|   
  Q    E  E  E  E  E  E  E  E  E     H        E   E   E  E  E  E   
----------------------------------|-------------------------------|
----------------------------------|-------------------------------|
----------------0--------2--------|--3--------2h--3p--2-----------|
--2----x--x--x--------------------|----------------------5--2--0--|
----------------------------------|-------------------------------|


        |--3--|  |--3--|  |--3--|              |---3---|  |--3--|   
  E  E  E  E  E  E  E  E  E  E  E     H        E   E   E  E  E  E   
-----------------------------------|-------------------------------|
-----------------------------------|-------------------------------|
-----------------0--------2--------|--3--------2h--3p--2-----------|
--5--2--------2--------------------|----------------------5--2--0--|
-----------------------------------|-------------------------------|


       |--3--|  |--3--|  |--3--|              |---3---|  |--3--|   
  Q    E  E  E  E  E  E  E  E  E     H        E   E   E  E  E  E   
----------------------------------|-------------------------------|
----------------------------------|-------------------------------|
----------------0--------2--------|--3--------2h--3p--2-----------|
--2----x--x--x--------------------|----------------------5--2--0--|
----------------------------------|-------------------------------|


        |--3--|  |--3--|  |--3--|          |---3---|  |--3--|  |--3--|   
  E  E  E  E  E  E  E  E  E  E  E     Q    E   E   E  E  E  E  E  E  E   
-----------------------------------|------------------------------------|
-----------------------------------|------------------------------------|
-----------------0--------2--------|--3----2h--3p--2--------------------|
--5--2--------2--------------------|------------------5--2--0--5--2--0--|
-----------------------------------|------------------------------------|


       |--3--|  |--3--|  |--3--|          |--3--|             
  Q    E  E  E  E  E  E  E  E  E     Q    E  E  E  Q    Q     
----------------------------------|--------------------------|
----------------------------------|----------------2----2----|
----------------0--------2--------|--3----3--3--3------------|
--2----x--x--x--------------------|--------------------------|
----------------------------------|--------------------------|


        |---3--|  |--3--|  |--3--|          |--3--|             
  E  E  E   E  E  E  E  E  E  E  E     Q    E  E  E  Q    Q     
------------------------------------|--------------------------|
--1---------------------------------|----------------2----2----|
-----2--L\--L-----0--------2--------|--3----3--3--3------------|
---------------2--------------------|--------------------------|
------------------------------------|--------------------------|


        |---3--|  |--3--|  |--3--|          |--3--|             
  E  E  E   E  E  E  E  E  E  E  E     Q    E  E  E  Q    Q     
------------------------------------|--------------------------|
--1---------------------------------|----------------2----2----|
-----2--L\--L-----0--------2--------|--3----3--3--3------------|
---------------2--------------------|--------------------------|
------------------------------------|--------------------------|


        |---3--|  |--3--|  |--3--|          |--3--|             
  E  E  E   E  E  E  E  E  E  E  E     Q    E  E  E  Q    Q     
------------------------------------|--------------------------|
--1---------------------------------|----------------5----5----|
-----2--L\--L-----0--------2--------|--3----3--3--3------------|
---------------2--------------------|--------------------------|
------------------------------------|--------------------------|


        |---3--|                    |--3--|       |--3--|   
  E  E  E   E  E  Q    Q       Q    E  E  E  Q    E  E  E   
----------------------------|------------------------------|
--4-------------------------|------------------------------|
-----6--L\--L---------------|------------------------------|
---------------2--5---------|--2----0--0--0--2----0--0--0--|
-----------------------5----|------------------------------|


       |--3--|  |----3----|            |--3--|       |--3--|   
  Q    E  E  E  Q    Q    Q       Q    E  E  E  Q    E  E  E   
-------------------------------|------------------------------|
-------------------------------|------------------------------|
-------------------------------|------------------------------|
--2----0--0--0--2----0----2----|--3----3--3--3--3----3--3--3--|
-------------------------------|------------------------------|


       |--3--|  |------3-----|          |--3--|       |--3--|   
  Q    E  E  E  Q    Q    E  E     Q    E  E  E  Q    E  E  E   
--------------------------------|------------------------------|
--------------------------------|------------------------------|
--------------------------------|------------------------------|
--3----3--3--3--5----5----0--0--|--2----0--0--0--2----0--0--0--|
--------------------------------|------------------------------|


       |--3--|  |----3----|            |--3--|       |--3--|   
  Q    E  E  E  Q    Q    Q       Q    E  E  E  Q    E  E  E   
-------------------------------|------------------------------|
-------------------------------|------------------------------|
-------------------------------|------------------------------|
--2----0--0--0--2----0----2----|--3----3--3--3--3----3--3--3--|
-------------------------------|------------------------------|


       |--3--|  |------3-----|          |--3--|       |--3--|   
  Q    E  E  E  Q    Q    E  E     Q    E  E  E  Q    E  E  E   
--------------------------------|------------------------------|
--------------------------------|------------------------------|
--------------------------------|------------------------------|
--3----3--3--3--5----5----0--0--|--2----0--0--0--2----0--0--0--|
--------------------------------|------------------------------|


       |--3--|  |----3----|            |--3--|       |--3--|   
  Q    E  E  E  Q    Q    Q       Q    E  E  E  Q    E  E  E   
-------------------------------|------------------------------|
-------------------------------|------------------------------|
-------------------------------|------------------------------|
--2----0--0--0--2----0----2----|--3----3--3--3--3----3--3--3--|
-------------------------------|------------------------------|


       |--3--|  |------3-----|          |--3--|       |--3--|   
  Q    E  E  E  Q    Q    E  E     Q    E  E  E  Q    E  E  E   
--------------------------------|------------------------------|
--------------------------------|------------------------------|
--------------------------------|------------------------------|
--3----3--3--3--5----5----0--0--|--2----0--0--0--2----0--0--0--|
--------------------------------|------------------------------|


       |--3--|  |----3----|            |--3--|       |--3--|   
  Q    E  E  E  Q    Q    Q       Q    E  E  E  Q    E  E  E   
-------------------------------|------------------------------|
-------------------------------|------------------------------|
-------------------------------|------------------------------|
--2----0--0--0--2----0----2----|--3----3--3--3--3----3--3--3--|
-------------------------------|------------------------------|


                         |--3--|  |--3--|  |--3--|  |--3--|   
  Q    Q    Q    Q       E  E  E  E  E  E  E  E  E  E  E  E   
----------------------|--------------------------------------|
-----------------2----|--------------------------------------|
--5----L----4---------|--------------------------------------|
----------------------|--2--2--2--2--2--2--2--2--2--2--2--2--|
----------------------|--------------------------------------|


  |--3--|  |--3--|  |----3----|       |--3--|  |--3--|  |--3--|  |--3--|   
  E  E  E  E  E  E  Q    Q    Q       E  E  E  E  E  E  E  E  E  E  E  E   
-----------------------------------|--------------------------------------|
-----------------------------------|--------------------------------------|
--------------------3---------1----|--------------------------------------|
--2--2--2--2--2--2-------3---------|--2--2--2--2--2--2--2--2--2--2--2--2--|
-----------------------------------|--------------------------------------|


  |--3--|  |--3--|  |----3----|       |--3--|  |--3--|  |--3--|  |--3--|   
  E  E  E  E  E  E  Q    Q    Q       E  E  E  E  E  E  E  E  E  E  E  E   
-----------------------------------|--------------------------------------|
-----------------------------------|--------------------------------------|
--------------------3---------1----|--------------------------------------|
--2--2--2--2--2--2-------3---------|--2--2--2--2--2--2--2--2--2--2--2--2--|
-----------------------------------|--------------------------------------|


  |--3--|  |--3--|  |----3----|       |--3--|  |--3--|  |--3--|  |--3--|   
  E  E  E  E  E  E  Q    Q    Q       E  E  E  E  E  E  E  E  E  E  E  E   
-----------------------------------|--------------------------------------|
-----------------------------------|--------------------------------------|
--------------------3---------1----|--------------------------------------|
--2--2--2--2--2--2-------3---------|--2--2--2--2--2--2--2--2--2--2--2--2--|
-----------------------------------|--------------------------------------|


  |--3--|  |--3--|  |----3----|       |----3----|     
  E  E  E  E  E  E  Q    Q    Q       Q    Q    Q     
-----------------------------------|-----------------|
-----------------------------------|-----------------|
--------------------3---------1----|--2--------------|
--2--2--2--2--2--2-------3---------|-------2----0----|
-----------------------------------|-----------------|


  |--3-|  |--3--|  |--3--|  |--3--|              |---3---|  |--3--|   
  Q    E  E  E  E  E  E  E  E  E  E     H        E   E   E  E  E  E   
-------------------------------------|-------------------------------|
-------------------------------------|-------------------------------|
-------------------0--------2--------|--3--------2h--3p--2-----------|
--2-------------2--------------------|----------------------5--2--0--|
-------------------------------------|-------------------------------|


        |--3--|  |--3--|  |--3--|              |---3---|  |--3--|   
  E  E  E  E  E  E  E  E  E  E  E     H        E   E   E  E  E  E   
-----------------------------------|-------------------------------|
-----------------------------------|-------------------------------|
-----------------0--------2--------|--3--------2h--3p--2-----------|
--5--2--------2--------------------|----------------------5--2--0--|
-----------------------------------|-------------------------------|


       |--3--|  |--3--|  |--3--|              |---3---|  |--3--|   
  Q    E  E  E  E  E  E  E  E  E     H        E   E   E  E  E  E   
----------------------------------|-------------------------------|
----------------------------------|-------------------------------|
----------------0--------2--------|--3--------2h--3p--2-----------|
--2----x--x--x--------------------|----------------------5--2--0--|
----------------------------------|-------------------------------|


        |--3--|  |--3--|  |--3--|          |---3---|  |--3--|  |--3--|   
  E  E  E  E  E  E  E  E  E  E  E     Q    E   E   E  E  E  E  E  E  E   
-----------------------------------|------------------------------------|
-----------------------------------|------------------------------------|
-----------------0--------2--------|--3----2h--3p--2--------------------|
--5--2--------2--------------------|------------------5--2--0--5--2--0--|
-----------------------------------|------------------------------------|


       |--3--|  |--3--|  |--3--|          |--3--|             
  Q    E  E  E  E  E  E  E  E  E     Q    E  E  E  Q    Q     
----------------------------------|--------------------------|
----------------------------------|----------------2----2----|
----------------0--------2--------|--3----3--3--3------------|
--2----x--x--x--------------------|--------------------------|
----------------------------------|--------------------------|


        |---3--|  |--3--|  |--3--|          |--3--|             
  E  E  E   E  E  E  E  E  E  E  E     Q    E  E  E  Q    Q     
------------------------------------|--------------------------|
--1---------------------------------|----------------2----2----|
-----2--L\--L-----0--------2--------|--3----3--3--3------------|
---------------2--------------------|--------------------------|
------------------------------------|--------------------------|


        |---3--|  |--3--|  |--3--|          |--3--|             
  E  E  E   E  E  E  E  E  E  E  E     Q    E  E  E  Q    Q     
------------------------------------|--------------------------|
--1---------------------------------|----------------2----2----|
-----2--L\--L-----0--------2--------|--3----3--3--3------------|
---------------2--------------------|--------------------------|
------------------------------------|--------------------------|


        |---3--|  |--3--|  |--3--|          |--3--|             
  E  E  E   E  E  E  E  E  E  E  E     Q    E  E  E  Q    Q     
------------------------------------|--------------------------|
--1---------------------------------|----------------5----5----|
-----2--L\--L-----0--------2--------|--3----3--3--3------------|
---------------2--------------------|--------------------------|
------------------------------------|--------------------------|


        |---3--|                    |--3--|       |--3--|   
  E  E  E   E  E  Q    Q       Q    E  E  E  Q    E  E  E   
----------------------------|------------------------------|
--4-------------------------|------------------------------|
-----6--L\--L---------------|------------------------------|
---------------2--5---------|--2----0--0--0--2----0--0--0--|
-----------------------5----|------------------------------|


       |--3--|  |----3----|            |--3--|       |--3--|   
  Q    E  E  E  Q    Q    Q       Q    E  E  E  Q    E  E  E   
-------------------------------|------------------------------|
-------------------------------|------------------------------|
-------------------------------|------------------------------|
--2----0--0--0--2----0----2----|--3----3--3--3--3----3--3--3--|
-------------------------------|------------------------------|


       |--3--|  |------3-----|          |--3--|       |--3--|   
  Q    E  E  E  Q    Q    E  E     Q    E  E  E  Q    E  E  E   
--------------------------------|------------------------------|
--------------------------------|------------------------------|
--------------------------------|------------------------------|
--3----3--3--3--5----5----0--0--|--2----0--0--0--2----0--0--0--|
--------------------------------|------------------------------|


       |--3--|  |----3----|            |--3--|       |--3--|   
  Q    E  E  E  Q    Q    Q       Q    E  E  E  Q    E  E  E   
-------------------------------|------------------------------|
-------------------------------|------------------------------|
-------------------------------|------------------------------|
--2----0--0--0--2----0----2----|--3----3--3--3--3----3--3--3--|
-------------------------------|------------------------------|


       |--3--|  |------3-----|          |--3--|       |--3--|   
  Q    E  E  E  Q    Q    E  E     Q    E  E  E  Q    E  E  E   
--------------------------------|------------------------------|
--------------------------------|------------------------------|
--------------------------------|------------------------------|
--3----3--3--3--5----5----0--0--|--2----0--0--0--2----0--0--0--|
--------------------------------|------------------------------|


       |--3--|  |----3----|            |--3--|       |--3--|   
  Q    E  E  E  Q    Q    Q       Q    E  E  E  Q    E  E  E   
-------------------------------|------------------------------|
-------------------------------|------------------------------|
-------------------------------|------------------------------|
--2----0--0--0--2----0----2----|--3----3--3--3--3----3--3--3--|
-------------------------------|------------------------------|


       |--3--|  |------3-----|          |--3--|       |--3--|   
  Q    E  E  E  Q    Q    E  E     Q    E  E  E  Q    E  E  E   
--------------------------------|------------------------------|
--------------------------------|------------------------------|
--------------------------------|------------------------------|
--3----3--3--3--5----5----0--0--|--2----0--0--0--2----0--0--0--|
--------------------------------|------------------------------|


       |--3--|  |----3----|            |--3--|       |--3--|   
  Q    E  E  E  Q    Q    Q       Q    E  E  E  Q    E  E  E   
-------------------------------|------------------------------|
-------------------------------|------------------------------|
-------------------------------|------------------------------|
--2----0--0--0--2----0----2----|--3----3--3--3--3----3--3--3--|
-------------------------------|------------------------------|


                         |--3--|  |--3--|  |--3--|  |--3--|   
  Q    Q    Q    Q       E  E  E  E  E  E  E  E  E  E  E  E   
----------------------|--------------------------------------|
-----------------2----|--------------------------------------|
--5----L----4---------|--------------------------------------|
----------------------|--2--2--2--2--2--2--2--2--2--2--2--2--|
----------------------|--------------------------------------|


  |--3--|  |--3--|  |----3----|       |--3--|  |--3--|  |--3--|  |--3--|   
  E  E  E  E  E  E  Q    Q    Q       E  E  E  E  E  E  E  E  E  E  E  E   
-----------------------------------|--------------------------------------|
-----------------------------------|--------------------------------------|
--------------------3---------1----|--------------------------------------|
--2--2--2--2--2--2-------3---------|--2--2--2--2--2--2--2--2--2--2--2--2--|
-----------------------------------|--------------------------------------|


  |--3--|  |--3--|  |----3----|       |--3--|  |--3--|  |--3--|  |--3--|   
  E  E  E  E  E  E  Q    Q    Q       E  E  E  E  E  E  E  E  E  E  E  E   
-----------------------------------|--------------------------------------|
-----------------------------------|--------------------------------------|
--------------------3---------1----|--------------------------------------|
--2--2--2--2--2--2-------3---------|--2--2--2--2--2--2--2--2--2--2--2--2--|
-----------------------------------|--------------------------------------|


  |--3--|  |--3--|  |----3----|       |--3--|  |--3--|  |--3--|  |--3--|   
  E  E  E  E  E  E  Q    Q    Q       E  E  E  E  E  E  E  E  E  E  E  E   
-----------------------------------|--------------------------------------|
-----------------------------------|--------------------------------------|
--------------------3---------1----|--------------------------------------|
--2--2--2--2--2--2-------3---------|--2--2--2--2--2--2--2--2--2--2--2--2--|
-----------------------------------|--------------------------------------|


  |--3--|  |--3--|  |----3----|       |----3----|     
  E  E  E  E  E  E  Q    Q    Q       Q    Q    Q     
-----------------------------------|-----------------|
-----------------------------------|-----------------|
--------------------3---------1----|--2--------------|
--2--2--2--2--2--2-------3---------|-------2----0----|
-----------------------------------|-----------------|


  |--3-|  |--3--|  |--3--|  |--3--|              |---3---|  |--3--|   
  Q    E  E  E  E  E  E  E  E  E  E     H        E   E   E  E  E  E   
-------------------------------------|-------------------------------|
-------------------------------------|-------------------------------|
-------------------0--------2--------|--3--------2h--3p--2-----------|
--2-------------2--------------------|----------------------5--2--0--|
-------------------------------------|-------------------------------|


        |--3--|  |--3--|  |--3--|              |---3---|  |--3--|   
  E  E  E  E  E  E  E  E  E  E  E     H        E   E   E  E  E  E   
-----------------------------------|-------------------------------|
-----------------------------------|-------------------------------|
-----------------0--------2--------|--3--------2h--3p--2-----------|
--5--2--------2--------------------|----------------------5--2--0--|
-----------------------------------|-------------------------------|


       |--3--|  |--3--|  |--3--|              |---3---|  |--3--|   
  Q    E  E  E  E  E  E  E  E  E     H        E   E   E  E  E  E   
----------------------------------|-------------------------------|
----------------------------------|-------------------------------|
----------------0--------2--------|--3--------2h--3p--2-----------|
--2----x--x--x--------------------|----------------------5--2--0--|
----------------------------------|-------------------------------|


        |--3--|  |--3--|  |--3--|          |---3---|  |--3--|  |--3--|   
  E  E  E  E  E  E  E  E  E  E  E     Q    E   E   E  E  E  E  E  E  E   
-----------------------------------|------------------------------------|
-----------------------------------|------------------------------------|
-----------------0--------2--------|--3----2h--3p--2--------------------|
--5--2--------2--------------------|------------------5--2--0--5--2--0--|
-----------------------------------|------------------------------------|


       |--3--|  |--3--|  |--3--|          |--3--|             
  Q    E  E  E  E  E  E  E  E  E     Q    E  E  E  Q    Q     
----------------------------------|--------------------------|
----------------------------------|----------------2----2----|
----------------0--------2--------|--3----3--3--3------------|
--2----x--x--x--------------------|--------------------------|
----------------------------------|--------------------------|


        |---3--|  |--3--|  |--3--|          |--3--|             
  E  E  E   E  E  E  E  E  E  E  E     Q    E  E  E  Q    Q     
------------------------------------|--------------------------|
--1---------------------------------|----------------2----2----|
-----2--L\--L-----0--------2--------|--3----3--3--3------------|
---------------2--------------------|--------------------------|
------------------------------------|--------------------------|


        |---3--|  |--3--|  |--3--|          |--3--|             
  E  E  E   E  E  E  E  E  E  E  E     Q    E  E  E  Q    Q     
------------------------------------|--------------------------|
--1---------------------------------|----------------2----2----|
-----2--L\--L-----0--------2--------|--3----3--3--3------------|
---------------2--------------------|--------------------------|
------------------------------------|--------------------------|


        |---3--|  |--3--|  |--3--|          |--3--|             
  E  E  E   E  E  E  E  E  E  E  E     Q    E  E  E  Q    Q     
------------------------------------|--------------------------|
--1---------------------------------|----------------5----5----|
-----2--L\--L-----0--------2--------|--3----3--3--3------------|
---------------2--------------------|--------------------------|
------------------------------------|--------------------------|


        |---3--|                    |--3--|       |--3--|   
  E  E  E   E  E  Q    Q       Q    E  E  E  Q    E  E  E   
----------------------------|------------------------------|
--4-------------------------|------------------------------|
-----6--L\--L---------------|------------------------------|
---------------2--5---------|--2----0--0--0--2----0--0--0--|
-----------------------5----|------------------------------|


       |--3--|  |----3----|            |--3--|       |--3--|   
  Q    E  E  E  Q    Q    Q       Q    E  E  E  Q    E  E  E   
-------------------------------|------------------------------|
-------------------------------|------------------------------|
-------------------------------|------------------------------|
--2----0--0--0--2----0----2----|--3----3--3--3--3----3--3--3--|
-------------------------------|------------------------------|


       |--3--|  |------3-----|          |--3--|       |--3--|   
  Q    E  E  E  Q    Q    E  E     Q    E  E  E  Q    E  E  E   
--------------------------------|------------------------------|
--------------------------------|------------------------------|
--------------------------------|------------------------------|
--3----3--3--3--5----5----0--0--|--2----0--0--0--2----0--0--0--|
--------------------------------|------------------------------|


       |--3--|  |----3----|            |--3--|       |--3--|   
  Q    E  E  E  Q    Q    Q       Q    E  E  E  Q    E  E  E   
-------------------------------|------------------------------|
-------------------------------|------------------------------|
-------------------------------|------------------------------|
--2----0--0--0--2----0----2----|--3----3--3--3--3----3--3--3--|
-------------------------------|------------------------------|


       |--3--|  |------3-----|          |--3--|       |--3--|   
  Q    E  E  E  Q    Q    E  E     Q    E  E  E  Q    E  E  E   
--------------------------------|------------------------------|
--------------------------------|------------------------------|
--------------------------------|------------------------------|
--3----3--3--3--5----5----0--0--|--2----0--0--0--2----0--0--0--|
--------------------------------|------------------------------|


       |--3--|  |----3----|            |--3--|       |--3--|   
  Q    E  E  E  Q    Q    Q       Q    E  E  E  Q    E  E  E   
-------------------------------|------------------------------|
-------------------------------|------------------------------|
-------------------------------|------------------------------|
--2----0--0--0--2----0----2----|--3----3--3--3--3----3--3--3--|
-------------------------------|------------------------------|


       |--3--|  |------3-----|          |--3--|       |--3--|   
  Q    E  E  E  Q    Q    E  E     Q    E  E  E  Q    E  E  E   
--------------------------------|------------------------------|
--------------------------------|------------------------------|
--------------------------------|------------------------------|
--3----3--3--3--5----5----0--0--|--2----0--0--0--2----0--0--0--|
--------------------------------|------------------------------|


       |--3--|  |----3----|            |--3--|       |--3--|   
  Q    E  E  E  Q    Q    Q       Q    E  E  E  Q    E  E  E   
-------------------------------|------------------------------|
-------------------------------|------------------------------|
-------------------------------|------------------------------|
--2----0--0--0--2----0----2----|--3----3--3--3--3----3--3--3--|
-------------------------------|------------------------------|


                         |--3--|  |--3--|  |--3--|  |--3--|   
  Q    Q    Q    Q       E  E  E  E  E  E  E  E  E  E  E  E   
----------------------|--------------------------------------|
-----------------2----|--------------------------------------|
--5----L----4---------|--------------------------------------|
----------------------|--2--2--2--2--2--2--2--2--2--2--2--2--|
----------------------|--------------------------------------|


  |--3--|  |--3--|  |----3----|       |--3--|  |--3--|  |--3--|  |--3--|   
  E  E  E  E  E  E  Q    Q    Q       E  E  E  E  E  E  E  E  E  E  E  E   
-----------------------------------|--------------------------------------|
-----------------------------------|--------------------------------------|
--------------------3---------1----|--------------------------------------|
--2--2--2--2--2--2-------3---------|--2--2--2--2--2--2--2--2--2--2--2--2--|
-----------------------------------|--------------------------------------|


  |--3--|  |--3--|  |----3----|       |--3--|  |--3--|  |--3--|  |--3--|   
  E  E  E  E  E  E  Q    Q    Q       E  E  E  E  E  E  E  E  E  E  E  E   
-----------------------------------|--------------------------------------|
-----------------------------------|--------------------------------------|
--------------------3---------1----|--------------------------------------|
--2--2--2--2--2--2-------3---------|--2--2--2--2--2--2--2--2--2--2--2--2--|
-----------------------------------|--------------------------------------|


  |--3--|  |--3--|  |----3----|       |--3--|  |--3--|  |--3--|  |--3--|   
  E  E  E  E  E  E  Q    Q    Q       E  E  E  E  E  E  E  E  E  E  E  E   
-----------------------------------|--------------------------------------|
-----------------------------------|--------------------------------------|
--------------------3---------1----|--------------------------------------|
--2--2--2--2--2--2-------3---------|--2--2--2--2--2--2--2--2--2--2--2--2--|
-----------------------------------|--------------------------------------|


  |--3--|  |--3--|  |----3----|       |----3----|     
  E  E  E  E  E  E  Q    Q    Q       Q    Q    Q     
-----------------------------------|-----------------|
-----------------------------------|-----------------|
--------------------3---------1----|--2--------------|
--2--2--2--2--2--2-------3---------|-------2----0----|
-----------------------------------|-----------------|


  |----3----|    |----3----|       -----                        
  Q    Q    Q    Q    Q    Q               Q    Q    Q    Q     
--------------------------------|-------|----------------------|
--------------------------------|-------|----------------------|
--------------------------------|-------|----------------------|
--2-----------------------------|-------|----------------------|
--------------------------------|-------|----------------------|


  Q    Q    Q    Q       Q    Q    Q    Q       Q    Q    Q    Q     
----------------------|----------------------|----------------------|
----------------------|----------------------|----------------------|
----------------------|----------------------|----------------------|
----------------------|----------------------|----------------------|
----------------------|----------------------|----------------------|


  Q    Q    Q    Q       Q    Q    Q    Q       E  E  S S E  E  S S S S S S  
----------------------|----------------------|------------------------------|
----------------------|----------------------|------------------------------|
----------------------|-----------------3----|------------------------------|
----------------------|----------------------|--2--2--0-2-3--2--0-2---0-2-3-|
----------------------|----------------------|------------------------------|


  E  E  S S E  E  S S S S E     E  E  S S E  E  S S S S S S  
-----------------------------|------------------------------|
-----------------------------|------------------------------|
--------------------------3--|------------------------------|
--2--2--0-2-3--2--0-2---0----|--2--2--0-2-3--2--0-2---0-2-3-|
--------------------------1--|------------------------------|


  E  E  S S E  E  E  Q       E  E  S S E  E  S S S S S S  
--------------------------|------------------------------|
--------------------------|------------------------------|
---------------------3----|------------------------------|
--2--2--0-2-3--2----------|--2--2--0-2-3--2--0-2---0-2-3-|
--------------------------|------------------------------|


  E  E  S S E  E  S S S S E     E  E  S S E  E  S S S S S S  
-----------------------------|------------------------------|
-----------------------------|------------------------------|
--------------------------3--|------------------------------|
--2--2--0-2-3--2--0-2---0----|--2--2--0-2-3--2--0-2---0-2-3-|
--------------------------1--|------------------------------|


  E  E  S S E  E  E  Q       S S S E  S S S S S S E  S S S  
--------------------------|--------------------------------|
--------------------------|--------------------------------|
---------------------3----|--------------------------------|
--2--2--0-2-3--2----------|--2-2-2-3--0-2---2-2-2-3--0-2---|
--------------------------|--------------------------------|


  S S S E  S S S S S S E  S S S    S S S E  S S S S S S E  S S S  
--------------------------------|--------------------------------|
--------------------------------|--------------------------------|
--------------------------------|--------------------------------|
--2-2-2-3--0-2---2-2-2-3--0-2---|--2-2-2-3--0-2---2-2-2-3--0-2---|
--------------------------------|--------------------------------|


  S S S E  S S S S S S E  S S S  
--------------------------------|
--------------------------------|
--------------------------------|
--2-2-2-3--0-2---2-2-2-3--0-2---|
--------------------------------|


  Not Sure about the bass here,  he might just play                             
  S                                                  S  S  S S  S S S S S S S S 
--------------------------------------------------------------------------------
--------------------------------------------------------------------------------
--2h-------------------------------------------------3p-2p-0-2p-0---------------
------------------------------------------------------------------3-2-2-2-2-5-2-
--------------------------------------------------------------------------------


  2's on the A-string                                   
  S                   S  S  S S  S S S S S S S S S S S  
-------------------------------------------------------|
-------------------------------------------------------|
--2h------------------3p-2p-0-2p-0---------------------|
-----------------------------------3-2-2-2-2-5-2-0-2---|
-------------------------------------------------------|


  S  S  S  S S  S S S S S S S S S S S    S  S  S  S S  S S S S S S E  S S S  
--------------------------------------|-------------------------------------|
--------------------------------------|-------------------------------------|
--2h-3p-2p-0-2p-0---------------------|--2h-3p-2p-0-2p-0--------------------|
------------------3-2-2-2-2-5-2-0-2---|------------------3-2-2-2-2-3--0-2---|
--------------------------------------|-------------------------------------|


  S S S E  S S S S S S E  S S S    S S S E  S S S  
--------------------------------|-----------------|
--------------------------------|-----------------|
--------------------------------|-----------------|
--2-2-2-3--0-2---2-2-2-3--0-2---|--2-2-2-3--0-2---|
--------------------------------|-----------------|


  S  S  S  S S  S S S S S S S S S S S    S  S  S  S S  S S S S S S S S S S S  
--------------------------------------|--------------------------------------|
--------------------------------------|--------------------------------------|
--2h-3p-2p-0-2p-0---------------------|--2h-3p-2p-0-2p-0---------------------|
------------------3-2-2-2-2-5-2-0-2---|------------------3-2-2-2-2-5-2-0-2---|
--------------------------------------|--------------------------------------|


  S  S  S  S S  S S S S S S S S S S S    S  S  S  S S  S S S S S S E  S S S  
--------------------------------------|-------------------------------------|
--------------------------------------|-------------------------------------|
--2h-3p-2p-0-2p-0---------------------|--2h-3p-2p-0-2p-0--------------------|
------------------3-2-2-2-2-5-2-0-2---|------------------3-2-2-2-2-3--0-2---|
--------------------------------------|-------------------------------------|


  S S S E  S S S S S S E  S S S    S S S E  S S S  
--------------------------------|-----------------|
--------------------------------|-----------------|
--------------------------------|-----------------|
--2-2-2-3--0-2---2-2-2-3--0-2---|--2-2-2-3--0-2---|
--------------------------------|-----------------|


  S  S  S  S S  S S S S S S S S S S S    S  S  S  S S  S S S S S S S S  S S  S  
--------------------------------------|----------------------------------------|
--------------------------------------|----------------------------------------|
--2h-3p-2p-0-2p-0---------------------|--2h-3p-2p-0-2p-0-----2-2-2-3-2p-0-2p-0-|
------------------3-2-2-2-2-5-2-0-2---|------------------3-2-------------------|
--------------------------------------|----------------------------------------|


  S  S  S  S S  S S S S S S S S S S S    S  S  S  S S  S S S S S S E  S S S  
--------------------------------------|-------------------------------------|
--------------------------------------|-------------------------------------|
--2h-3p-2p-0-2p-0-----5-4-3-2---------|--2h-3p-2p-0-2p-0--------------------|
------------------3-2---------5-4-3-2-|------------------3-2-2-2-2-3--0-2---|
--------------------------------------|-------------------------------------|


  S S S E  S S S S S S E  S S S    S S S E  S S S  
--------------------------------|-----------------|
--------------------------------|-----------------|
--------------------------------|-----------------|
--2-2-2-3--0-2---2-2-2-3--0-2---|--2-2-2-3--0-2---|
--------------------------------|-----------------|


  S  S  S  S S  S S S S S S S S S S S    S  S  S  S S  S S S S S S S S  S S  S  
--------------------------------------|----------------------------------------|
--------------------------------------|----------------------------------------|
--2h-3p-2p-0-2p-0---------------------|--2h-3p-2p-0-2p-0-----2-2-2-3-2p-0-2p-0-|
------------------3-2-2-2-2-5-2-0-2---|------------------3-2-------------------|
--------------------------------------|----------------------------------------|


  S  S  S  S S  S S S S S S S S S S S    S  S  S  S S  S S S S S S E  S S S  
--------------------------------------|-------------------------------------|
--------------------------------------|-------------------------------------|
--2h-3p-2p-0-2p-0-----5-4-3-2---------|--2h-3p-2p-0-2p-0--------------------|
------------------3-2---------5-4-3-2-|------------------3-2-2-2-2-3--0-2---|
--------------------------------------|-------------------------------------|


  S S S E  S S S S S S E  S S S    S S S E  S S S  
--------------------------------|-----------------|
--------------------------------|-----------------|
--------------------------------|-----------------|
--2-2-2-3--0-2---2-2-2-3--0-2---|--2-2-2-3--0-2---|
--------------------------------|-----------------|


  S  S  S  S S  S S S S S S S S S S S    S  S  S  S S  S S S S S S S S  S S  S  
--------------------------------------|----------------------------------------|
--------------------------------------|----------------------------------------|
--2h-3p-2p-0-2p-0---------------------|--2h-3p-2p-0-2p-0-----2-2-2-3-2p-0-2p-0-|
------------------3-2-2-2-2-5-2-0-2---|------------------3-2-------------------|
--------------------------------------|----------------------------------------|


  S  S  S  S S  S S S S S S S S S S S    S  S  S  S S  S S S S S S E  S S S  
--------------------------------------|-------------------------------------|
--------------------------------------|-------------------------------------|
--2h-3p-2p-0-2p-0-----5-4-3-2---------|--2h-3p-2p-0-2p-0--------------------|
------------------3-2---------5-4-3-2-|------------------3-2-2-2-2-3--0-2---|
--------------------------------------|-------------------------------------|


  S S S E  S S S S S S E  S S S    S S S E  S S S  
--------------------------------|-----------------|
--------------------------------|-----------------|
--------------------------------|-----------------|
--2-2-2-3--0-2---2-2-2-3--0-2---|--2-2-2-3--0-2---|
--------------------------------|-----------------|


  S  S  S  S S  S S S S S S S S S S S    S  S  S  S S  S S S S S S S S  S S  S  
--------------------------------------|----------------------------------------|
--------------------------------------|----------------------------------------|
--2h-3p-2p-0-2p-0---------------------|--2h-3p-2p-0-2p-0-----2-2-2-3-2p-0-2p-0-|
------------------3-2-2-2-2-5-2-0-2---|------------------3-2-------------------|
--------------------------------------|----------------------------------------|


  S  S  S  S S  S S S S S S S S S S S    S  S  S  S S  S S S S S S E  S S S  
--------------------------------------|-------------------------------------|
--------------------------------------|-------------------------------------|
--2h-3p-2p-0-2p-0-----5-4-3-2---------|--2h-3p-2p-0-2p-0--------------------|
------------------3-2---------5-4-3-2-|------------------3-2-2-2-2-3--0-2---|
--------------------------------------|-------------------------------------|


  S S S E  S S S S S S E  S S S    S S S E  S S S  
--------------------------------|-----------------|
--------------------------------|-----------------|
--------------------------------|-----------------|
--2-2-2-3--0-2---2-2-2-3--0-2---|--2-2-2-3--0-2---|
--------------------------------|-----------------|


  S S S E  S S S S S S E  S S S    S S S E  S S S S S S E  S S S  
--------------------------------|--------------------------------|
--------------------------------|--------------------------------|
--------------------------------|--------------------------------|
--2-2-2-3--0-2---2-2-2-3--0-2---|--2-2-2-3--0-2---2-2-2-3--0-2---|
--------------------------------|--------------------------------|


  E  E  S S E  E  S S S S S S    E  E  S S E  E  S S S S E   
------------------------------|-----------------------------|
------------------------------|-----------------------------|
------------------------------|--------------------------3--|
--2--2--0-2-3--2--0-2---0-2-3-|--2--2--0-2-3--2--0-2---0----|
------------------------------|--------------------------1--|


  E  E  S S E  E  S S S S S S    E  E  S S E  E  E  Q     
------------------------------|--------------------------|
------------------------------|--------------------------|
------------------------------|---------------------3----|
--2--2--0-2-3--2--0-2---0-2-3-|--2--2--0-2-3--2----------|
------------------------------|--------------------------|


  E  E  S S E  E  S S S S S S    E  E  S S E  E  S S S S E   
------------------------------|-----------------------------|
------------------------------|-----------------------------|
------------------------------|--------------------------3--|
--2--2--0-2-3--2--0-2---0-2-3-|--2--2--0-2-3--2--0-2---0----|
------------------------------|--------------------------1--|


  E  E  S S E  E  S S S S S S    E  E  S S E  E  E  Q      
------------------------------|--------------------------||
------------------------------|--------------------------||
------------------------------|--------3-2-0-------------||
--2--2--0-2-3--2--0-2---0-2-3-|--2--2---------2----------||
------------------------------|--------------------------||




Duration Legend
---------------
W - whole
H - half
Q - quarter
E - 8th
S - 16th
T - 32nd
X - 64th
. - note dotted
|-n-|  - n-tuplets


Tablature Legend
----------------
L - tied note
x - dead note
g - grace note
(n) - ghost note
> - accentuded note
NH - natural harmonic
AH - artificial harmonic
TH - tapped harmonic
SH - semi harmonic
PH - pitch harmonic
h - hammer on
p - pull off
b - bend
br - bendRelease
pb - preBend
pbr - preBendRelease
brb - bendReleaseBend
\n/ - tremolo bar dip
\n - tremolo bar dive
-/n - tremolo bar Release up
/n\ - tremolo bar inverted dip
/n - tremolo bar return
-\n - tremolo bar Release down
S - shift slide
s - legato slide
/ -  slide into from below or out of upwards
\ -  slide into from above or out of downwards
~ - vibrato
W - wide vibrato
tr - trill
TP - tremolo picking
T - tapping
S - slap
P - pop
< - fade in
^ - brush up
v - brush down
comments
We did not receive enough feedback on this tab! Please rate:
1 2 3 4 5
2 comments total.
-2 reply
kaos572 wrote on April 17 2009, 05:40 pm

David Ellefson doesnt use a 5 string bass he uses a 4 string.

+1 reply
rageahol wrote on October 21 2011, 03:43 pm

http://www.jacksonguitars.com/products/search.php?partno=2855584000

Yep. That's why there's a 5-string version of his signature bass (and the Rust in Peace version, as well)

I want to post or [tab]
guest
You may want to rate the tab now too:
select rating
Please do not post tabs as comments. Select "correction" instead!