Oops, an error
Loading. Please wait.

Rust In Peace Polaris Tab

ver1
ver1

Whole song

More versions @911Tabs.com
28,907 views 114 this week
2 commentsread comments
1 2 3 4 5
accurate
x 5
Autoscroll
+/-
esc
set tempo
stop
Contributor
Hey! There's an official Ultimate Guitar app which is ideal
for learning songs when you're away from computer. Get the app
WARNING: You are trying to view
                                    content from Ultimate-Guitar.com
                                    in an unauthorized application,
                                    which is prohibited.

                                    Please use an official Ultimate
                                    Guitar Tabs application for iPhone,
                                    iPad or Android to access legitimate
                                    chords, guitar, bass, and drum tabs
                                    from Ultimate-Guitar.com database.

                                    Type "ultimate guitar tabs" in Apple
                                    App Store's or Android Market's
                                    search to find the application.
Song: Rust in Peace... Polaris
Artist: Megadeth
Album: Rust in Peace

Tuning: Standard
Copy: First

Notation Key
~: vibrato
^: bend
.: palm mute
r: release
t: trill
p: pull-off
h: hammer-on
x: ghost note
/: slide up
\: slide down


Fig. 1 x1
e|-------------|-------------|-------------------------|
B|-------------|-------------|-------------------------|
G|-------------|-------------|-------------------------|
D|--------4----|--------4----|--5-----2-4---5-----2-4--|
A|--4--4---32--|--4--4---32--|--3--4--0-2---3--4--0-2--|
E|--2--2-------|--2--2-------|-----2-----------2-------|

e|-------------|-------------|-------------------------|
B|-------------|-------------|-------------------------|
G|-------------|-------------|--5-----5-----5-----5----|
D|--------4----|--------4----|--5-----5-----5-----5----|
A|--4--4---32--|--4--4---32--|--3-----3-----3-----3----|
E|--2--2-------|--2--2-------|-------------------------|

e|-------------|-------------|-------------------------|
B|-------------|-------------|-------------------------|
G|-------------|-------------|-------------------------|
D|--------4----|--------4----|--5-----2-4---5-----2-4--|
A|--4--4---32--|--4--4---32--|--3--4--0-2---3--4--0-2--|
E|--2--2-------|--2--2-------|-----2-----------2-------|

e|-------------|-------------|-------------------------|
B|-------------|-------------|-------------------------|
G|-------------|-------------|--5-----5----------5--5--|
D|--------4----|--------4----|--5-----5----------5--5--|
A|--4--4---32--|--4--4---32--|--3-----3----------3--3--|
E|--2--2-------|--2--2-------|-------------------------|

e|-------------|-------------|-------------------------|
B|-------------|-------------|-------------------------|
G|-------------|-------------|-------------------------|
D|--------4----|--------4----|--5-----2-4---5-----2-4--|
A|--4--4---32--|--4--4---32--|--3--4--0-2---3--4--0-2--|
E|--2--2-------|--2--2-------|-----2-----------2-------|

e|-------------|-------------|-------------------------|
B|-------------|-------------|-------------------------|
G|-------------|-------------|--5-----5-----5-----5----|
D|--------4----|--------4----|--5-----5-----5-----5----|
A|--4--4---32--|--4--4---32--|--3-----3-----3-----3----|
E|--2--2-------|--2--2-------|-------------------------|

e|-------------|-------------|-------------------------|
B|-------------|-------------|-------------------------|
G|-------------|-------------|-------------------------|
D|--------4----|--------4----|--5-----2-4---5-----2-4--|
A|--4--4---32--|--4--4---32--|--3--4--0-2---3--4--0-2--|
E|--2--2-------|--2--2-------|-----2-----------2-------|

e|-------------|-------------|-------------------------|-----|
B|-------------|-------------|-------------------------|-----|
G|-------------|-------------|-------------------------|-----|
D|--------4----|--------4----|--5--5--5--5--5--5--4----|--3--|
A|--4--4---32--|--4--4---32--|--3--3--3--3--3--3--2----|--3--|
E|--2--2-------|--2--2-------|-------------------------|--1--|

            TIME- 0:41

Fig. 2A x2
e|--------------|-----------------|--------------|-------------|
B|--------------|-----------------|--------------|-------------|
G|--------------|-----------------|--------------|-------------|
D|-----2--4--5--|-----------2-----|-----2--4--5--|-------------|
A|--4--0--2--3--|--2320-----0--4--|--4--0--2--3--|--2320----4--|
E|--2-----------|-------30-----2--|--2-----------|-------30-2--|

e|--------------|-----------------|-------------------------------|
B|--------------|-----------------|-------------------------------|
G|--------------|-----------------|-------------------------------|
D|-----2--4--5--|-----------2-----|-----2--4--5-------------------|
A|--4--0--2--3--|--2320-----0--4--|--4--0--2--3--2320----0-----4--|
E|--2-----------|-------30-----2--|--2----------------30---30--2--|

            TIME- 1:04

Fig. 2B x1
    Guitar 1
  e|--------------|-------------|--------------|-------------|
  B|--------------|-------------|--------------|-------------|
  G|--------------|-------------|--------------|-------------|
  D|-----2--4--5--|-------------|-----2--4--5--|-------------|
  A|--4--0--2--3--|--2/7---6\2--|--4--0--2--3--|--3/10--9\3--|
  E|--2-----------|-------------|--2-----------|-------------|

    Guitar 2
  e|--------------|-------------|--------------|-------------|
  B|--------------|-------------|--------------|-------------|
  G|--------------|-------------|--------------|-------------|
  D|--------------|--2/5---4\1--|--------------|--5/9---8\4--|
  A|--------------|-------------|--------------|-------------|
  E|--------------|-------------|--------------|-------------|

    Guitar 1
  e|--------------|-------------|--------------|-------------|
  B|--------------|-------------|--------------|-------------|
  G|--------------|-------------|--------------|--5/9---8\4--|
  D|-----2--4--5--|--5/10--9\4--|-----2--4--5--|-------------|
  A|--4--0--2--3--|-------------|--4--0--2--3--|-------------|
  E|--2-----------|-------------|--2-----------|-------------|

    Guitar 2
  e|--------------|-------------|--------------|-------------|
  B|--------------|-------------|--------------|--5/8---7\4--|
  G|--------------|--5/9---8\4--|--------------|-------------|
  D|--------------|-------------|--------------|-------------|
  A|--------------|-------------|--------------|-------------|
  E|--------------|-------------|--------------|-------------|

            TIME- 1:16

Fill 1 x1
e|--------|
B|--------|
G|--2-----|
D|--2--2--|
A|--0--2--|
E|-----0--|

Fig. 3A x3
e|--------------------------------------|----------------------------------------|
B|--------------------------------------|----------------------------------------|
G|--------------------------------------|----------------------------------------|
D|--4--------4--------4--------4--2--4--|--5--------5--------5--------7--7-------|
A|--4--------4--------4--------4--2--4--|--5--------5--------5--------7--7-------|
E|--2--0345--2--0345--2--0345--2--0--2--|--3--0456--3--0456--3--0456--5--5--0-0--|
       ....     ....     ....                 ....     ....     ....        . .

Fig. 3B x1
e|--------------------------------------|----------------------------------------|
B|--------------------------------------|----------------------------------------|
G|--------------------------------------|--------------------7----------4-----9--|
D|--4--------4--------4--------4--2--4--|--5--------5--------7----------4-----9--|
A|--4--------4--------4--------4--2--4--|--5--------5--------5----------2-----7--|
E|--2--0345--2--0345--2--0345--2--0--2--|--3--0456--3--0456----------------------|
       ....     ....     ....                 ....     ....

            TIME- 1:39

Riff 1 x4
e|---------------------|---------------------|-------------|
B|---------------------|---------------------|-------------|
G|---------------------|---------------------|--5-------3--|
D|--4-2---2------------|--4-2---2------------|--5---5---3--|
A|------4---4-2-3-2-0--|------4---4-2-3-2-0--|--3---5---1--|
E|---------------------|---------------------|------3------|

Fill 2 x1
e|---------------|
B|---------------|
G|--4------------|
D|--4---4--2--4--|
A|--2---4--2--4--|
E|------2--0--2--|

            TIME- 1:51

Fig. 2A x1
e|--------------|-----------------|--------------|-------------|
B|--------------|-----------------|--------------|-------------|
G|--------------|-----------------|--------------|-------------|
D|-----2--4--5--|-----------2-----|-----2--4--5--|-------------|
A|--4--0--2--3--|--2320-----0--4--|--4--0--2--3--|--2320----4--|
E|--2-----------|-------30-----2--|--2-----------|-------30-2--|

e|--------------|-----------------|-------------------------------|
B|--------------|-----------------|-------------------------------|
G|--------------|-----------------|-------------------------------|
D|-----2--4--5--|-----------2-----|-----2--4--5-------------------|
A|--4--0--2--3--|--2320-----0--4--|--4--0--2--3--2320----0-----4--|
E|--2-----------|-------30-----2--|--2----------------30---30--2--|

            TIME- 2:04

Fig. 2B x1
    Guitar 1
  e|--------------|-------------|--------------|-------------|
  B|--------------|-------------|--------------|-------------|
  G|--------------|-------------|--------------|-------------|
  D|-----2--4--5--|-------------|-----2--4--5--|-------------|
  A|--4--0--2--3--|--2/7---6\2--|--4--0--2--3--|--3/10--9\3--|
  E|--2-----------|-------------|--2-----------|-------------|

    Guitar 2
  e|--------------|-------------|--------------|-------------|
  B|--------------|-------------|--------------|-------------|
  G|--------------|-------------|--------------|-------------|
  D|--------------|--2/5---4\1--|--------------|--5/9---8\4--|
  A|--------------|-------------|--------------|-------------|
  E|--------------|-------------|--------------|-------------|

    Guitar 1
  e|--------------|-------------|--------------|-------------|
  B|--------------|-------------|--------------|-------------|
  G|--------------|-------------|--------------|--5/9---8\4--|
  D|-----2--4--5--|--5/10--9\4--|-----2--4--5--|-------------|
  A|--4--0--2--3--|-------------|--4--0--2--3--|-------------|
  E|--2-----------|-------------|--2-----------|-------------|

    Guitar 2
  e|--------------|-------------|--------------|-------------|
  B|--------------|-------------|--------------|--5/8---7\4--|
  G|--------------|--5/9---8\4--|--------------|-------------|
  D|--------------|-------------|--------------|-------------|
  A|--------------|-------------|--------------|-------------|
  E|--------------|-------------|--------------|-------------|

            TIME- 2:15

Fill 1 x1
e|--------|
B|--------|
G|--2-----|
D|--2--2--|
A|--0--2--|
E|-----0--|

Fig. 3A x3
e|--------------------------------------|----------------------------------------|
B|--------------------------------------|----------------------------------------|
G|--------------------------------------|----------------------------------------|
D|--4--------4--------4--------4--2--4--|--5--------5--------5--------7--7-------|
A|--4--------4--------4--------4--2--4--|--5--------5--------5--------7--7-------|
E|--2--0345--2--0345--2--0345--2--0--2--|--3--0456--3--0456--3--0456--5--5--0-0--|
       ....     ....     ....                 ....     ....     ....        . .

Fig. 3B x1
e|--------------------------------------|----------------------------------------|
B|--------------------------------------|----------------------------------------|
G|--------------------------------------|--------------------7----------4-----9--|
D|--4--------4--------4--------4--2--4--|--5--------5--------7----------4-----9--|
A|--4--------4--------4--------4--2--4--|--5--------5--------5----------2-----7--|
E|--2--0345--2--0345--2--0345--2--0--2--|--3--0456--3--0456----------------------|
       ....     ....     ....                 ....     ....

            TIME- 2:39

Riff 1 x4
e|---------------------|---------------------|-------------|
B|---------------------|---------------------|-------------|
G|---------------------|---------------------|--5-------3--|
D|--4-2---2------------|--4-2---2------------|--5---5---3--|
A|------4---4-2-3-2-0--|------4---4-2-3-2-0--|--3---5---1--|
E|---------------------|---------------------|------3------|

Fill 2 x1
e|---------------|
B|---------------|
G|--4------------|
D|--4---4--2--4--|
A|--2---4--2--4--|
E|------2--0--2--|

            TIME- 2:51

Fig. 2A x1
e|--------------|-----------------|--------------|-------------|
B|--------------|-----------------|--------------|-------------|
G|--------------|-----------------|--------------|-------------|
D|-----2--4--5--|-----------2-----|-----2--4--5--|-------------|
A|--4--0--2--3--|--2320-----0--4--|--4--0--2--3--|--2320----4--|
E|--2-----------|-------30-----2--|--2-----------|-------30-2--|

e|--------------|-----------------|-------------------------------|
B|--------------|-----------------|-------------------------------|
G|--------------|-----------------|-------------------------------|
D|-----2--4--5--|-----------2-----|-----2--4--5-------------------|
A|--4--0--2--3--|--2320-----0--4--|--4--0--2--3--2320----0-----4--|
E|--2-----------|-------30-----2--|--2----------------30---30--2--|

            TIME- 3:03

Fig. 2B x1
    Guitar 1
  e|--------------|-------------|--------------|-------------|
  B|--------------|-------------|--------------|-------------|
  G|--------------|-------------|--------------|-------------|
  D|-----2--4--5--|-------------|-----2--4--5--|-------------|
  A|--4--0--2--3--|--2/7---6\2--|--4--0--2--3--|--3/10--9\3--|
  E|--2-----------|-------------|--2-----------|-------------|

    Guitar 2
  e|--------------|-------------|--------------|-------------|
  B|--------------|-------------|--------------|-------------|
  G|--------------|-------------|--------------|-------------|
  D|--------------|--2/5---4\1--|--------------|--5/9---8\4--|
  A|--------------|-------------|--------------|-------------|
  E|--------------|-------------|--------------|-------------|

    Guitar 1
  e|--------------|-------------|--------------|-------------|
  B|--------------|-------------|--------------|-------------|
  G|--------------|-------------|--------------|--5/9---8\4--|
  D|-----2--4--5--|--5/10--9\4--|-----2--4--5--|-------------|
  A|--4--0--2--3--|-------------|--4--0--2--3--|-------------|
  E|--2-----------|-------------|--2-----------|-------------|

    Guitar 2
  e|--------------|-------------|--------------|-------------|
  B|--------------|-------------|--------------|--5/8---7\4--|
  G|--------------|--5/9---8\4--|--------------|-------------|
  D|--------------|-------------|--------------|-------------|
  A|--------------|-------------|--------------|-------------|
  E|--------------|-------------|--------------|-------------|

            TIME- 3:14

Fill 1 x1
e|--------|
B|--------|
G|--2-----|
D|--2--2--|
A|--0--2--|
E|-----0--|

Fig. 3A x3
e|--------------------------------------|----------------------------------------|
B|--------------------------------------|----------------------------------------|
G|--------------------------------------|----------------------------------------|
D|--4--------4--------4--------4--2--4--|--5--------5--------5--------7--7-------|
A|--4--------4--------4--------4--2--4--|--5--------5--------5--------7--7-------|
E|--2--0345--2--0345--2--0345--2--0--2--|--3--0456--3--0456--3--0456--5--5--0-0--|
       ....     ....     ....                 ....     ....     ....        . .

Fig. 3B x1
e|--------------------------------------|----------------------------------------|
B|--------------------------------------|----------------------------------------|
G|--------------------------------------|--------------------7----------4-----9--|
D|--4--------4--------4--------4--2--4--|--5--------5--------7----------4-----9--|
A|--4--------4--------4--------4--2--4--|--5--------5--------5----------2-----7--|
E|--2--0345--2--0345--2--0345--2--0--2--|--3--0456--3--0456----------------------|
       ....     ....     ....                 ....     ....

            TIME- 3:38

Riff 1 x4
e|---------------------|---------------------|-------------|
B|---------------------|---------------------|-------------|
G|---------------------|---------------------|--5-------3--|
D|--4-2---2------------|--4-2---2------------|--5---5---3--|
A|------4---4-2-3-2-0--|------4---4-2-3-2-0--|--3---5---1--|
E|---------------------|---------------------|------3------|

Fill 2 x1
e|---------------|
B|---------------|
G|--4------------|
D|--4---4--2--4--|
A|--2---4--2--4--|
E|------2--0--2--|

            TIME- 3:51

Sound FX

            TIME- 3:57

Fig. 4A x3
e|---------------|---------------|---------------|-------------|
B|---------------|---------------|---------------|-------------|
G|---------------|---------------|---------------|-------------|
D|---------------|---------------|---------------|----------5--|
A|--4--4----4-5--|--4---4---4-5--|--4--4----4-5--|--4---4---3--|
E|--2--2--0-2-3--|--2-0-2-0-2-3--|--2--2--0-2-3--|--2-0-2-0----|
                      .   .                           .   .

e|---------------|---------------|----------------------|
B|---------------|---------------|----------------------|
G|---------------|---------------|----------------------|
D|---------------|---------------|-------------------5--|
A|--4--4----4-5--|--4---4---4-5--|--4--4----4-5-4----3--|
E|--2--2--0-2-3--|--2-0-2-0-2-3--|--2--2--0-2-3-2-------|
                      .   .

            TIME- 4:16

Fig. 5 x8
e|---------------|
B|---------------|
G|---------------|
D|---------------|
A|--4-4-4-5-4-4--|
E|--2-2-2-3-2-2--|

            TIME- 4:23

Riff 2A x3
e|-----------------------------------|
B|-----------------------------------|
G|-----------------------------------|
D|-----------------------------------|
A|--2h3p2p0--2p0------------------4--|
E|---------------3p0--2-0-2-5-2-0-2--|
                      . . . . . .

Riff 2B x1
e|--------------------|
B|--------------------|
G|--------------------|
D|--------------------|
A|--2h3p2p0--2p0------|
E|---------------3p0--|

            TIME- 4:29

Fig. 5 x4
e|---------------|
B|---------------|
G|---------------|
D|---------------|
A|--4-4-4-5-4-4--|
E|--2-2-2-3-2-2--|

            TIME- 4:32

Riff 2A x3
e|-----------------------------------|
B|-----------------------------------|
G|-----------------------------------|
D|-----------------------------------|
A|--2h3p2p0--2p0------------------4--|
E|---------------3p0--2-0-2-5-2-0-2--|
                      . . . . . .

Riff 2B x1
e|--------------------|
B|--------------------|
G|--------------------|
D|--------------------|
A|--2h3p2p0--2p0------|
E|---------------3p0--|

            TIME- 4:37

Fig. 5 x4
e|---------------|
B|---------------|
G|---------------|
D|---------------|
A|--4-4-4-5-4-4--|
E|--2-2-2-3-2-2--|

            TIME- 4:41

Riff 2A x1
e|-----------------------------------|
B|-----------------------------------|
G|-----------------------------------|
D|-----------------------------------|
A|--2h3p2p0--2p0------------------4--|
E|---------------3p0--2-0-2-5-2-0-2--|
                      . . . . . .

Riff 2C x1
e|--------------------|--------------------|--------------------|
B|--------------------|--------------------|--------------------|
G|--------------------|--------------------|--------------------|
D|--------------------|--------------------|--------------------|
A|--2h3p2p0--2p0------|--2h3-2h3p2p0--3p2--|--2h3p2p0--2p0------|
E|---------------3p0--|--------------------|---------------3p0--|

e|-----------------|--------------------|
B|-----------------|--------------------|
G|-----------------|--------------------|
D|-----------------|--------------------|
A|--5-3-2-0--------|--2h3p2p0--2p0------|
E|----------5-3-2--|---------------3p0--|

            TIME- 4:46

Fig. 5 x4
e|---------------|
B|---------------|
G|---------------|
D|---------------|
A|--4-4-4-5-4-4--|
E|--2-2-2-3-2-2--|

            TIME- 4:50

Riff 2A x1
e|-----------------------------------|
B|-----------------------------------|
G|-----------------------------------|
D|-----------------------------------|
A|--2h3p2p0--2p0------------------4--|
E|---------------3p0--2-0-2-5-2-0-2--|
                      . . . . . .

Riff 2C x1
e|--------------------|--------------------|--------------------|
B|--------------------|--------------------|--------------------|
G|--------------------|--------------------|--------------------|
D|--------------------|--------------------|--------------------|
A|--2h3p2p0--2p0------|--2h3-2h3p2p0--3p2--|--2h3p2p0--2p0------|
E|---------------3p0--|--------------------|---------------3p0--|

e|-----------------|--------------------|
B|-----------------|--------------------|
G|-----------------|--------------------|
D|-----------------|--------------------|
A|--5-3-2-0--------|--2h3p2p0--2p0------|
E|----------5-3-2--|---------------3p0--|

            TIME- 4:55

Fig. 5 x4
e|---------------|
B|---------------|
G|---------------|
D|---------------|
A|--4-4-4-5-4-4--|
E|--2-2-2-3-2-2--|

            TIME- 4:59

Riff 2A x1
e|-----------------------------------|
B|-----------------------------------|
G|-----------------------------------|
D|-----------------------------------|
A|--2h3p2p0--2p0------------------4--|
E|---------------3p0--2-0-2-5-2-0-2--|
                      . . . . . .

Riff 2C x1
e|--------------------|--------------------|--------------------|
B|--------------------|--------------------|--------------------|
G|--------------------|--------------------|--------------------|
D|--------------------|--------------------|--------------------|
A|--2h3p2p0--2p0------|--2h3-2h3p2p0--3p2--|--2h3p2p0--2p0------|
E|---------------3p0--|--------------------|---------------3p0--|

e|-----------------|--------------------|
B|-----------------|--------------------|
G|-----------------|--------------------|
D|-----------------|--------------------|
A|--5-3-2-0--------|--2h3p2p0--2p0------|
E|----------5-3-2--|---------------3p0--|

            TIME- 5:04

Fig. 5 x4
e|---------------|
B|---------------|
G|---------------|
D|---------------|
A|--4-4-4-5-4-4--|
E|--2-2-2-3-2-2--|

            TIME- 5:08

Riff 2A x1
e|-----------------------------------|
B|-----------------------------------|
G|-----------------------------------|
D|-----------------------------------|
A|--2h3p2p0--2p0------------------4--|
E|---------------3p0--2-0-2-5-2-0-2--|
                      . . . . . .

Riff 2C x1
e|--------------------|--------------------|--------------------|
B|--------------------|--------------------|--------------------|
G|--------------------|--------------------|--------------------|
D|--------------------|--------------------|--------------------|
A|--2h3p2p0--2p0------|--2h3-2h3p2p0--3p2--|--2h3p2p0--2p0------|
E|---------------3p0--|--------------------|---------------3p0--|

e|-----------------|--------------------|
B|-----------------|--------------------|
G|-----------------|--------------------|
D|-----------------|--------------------|
A|--5-3-2-0--------|--2h3p2p0--2p0------|
E|----------5-3-2--|---------------3p0--|

            TIME- 5:13

Fig. 5 x8
e|---------------|
B|---------------|
G|---------------|
D|---------------|
A|--4-4-4-5-4-4--|
E|--2-2-2-3-2-2--|

            TIME- 5:19

Fig. 4A x1
e|---------------|---------------|---------------|-------------|
B|---------------|---------------|---------------|-------------|
G|---------------|---------------|---------------|-------------|
D|---------------|---------------|---------------|----------5--|
A|--4--4----4-5--|--4---4---4-5--|--4--4----4-5--|--4---4---3--|
E|--2--2--0-2-3--|--2-0-2-0-2-3--|--2--2--0-2-3--|--2-0-2-0----|
                      .   .                           .   .

e|---------------|---------------|----------------------|
B|---------------|---------------|----------------------|
G|---------------|---------------|----------------------|
D|---------------|---------------|-------------------5--|
A|--4--4----4-5--|--4---4---4-5--|--4--4----4-5-4----3--|
E|--2--2--0-2-3--|--2-0-2-0-2-3--|--2--2--0-2-3-2-------|
                      .   .

Fig. 4B x1
e|---------------|---------------|---------------|-------------|
B|---------------|---------------|---------------|-------------|
G|---------------|---------------|---------------|-------------|
D|---------------|---------------|---------------|----------5--|
A|--4--4----4-5--|--4---4---4-5--|--4--4----4-5--|--4---4---3--|
E|--2--2--0-2-3--|--2-0-2-0-2-3--|--2--2--0-2-3--|--2-0-2-0----|
                      .   .                           .   .

e|---------------|---------------|----------------------|
B|---------------|---------------|----------------------|
G|---------------|---------------|----------------------|
D|---------------|---------------|----------------------|
A|--4--4----4-5--|--4---4---4-5--|--4--4----4-5-4----2--|
E|--2--2--0-2-3--|--2-0-2-0-2-3--|--2--2--0-2-3-2----0--|
comments
print report bad tab
2 comments total.
0 reply
CHOOCHOO! wrote on May 19 2010, 03:02 pm

This part sounds like it should be something like this:

Fig. 3A x3
e|--------------------------------------|-----------------
B|--------------------------------------|-----------------
G|--------------------------------------|------------------
D|--4--------4--------4--------4--2--4--|--5--------5-----
A|--4--------4--------4--------4--2--4--|--5--------5------
E|--2--210---2--210---2--210---2--0--2--|--3--320---3--
... ... ... ...

0 reply
CHOOCHOO! wrote on May 19 2010, 03:07 pm

Changed the 3p0 to a 2p0. Not sure if this is supposed to be hammered on + pull off'd as opposed to picked, but I like it this way!


Fig. 2A x2
e|--------------|---------------------|--------------
B|--------------|---------------------|--------------
G|--------------|---------------------|--------------
D|-----2--4--5--|---------------2-----|-----2--4--5--
A|--4--0--2--3--|--2h3p2-0------0--4--|--4--0--2--3--
E|--2-----------|----------2p0-----2--|--2-----------

I want to post or [tab]
guest
You may want to rate the tab now too:
select rating
Please do not post tabs as comments. Select "correction" instead!