Oops, an error
Loading. Please wait.

Rust In Piece Polaris Tab

3,113 views 1 this week
1 commentread comment
1 2 3 4 5
excellent!
x 2
Autoscroll
+/-
esc
set tempo
stop
Contributor
Hey! There's an official Ultimate Guitar app which is ideal
for learning songs when you're away from computer. Get the app
WARNING: You are trying to view
                                    content from Ultimate-Guitar.com
                                    in an unauthorized application,
                                    which is prohibited.

                                    Please use an official Ultimate
                                    Guitar Tabs application for iPhone,
                                    iPad or Android to access legitimate
                                    chords, guitar, bass, and drum tabs
                                    from Ultimate-Guitar.com database.

                                    Type "ultimate guitar tabs" in Apple
                                    App Store's or Android Market's
                                    search to find the application.
#----------------------------------PLEASE NOTE---------------------------------#
#This file is the author's own work and represents their interpretation of the #
#song. You may only use this file for private study, scholarship, or research. #
#------------------------------------------------------------------------------#

RUST IN PIECE ...POLARIS
As recorded by Megadeth
(From the 1991 Album RUST IN PIECE)

Transcribed by cbliss66@aol.com
        

Words and Music by Dave Mustaine
Arranged by Megadeth

Gtr I (E A D G B E) - 'Mustaine'
Gtr II (E A D G B E) - 'Friedman'
Gtr III (E A D G B E) - 'Friedman Solo'

 Intro
  Moderately Fast Rock Q=152
                F#                      C5 F#5 B5C5 F#5 B5
 4/4
  Gtrs I, II
                PM|         PM|
  Wx8           E E S S S S E E S S E   E. E S E E. E S E
|------------||-----------------------|--------------------|
|------------||-----------------------|--------------------|
|------------||-----------------------|--------------------|
|------------||-----4-----------4-----|-5----0-4-5----0-4--|
|------------||-------4-3-2-------4-3-|-3--4---2-3--4---2--|
|------------||-2-2---------2-2-------|----2--------2------|


                          C5
  PM|         PM|                          PM|         PM|
  E E S S S S E E S S E   E E E E E E Q    E E S S S S E E S S E
|-----------------------|----------------|-----------------------|
|-----------------------|----------------|-----------------------|
|-----------------------|----------------|-----------------------|
|-----4-----------4-----|-5---5---5---5--|-----4-----------4-----|
|-------4-3-2-------4-3-|-3---3---3---3--|-------4-3-2-------4-3-|
|-2-2---------2-2-------|----------------|-2-2---------2-2-------|


  C5 F#5 B5C5 F#5 B5                          C5
                      PM|         PM|
  E. E S E E. E S E   E E S S S S E E S S E   E E E Q  E E E
|-------------------|-----------------------|----------------|
|-------------------|-----------------------|----------------|
|-------------------|-----------------------|----------------|
|-5----0-4-5----0-4-|-----4-----------4-----|-5---5----5-5---|
|-3--4---2-3--4---2-|-------4-3-2-------4-3-|-3---3----3-3---|
|----2--------2-----|-2-2---------2-2-------|----------------|


                          C5 F#5 B5C5 F#5 B5
 4/4
  PM|         PM|                             PM|         PM|
  E E S S S S E E S S E   E. E S E E. E S E   E E S S S S E E S S E
|-----------------------|-------------------|------------------------|
|-----------------------|-------------------|------------------------|
|-----------------------|-------------------|------------------------|
|-----4-----------4-----|-5----0-4-5----0-4-|-----4-----------4------|
|-------4-3-2-------4-3-|-3--4---2-3--4---2-|-------4-3-2-------4-3--|
|-2-2---------2-2-------|----2--------2-----|-2-2---------2-2--------|


  C5                                       C5 F#5 B5C5 F#5 B5
                   PM|         PM|
  E E E E E E Q    E E S S S S E E S S E   E. E S E E. E S E
|----------------|-----------------------|-------------------|
|----------------|-----------------------|-------------------|
|----------------|-----------------------|-------------------|
|-5---5---5---5--|-----4-----------4-----|-5----0-4-5----0-4-|
|-3---3---3---3--|-------4-3-2-------4-3-|-3--4---2-3--4---2-|
|----------------|-2-2---------2-2-------|----2--------2-----|


  PM|         PM|
                          |----3----| |----3----|
  E E S S S S E E S S E   E E E E E E E E E E E E
|-----------------------|-------------------------|
|-----------------------|-------------------------|
|-----------------------|-------------------------|
|-----4-----------4-----|-5---5---5---5---5---5---|
|-------4-3-2-------4-3-|-3---3---3---3---3---3---|
|-2-2---------2-2-------|-------------------------|


 Guitar Break
  Faster Q.=168
         B5
 12/8
  Gtr III
   a      +E   +E   +E       +Q.    +Q    +E    a  Q   E
|--------------------------------------------------------|
|-17b19==(17)-(17)r(17)b19==(17)---(17)--(17)r-15h17-----|
|-----------------------------------------------------16-|
|--------------------------------------------------------|
|--------------------------------------------------------|
|--------------------------------------------------------|
|
| Gtrs I, II
|          W.
|--------------------------------------------------------|
|--------------------------------------------------------|
|--------------------------------------------------------|
|----------4---------------------------------------------|
|----------2---------------------------------------------|
|--------------------------------------------------------|


                                 F#5
    ~~~~                           ~~~~~~~~~~                                     ~~
   +H.      Q   E  E  E  E        +Q.    +E   +E    E  a       +S   +E.  E  E  E  E
|-----------x------------------|-------------------17-20pb22==(20)r(20)-17-----------|
|-----------x--17-20p17-20b22==|=(20)---(20)-(20)r-------------------------18--------|
|-(16)-------------------------|----------------------------------------------17-----|
|------------------------------|-------------------------------------------------19--|
|------------------------------|-----------------------------------------------------|
|------------------------------|-----------------------------------------------------|
|
|  +W.                             W.
|------------------------------|-----------------------------------------------------|
|------------------------------|-----------------------------------------------------|
|------------------------------|-----------------------------------------------------|
|--(4)-------------------------|-----------------------------------------------------|
|--(2)-------------------------|---3-------------------------------------------------|
|------------------------------|---1-------------------------------------------------|


                                 Pre-Verse
               F#5  A5    B5      C5                              A5   B5
    ~~~~
   +Q     +Q     Q  H.            W                     W
|------------------------------||---------------------|---------------------|
|------------------------------||---------------------|---------------------|
|------------------------------||---------------------|---------------------|
|-(19)---(19)\-----------------||---------------------|---------------------|
|------------------------------||---------------------|---------------------|
|------------------------------||---------------------|---------------------|
|
|                                               PM--|
|  +E  Q       E Q  E  Q  E Q     H.      E E E E E E   Q  E Q  E E Q  E Q
|------------------------------||---------------------|---------------------|
|------------------------------||---------------------|---------------------|
|------------------------------||---------------------|---------------------|
|-------------------2-----4----||-5-------------------|-----------2----4----|
|--(3)---------4----0-----2----||-3-------2h3p2-------|-----------0----2----|
|--(1)---------2---------------||---------------5-2-0-|-5--2----2-----------|


  C5                    F#5        A5   B5     C5
  Gtrs I, II
                PM--|                                        PM--|
  H.      E E E E E E   Q.   E E E E Q  E Q    H.      E E E E E E
|---------------------|----------------------|---------------------|
|---------------------|----------------------|---------------------|
|---------------------|----------------------|---------------------|
|-5-------------------|------x-x-x-2----4----|-5-------------------|
|-3-------2h3p2-------|-4----x-x-x-0----2----|-3-------2h3p2-------|
|---------------5-2-0-|-2----x-x-x-----------|---------------5-2-0-|


            A5   B5     C5                    F#5        A5   B5
                                      PM--|
  Q  E Q  E E Q  E Q    H.      E E E E E E   Q.   E E E E Q  E Q
|---------------------|---------------------|----------------------||
|---------------------|---------------------|----------------------||
|---------------------|---------------------|----------------------||
|-----------2----4----|-5-------------------|------x-x-x-2----4----||
|-----------0----2----|-3-------2h3p2-------|-4----x-x-x-0----2----||
|-5--2----2-----------|---------------5-2-0-|-2----x-x-x-----------||


   Verse 1,2 and 3
    C5                              A5   B5     C5
                  PM--|                                       PM--|
    H.      E E E E E E   Q  E Q  E E Q  E Q    H.      E E E E E E
||----------------------|---------------------|----------------------|
||o---------------------|---------------------|----------------------|
||----------------------|---------------------|----------------------|
||--5-------------------|-----------2----4----|-5--------------------|
||o-3-------2h3p2-------|-----------0----2----|-3-------2h3p2--------|
||----------------5-2-0-|-5--2----2-----------|---------------5-2-0--|


  F#5        A5   B5     C5                              A5   B5
                                       PM--|
  Q.   E E E E Q  E Q    H.      E E E E E E   Q  E Q  E E Q  E Q
|----------------------|---------------------|---------------------|
|----------------------|---------------------|---------------------|
|----------------------|---------------------|---------------------|
|------x-x-x-2----4----|-5-------------------|-----------2----4----|
|-4----x-x-x-0----2----|-3-------2h3p2-------|-----------0----2----|
|-2----x-x-x-----------|---------------5-2-0-|-5--2----2-----------|


  C5                    F#5        A5   B5
                PM--|
  H.      E E E E E E   Q.   E E E E Q  E Q
|---------------------|----------------------|
|---------------------|----------------------|
|---------------------|----------------------|
|-5-------------------|------x-x-x-2----4----|
|-3-------2h3p2-------|-4----x-x-x-0----2----|
|---------------5-2-0-|-2----x-x-x-----------|


  C5                             A5   B5     C5
  Gtr I
  H.      H.        Q  E +Q    E E Q  E Q    H.      H.
|-----------------|------------------------|---------------|
|-----------------|------------------------|---------------|
|-----------------|------------------------|---------------|
|-5---------------|--------------2----4----|-5-------5-----|
|-3-------7-------|-6------------0----2----|-3-------------|
|-----------------|----7-(7)\--2-----------|---------------|
|
| Gtr II
| H.      H.        Q  E +Q    E E Q  E Q    H.      H.
|-----------------|------------------------|---------------|
|-----------------|------------------------|---------------|
|-----------------|------------------------|---------------|
|-5-------5-------|-4------------2----4----|-5-------9-----|
|-3---------------|----6-(6)\----0----2----|-3-------------|
|-----------------|------------2-----------|---------------|


               A5   B5     C5                             A5   B5
  Q  E +Q    E E Q  E Q    H.      H.        Q  E +Q    E E Q  E Q
|------------------------|-----------------|------------------------|
|------------------------|-----------------|------------------------|
|------------------------|-----------------|------------------------|
|-4------------2----4----|-5-------9-------|-8------------2----4----|
|----6-(6)\----0----2----|-3---------------|----9-(9)\----0----2----|
|------------2-----------|-----------------|------------2-----------|
|
| Q  E +Q    E E Q  E Q    H.      H.        Q  E +Q    E E Q  E Q
|------------------------|-----------------|------------------------|
|------------------------|-----------------|------------------------|
|------------------------|---------9-------|-8----------------------|
|-8------------2----4----|-5---------------|----9-(9)\----2----4----|
|----9-(9)\----0----2----|-3---------------|--------------0----2----|
|------------2-----------|-----------------|------------2-----------|


                                              Pre-Chorus
  C5                             A5    E5      F#5        F#5
                                                    PM--|      PM--|
  H.      H.        Q  E +Q    E E  Q  Q.      Q.   E E E Q.   E E E
|-----------------|-------------------------||-----------------------|
|-----------------|-------------------------||-----------------------|
|---------9-------|-8-----------------------||-----------------------|
|-5---------------|----9-(9)\----2----------||-----------------------|
|-3---------------|--------------0-----2----||-4----------4----------|
|-----------------|------------2-------0----||-2----2-2-2-2----2-2-2-|
|
|                                                   PM--|      PM--|
| H.      H.        Q  E +Q    E Q.    Q.      Q.   E E E Q.   E E E
|-----------------|-------------------------||-----------------------|
|---------8-------|-7-----------------------||-----------------------|
|-----------------|----8-(8)\---------------||-----------------------|
|-5---------------|--------------2----------||-----------------------|
|-3---------------|--------------0-----2----||-4----------4----------|
|-----------------|------------2-------0----||-2----2-2-2-2----2-2-2-|


  F#5        F#5E5 F#5  G5         G5           G5         A5
  Gtrs I, II
       PM--|                 PM--|      PM--|        PM--|
  Q.   E E E q  q  q    Q.   E E E Q.   E E E   Q.   E E E q  q  E E
|---------------------|-----------------------|----------------------|
|---------------------|-----------------------|----------------------|
|---------------------|-----------------------|----------------------|
|---------------------|-----------------------|----------------------|
|-4----------4--2--4--|-5----------5----------|-5----------7--7------|
|-2----2-2-2-2--0--2--|-3----3-3-3-3----3-3-3-|-3----3-3-3-5--5--3-3-|


  F#5        F#5          F#5        F#5E5 F#5  G5         G5
       PM--|      PM--|        PM--|                 PM--|      PM--|
  Q.   E E E Q.   E E E   Q.   E E E q  q  q    Q.   E E E Q.   E E E
|-----------------------|---------------------|-----------------------|
|-----------------------|---------------------|-----------------------|
|-----------------------|---------------------|-----------------------|
|-----------------------|---------------------|-----------------------|
|-4----------4----------|-4----------4--2--4--|-5----------5----------|
|-2----2-2-2-2----2-2-2-|-2----2-2-2-2--0--2--|-3----3-3-3-3----3-3-3-|


  G5                     F#5        F#5          F#5        F#5E5 F#5
       PM--|                  PM--|      PM--|        PM--|
  Q.   E E E q  q  E E   Q.   E E E Q.   E E E   Q.   E E E q  q  q
|----------------------|-----------------------|---------------------|
|----------------------|-----------------------|---------------------|
|----------------------|-----------------------|---------------------|
|----------------------|-----------------------|---------------------|
|-5----------7--7------|-4----------4----------|-4----------4--2--4--|
|-3----3-3-3-5--5--3-3-|-2----2-2-2-2----2-2-2-|-2----2-2-2-2--0--2--|


  G5         G5           G5         A5          F#5        F#5
       PM--|      PM--|        PM--|                  PM--|      PM--|
  Q.   E E E Q.   E E E   Q.   E E E q  q  E E   Q.   E E E Q.   E E E
|-----------------------|----------------------|-----------------------|
|-----------------------|----------------------|-----------------------|
|-----------------------|----------------------|-----------------------|
|-----------------------|----------------------|-----------------------|
|-5----------5----------|-5----------7--7------|-4----------4----------|
|-3----3-3-3-3----3-3-3-|-3----3-3-3-5--5--3-3-|-2----2-2-2-2----2-2-2-|


       PM--|                 PM--|      PM--|        PM--|
  Q.   E E E q  q  q    Q.   E E E Q.   E E E   Q.   E E E Q.   Q.
|---------------------|-----------------------|----------------------||
|---------------------|-----------------------|----------------------||
|---------------------|-----------------------|----------------------||
|---------------------|-----------------------|-7----------6----9\---||
|-4----------4--2--4--|-5----------5----------|-5----5-5-5-4----7\---||
|-2----2-2-2-2--0--2--|-3----3-3-3-3----3-3-3-|----------------------||


 Chorus
                                        C5 G5 Bb5
  E E E E E E E E E E E E   E E E E E E Q  Q  Q    E E E E E E E E E E E E
|-------------------------|----------------------|-------------------------|
|-------------------------|----------------------|-------------------------|
|-------------------------|----------------------|-------------------------|
|-4p2---2-----------4p2---|-2-----------5-----3--|-4p2---2-----------4p2---|
|-----4---4-0-3-2-0-----4-|---4-0-3-2-0-3--5--1--|-----4---4-0-3-2-0-----4-|
|-------------------------|----------------3-----|-------------------------|


              C5 G5 Bb5                                        C5 G5 Bb5
  E E E E E E Q  Q  Q    E E E E E E E E E E E E   E E E E E E Q  Q  Q
|----------------------|-------------------------|----------------------|
|----------------------|-------------------------|----------------------|
|----------------------|-------------------------|----------------------|
|-2-----------5-----3--|-4p2---2-----------4p2---|-2-----------5-----3--|
|---4-0-3-2-0-3--5--1--|-----4---4-0-3-2-0-----4-|---4-0-3-2-0-3--5--1--|
|----------------3-----|-------------------------|----------------3-----|


                                                  1.,2.
                                        C5 G5 Bb5  B5 F#5E5 F#5     F#5
  E E E E E E E E E E E E   E E E E E E Q  Q  Q    Q  Q  Q  Q  Q.   E
|-------------------------|----------------------|--------------------|
|-------------------------|----------------------|--------------------|
|-------------------------|----------------------|--------------------|
|-4p2---2-----------4p2---|-2-----------5-----3--|-4------------------|
|-----4---4-0-3-2-0-----4-|---4-0-3-2-0-3--5--1--|-2--4--2--4-------4-|
|-------------------------|----------------3-----|----2--0--2-------2-|


                                        Bridge
               3.                     Better Move Q=300
  A5   B5          B5 F#5E5 F#5                     F#5       G5
 6/8              12/8                  4/4
                                                          PM--|
  E Q  E Q   3x    Q  Q  Q  Q  E Q.      W          Q  Q  E E Q
|------------||-||--------------------||----------|---------------|
|-----------o||-||--------------------||----------|---------------|
|------------||-||--------------------||----------|---------------|
|-2----4-----||-||-4------------------||----------|---------------|
|-0----2----o||-||-2--4--2--4---------||----------|-4--4----4-5---|
|------------||-||----2--0--2---------||----------|-2--2--0-2-3---|


  F#5        G5   F#5       G5   F#5         C5   F#5     F#G5
  PM---------|          PM-------|   PM|   PM|          PM--|
  Q  E E E E Q    Q  Q  E E Q    E E E E E E Q    Q  Q  E E Q
|---------------|--------------|----------------|---------------|
|---------------|--------------|----------------|---------------|
|---------------|--------------|----------------|---------------|
|---------------|--------------|-------------5--|---------------|
|-4----4---4-5--|-4--4----4-5--|-4-----4-----3--|-4--4----4-5---|
|-2--0-2-0-2-3--|-2--2--0-2-3--|-2---0-2---0----|-2--2--0-2-3---|


                                                Bridge Verse
  F#5          G5  F#5       G5   F#5   C5       F#5     F#G5
  PM---|   PM--|                                       PM--|
  Q  E E E E E E   Q  Q  E E Q    Q  Q  H        Q  Q  E E Q
|----------------|--------------|------------||----------------|
|----------------|--------------|------------||o---------------|
|----------------|--------------|------------||----------------|
|----------------|--------------|-------5----||----------------|
|-4----4-----4-5-|-4--4----4-5--|-4-----3----||o-4--4----4-5---|
|-2--0-2---0-2-3-|-2--2--0-2-3--|-2----------||--2--2--0-2-3---|


  F#5          G5  F#5       G5   F#5         C5   F#5       G5
  PM---|   PM--|                  PM  PM|   PM|          PM--|
  Q  E E E E E E   Q  Q  E E Q    E E E E E E Q    Q  Q  E E Q
|----------------|--------------|----------------|---------------|
|----------------|--------------|----------------|---------------|
|----------------|--------------|----------------|---------------|
|----------------|--------------|-------------5--|---------------|
|-4----4-----4-5-|-4--4----4-5--|-4-----4-----3--|-4--4----4-5---|
|-2--0-2---0-2-3-|-2--2--0-2-3--|-2---0-2---0----|-2--2--0-2-3---|


                                 1.
  F#5          G5  F#5       G5   F#5   C5
  PM---|   PM--|
  Q  E E E E E E   Q  Q  E E Q    Q  Q  H
|----------------|--------------|-------------||
|----------------|--------------|------------o||
|----------------|--------------|-------------||
|----------------|--------------|-------5-----||
|-4----4-----4-5-|-4--4----4-5--|-4-----3----o||
|-2--0-2---0-2-3-|-2--2--0-2-3--|-2-----------||


                          Guitar Solo
  2.
  F#5   C5                          G5           F#5
  Gtr III
                    ~~~~~~~~~~~~~~~~~~~~~~~
  H     Q   a      +Q       +H         +E   +E    E  E
|-----------------------||-----------------------------|
|----------17b19==(17)--||-(17)-------(17)-(17)r-17p14-|
|-----------------------||-----------------------------|
|-----------------------||-----------------------------|
|-----------------------||-----------------------------|
|-----------------------||-----------------------------|
|
| Gtrs I, II
|                            PM-------------------------
| Q  Q  H                    E  E E Q        E    E  E
|-----------------------||-----------------------------|
|-----------------------||-----------------------------|
|-----------------------||-----------------------------|
|-------5---------------||-----------------------------|
|-4-----3---------------||----------5-------------4----|
|-2---------------------||---2--2-2-3--------0----2----|


                G5           F#5
             ~~~~~~~~~~
                              |---3---|
   Q        +Q     +E   +E    E  E    E
|---------------------------------------|
|-17b19====(17)---(17)-(17)r-17p14------|
|------------------------------------17-|
|---------------------------------------|
|---------------------------------------|
|---------------------------------------|
|
|----------------------------------|
|  E     E   E  Q        E    E    E
|---------------------------------------|
|---------------------------------------|
|---------------------------------------|
|---------------------------------------|
|---------------5-------------4---------|
|--2-----2---2--3--------0----2---------|


                 G5         F#5                      G5              F#5
            |---3---|        |---3---|          |---3---|  |---3---|  |---3---|
   a  E  E  E  E    E  E  E  E  E    E    E  E  E  E    E  E  E    E  E  E    E
|--------------------------------------|----------------------------------------|
|-14h17p14------------17p14------------|-16p13----------------------------------|
|----------17p14h==17-------17p14p==13-|-------16p13h==17-14h17p==14-16h17---14-|
|--------------------------------------|----------------------------------------|
|--------------------------------------|----------------------------------------|
|--------------------------------------|----------------------------------------|
|
|     PM-------------------------------------------------------------------------
|     E  E  E    Q        E  E    E       E  E  E    Q          E     E    E
|--------------------------------------|----------------------------------------|
|--------------------------------------|----------------------------------------|
|--------------------------------------|----------------------------------------|
|--------------------------------------|----------------------------------------|
|----------------5-----------4---------|-------------5----------------4---------|
|-----2--2--2----3--------0--2---------|--2--2--2----3----------0-----2---------|


           G5         F#5
         |----3-----|  |---3---|  |---3---|
   E  E  E  E    S  S  E  E    E  E  E    E
|-14------------17p14---------------17p==14---|
|----17p14h17---------14h17p==14h17-----------|
|---------------------------------------------|
|---------------------------------------------|
|---------------------------------------------|
|---------------------------------------------|
|
|--------------------------------------|
|  E  E  E    Q             E     E    E
|---------------------------------------------|
|---------------------------------------------|
|---------------------------------------------|
|---------------------------------------------|
|-------------5-------------------4-----------|
|--2--2--2----3-------------0-----2-----------|


                   G5               F#5                            G5            F#5
   |---3---|              |---3---|  |----3-----|                         |----3----|
   E  E    E  S  S  S  S  E  E    E  E  a      +Q       +Q     +E   +E    Q    Q    Q
|------------17p14-------19p14------14-17b19==(17)---|-(17)---(17)-(17)r-17---16---14---|
|-17p14h==17-------17p14---------17------------------|----------------------------------|
|----------------------------------------------------|----------------------------------|
|----------------------------------------------------|----------------------------------|
|----------------------------------------------------|----------------------------------|
|----------------------------------------------------|----------------------------------|
|
|  PM------------------------------------------------------------------------------------
|  E    E     E     Q          E     E             E     E  E   E    Q      E    E    E
|----------------------------------------------------|----------------------------------|
|----------------------------------------------------|----------------------------------|
|----------------------------------------------------|----------------------------------|
|----------------------------------------------------|----------------------------------|
|-------------------5----------------4---------------|---------------5-----------4------|
|--2----2-----2-----3----------0-----2---------------|---2--2---2----3------0----2------|


                         G5                 F#5
   a  a  a      Q    +E   +E       +E   +E   +E       +E       +Q   H.
|-------19b21==19---(19)r(19)b21==(19)-(19)r(19)b21==(19)r||==(19)---------------|
|----17---------------------------------------------------||o--------------------|
|-17------------------------------------------------------||---------------------|
|---------------------------------------------------------||---------------------|
|---------------------------------------------------------||o--------------------|
|---------------------------------------------------------||---------------------|
|
|----------------------------------------------------|
|               E E   E    Q             E    E        E        E E E E E E E E
|---------------------------------------------------------||---------------------|
|---------------------------------------------------------||o--------------------|
|---------------------------------------------------------||---------------------|
|---------------------------------------------------------||---------------------|
|--------------------------5------------------4-----------||o---2h3p2p0-2p0------|
|---------------2-2---2----3-------------0----2-----------||----------------3p2--|


  Gtrs I, II
  PM------------|                     PM----------|
  E E E E E E E E   E E E E E E E E   E E E E E E E E   E E E E E E E E
|-----------------|-----------------|-----------------|------------------|
|-----------------|-----------------|-----------------|------------------|
|-----------------|-----------------|-----------------|------------------|
|-----------------|-----------------|-----------------|------------------|
|-----------------|-2h3p2p0-2p0-----|-----------------|-2h3p2p0-2p0------|
|-2-2-2-5-2-0-2---|-------------3p2-|-2-2-2-5-2-0-2---|-------------3p2--|


                                            G5   F#5         G5   F#5
  PM----------|                       PM----------------------------|
  E E E E E E E E   E E E E E E E E   E E E Q  E E E   E E E Q  E E E
|-----------------|-----------------|----------------|-----------------|
|-----------------|-----------------|----------------|-----------------|
|-----------------|-----------------|----------------|-----------------|
|-----------------|-----------------|----------------|-----------------|
|-----------------|-2h3p2p0-2p0-----|-------5----4---|-------5----4----|
|-2-2-2-5-2-0-2---|-------------3p2-|-2-2-2-3--0-2---|-2-2-2-3--0-2----|


        G5   F#5         G5   F#5
  PM----------------------------|                           PM----------|
  E E E Q  E E E   E E E Q  E E E         E E E E E E E E   E E E E E E E E
|----------------|-----------------||-||------------------|-----------------|
|----------------|----------------o||-||o-----------------|-----------------|
|----------------|-----------------||-||------------------|-----------------|
|----------------|-----------------||-||------------------|-----------------|
|-------5----4---|-------5----4---o||-||o-2h3p2p0-2p0-----|-----------------|
|-2-2-2-3--0-2---|-2-2-2-3--0-2----||-||--------------3p2-|-2-2-2-5-2-0-2---|


                                                                PM----|
  E E E E E E E E   E E E E E E E E   E E E E E E E E   E E E E E E E E
|-----------------|-----------------|-----------------|------------------|
|-----------------|-----------------|-----------------|------------------|
|-----------------|-----------------|-----------------|------------------|
|-----------------|-----------------|-----------------|------------------|
|-2h3p2p0-2p0-----|-2-2-2-3-2p0-2p0-|-2h3p2p0-2-0---0-|-5-4-3-2----------|
|-------------3p2-|-----------------|-------------2---|---------5-3-2-1--|


                          G5   F#5         G5   F#5         G5   F#5
                    PM---------------------------------------------|
  E E E E E E E E   E E E Q  E E E   E E E Q  E E E   E E E Q  E E E
|-----------------|----------------|----------------|-----------------|
|-----------------|----------------|----------------|-----------------|
|-----------------|----------------|----------------|-----------------|
|-----------------|----------------|----------------|-----------------|
|-2h3p2p0-2p0-----|-------5----4---|-------5----4---|-------5----4----|
|-------------3p2-|-2-2-2-3--0-2---|-2-2-2-3--0-2---|-2-2-2-3--0-2----|


        G5   F#5           G5   F#5         G5   F#5         G5   F#5
  PM----------------------------------------------------------------|
  E E E Q  E E E  4x E E E Q  E E E   E E E Q  E E E   E E E Q  E E E
|-----------------||----------------|----------------|-----------------|
|----------------o||----------------|----------------|-----------------|
|-----------------||----------------|----------------|-----------------|
|-----------------||----------------|----------------|-----------------|
|-------5----4---o||-------5----4---|-------5----4---|-------5----4----|
|-2-2-2-3--0-2----||-2-2-2-3--0-2---|-2-2-2-3--0-2---|-2-2-2-3--0-2----|


                   Outro
        G5   F#5    F#5       G5   F#5        G5   F#5       G5
  PM-----------|          PM------------------|          PM--|
  E E E Q  E E E    Q  Q  E E Q    Q  E E E E Q    Q  Q  E E Q
|----------------||--------------|---------------|---------------|
|----------------||--------------|---------------|---------------|
|----------------||--------------|---------------|---------------|
|----------------||--------------|---------------|---------------|
|-------5----4---||-4--4----4-5--|-4----4---4-5--|-4--4----4-5---|
|-2-2-2-3--0-2---||-2--2--0-2-3--|-2--0-2-0-2-3--|-2--2--0-2-3---|


  F#5         C5   F#5       G5   F#5        G5
  PM  PM|   PM|          PM------------------|
  E E E E E E Q    Q  Q  E E Q    Q  E E E E Q
|----------------|--------------|---------------|
|----------------|--------------|---------------|
|----------------|--------------|---------------|
|-------------5--|--------------|---------------|
|-4-----4-----3--|-4--4----4-5--|-4----4---4-5--|
|-2---0-2---0----|-2--2--0-2-3--|-2--0-2-0-2-3--|


  F#5       G5   F#5   C5     F#5       G5   F#5        G5
                                    PM------------------|
  Q  Q  E E Q    Q  Q  H      Q  Q  E E Q    Q  E E E E Q
|--------------|------------|--------------|----------------|
|--------------|------------|--------------|----------------|
|--------------|------------|--------------|----------------|
|--------------|-------5----|--------------|----------------|
|-4--4----4-5--|-4-----3----|-4--4----4-5--|-4----4---4-5---|
|-2--2--0-2-3--|-2----------|-2--2--0-2-3--|-2--0-2-0-2-3---|


  F#5       G5   F#5         C5   F#5       G5
        PM-------|   PM|   PM|          PM--|
  Q  Q  E E Q    E E E E E E Q    Q  Q  E E Q
|--------------|----------------|--------------|
|--------------|----------------|--------------|
|--------------|----------------|--------------|
|--------------|-------------5--|--------------|
|-4--4----4-5--|-4-----4-----3--|-4--4----4-5--|
|-2--2--0-2-3--|-2---0-2---0----|-2--2--0-2-3--|


  F#5        G5   F#5       G5   F#5
  PM---------|
  Q  E E E E Q    Q  Q  E E Q    E Q.   H
|---------------|--------------|-------------*|
|---------------|--------------|-------------*|
|---------------|--------------|-------------*|
|---------------|--------------|-------------*|
|-4----4---4-5--|-4--4----4-5--|-4-----------*|
|-2--0-2-0-2-3--|-2--2--0-2-3--|-2-----------*|



Duration Legend
---------------
W - whole; H - half; Q - quarter; E - 8th; S - 16th; T - 32nd; X - 64th; a - acciaccatura
+ - note tied to previous; . - note dotted; .. - note double dotted
Uncapitalized letters represent notes that are staccato (1/2 duration)
Irregular groupings are notated above the duration line
Duration letters will always appear directly above the note/fret number it represents the
duration for.  Duration letters with no fret number below them represent rests.  Multi-
bar rests are notated in the form Wxn, where n is the number of bars to rest for.  Low
melody durations appear below the staff

Tablature Legend
----------------
 h   - hammer-on
 p   - pull-off
 b   - bend
 pb  - pre-bend
 r   - bend release (if no number after the r, then release immediately)
 /\  - slide into or out of (from/to "nowhere")
 s   - legato slide
 S   - shift slide
 - natural harmonic
[n]  - artificial harmonic
n(n) - tapped harmonic
 ~   - vibrato
 tr  - trill
 T   - tap
 TP  - trem. picking
 PM  - palm muting
\n/  - tremolo bar dip; n = amount to dip
 \n  - tremolo bar down
 n/  - tremolo bar up
/n\  - tremolo bar inverted dip
 =   - hold bend; also acts as connecting device for hammers/pulls
 <> - volume swell (louder/softer)
 x   - on rhythm slash represents muted slash
 o   - on rhythm slash represents single note slash

Misc Legend
-----------
 |  - bar
||  - double bar
||o - repeat start
o|| - repeat end
*|  - double bar (ending)
 :  - bar (freetime)
 $  - Segno
 &  - Coda
Tempo markers -  = BPM(8/16=s8/s16), where s8 = swing 8ths, s16 = swing 16ths

comments
We did not receive enough feedback on this tab! Please rate:
print report bad tab
1 2 3 4 5
1 comment total.
0 reply
fadetoblack84 wrote on August 15 2009, 09:07 pm

Albeit the spelling error in the title ( Peace, not Piece) This tab is freakin great lol. Its nearly perfect, i like it.

I want to post or [tab]
guest
You may want to rate the tab now too:
select rating
Please do not post tabs as comments. Select "correction" instead!