Oops, an error
Loading. Please wait.

Scorpion Tab

ver4
ver4

Whole song

More versions @911Tabs.com
2,020 views 6 this week
2 commentsread comments
1 2 3 4 5
excellent!
x 1
Autoscroll
+/-
esc
set tempo
stop
Contributor
Hey! There's an official Ultimate Guitar app which is ideal
for learning songs when you're away from computer. Get the app
WARNING: You are trying to view
                                    content from Ultimate-Guitar.com
                                    in an unauthorized application,
                                    which is prohibited.

                                    Please use an official Ultimate
                                    Guitar Tabs application for iPhone,
                                    iPad or Android to access legitimate
                                    chords, guitar, bass, and drum tabs
                                    from Ultimate-Guitar.com database.

                                    Type "ultimate guitar tabs" in Apple
                                    App Store's or Android Market's
                                    search to find the application.
Gtr I (E A D G B E) - 'Dave Mustaine Rhythm'
Gtr II (E A D G B E) - 'Dave Mustaine Solo'
Gtr III (E A D G B E) - 'Chris Poland'
Gtr IV (E A D G B E) - 'Dave Mustaine Clean'
Gtr V (E A D G B E) - 'Synth'
Gtr VI (E A D G B E) - 'Pick Scrape'


 Intro
  Q=103
  Em                      Fmaj7
 4/4
  Gtr I
  S S E E S S E E S S E   S S E E S S E E S S E
|-0-7-----0-7-----0-7---|-0-6-----0-6-----0-6---|
|-----8-------8-------8-|-----7-------7-------7-|
|-------9-------9-------|-------9-------9-------|
|-----------------------|-----------------------|
|-----------------------|-----------------------|
|-----------------------|-----------------------|
|
| Gtr III
| W                       W
|-----------------------|-----------------------|
|-----------------------|-----------------------|
|-----------------------|-----------------------|
|-----------------------|-----------------------|
|-----------------------|-----------------------|
|-----------------------|-----------------------|


  Em                      Fmaj7
  S S E E S S E E S S E   S S E E S S  E      E S S E
|-0-7-----0-7-----0-7---|-0-6-----0-6-----------0-6-----|
|-----8-------8-------8-|-----7--------7------------7---|
|-------9-------9-------|-------9-------------9---------|
|-----------------------|-------------------------------|
|-----------------------|-------------------------------|
|-----------------------|-------------------------------|
|
|                                                   PM|
| W                       H            S   S  E S S S S
|-----------------------|-------------------------------|
|-----------------------|-------------------------------|
|-----------------------|-------------------------------|
|-----------------------|-------------------------------|
|-----------------------|-------------<3>-<3>---2-0-----|
|-----------------------|---------------------------3-2-|


  $
  E5                      F#5                    E5
  S S E E S S E E S S E   S S E  E   S S E E S S E
|-0-7-----0-7-----0-7---|-0-6--------0-6-----0-6---|
|-----8-------8-------8-|-----7----------7-------7-|
|-------9-------9-------|--------9---------9-------|
|-----------------------|--------------------------|
|-----------------------|--------------------------|
|-----------------------|--------------------------|
|
| W                       Q     +E   H           E
|-----------------------|--------------------------|
|-----------------------|--------------------------|
|-----------------------|--------------------------|
|-----------------------|------------------------9-|
|-2---------------------|-4-----(4)\-------------7-|
|-0---------------------|-2-----(2)\---------------|


                          F#5
  S S E E S S E E S S E   S S E E S S E E S S E
|-0-7-----0-7-----0-7---|-0-6-----0-6-----0-6---|
|-----8-------8-------8-|-----7-------7-------7-|
|-------9-------9-------|-------9-------9-------|
|-----------------------|-----------------------|
|-----------------------|-----------------------|
|-----------------------|-----------------------|
|
| W                       W
|-----------------------|-----------------------|
|-----------------------|-----------------------|
|-----------------------|-----------------------|
|-9---------------------|-----------------------|
|-7---------------------|-4---------------------|
|-----------------------|-2---------------------|


    Em                      Fmaj7                     C5  A5  B5  G5F#5
    Gtr I
                                                                  PM|
    S S E E S S E E S S E   S S E E S S E E S S E  3x E E E E E E E E
||--0-7-----0-7-----0-7---|-0-6-----0-6-----0-6----||-----------------|
||o-----8-------8-------8-|-----7-------7-------7-o||-----------------|
||--------9-------9-------|-------9-------9--------||-----------------|
||------------------------|------------------------||---5---2---4-----|
||o-----------------------|-----------------------o||-3---0---2---5-4-|
||------------------------|------------------------||-------------3-2-|
|
|   Gtr IV                                            Gtr III
|                                                                 PM|
|   E   e e e   e e e   e   E   e e e   e e e   e  3x Q   Q   Q   E E
||------------------------|------------------------||-----------------|
||o-----------------------|-----------------------o||-----------------|
||------------------------|------------------------||-----------------|
||--------------5-2-5---2-|-------------4-2-4---2--||-5---2---4-------|
||o---------2-------------|---------1-------------o||-3---0---2---5-4-|
||------0-3---------------|-----0-2----------------||-------------3-2-|
|
|   Gtr V
|   E   e e e   e e e   e   E   e e e   e e e   e  3x W
||------------------------|------------------------||-----------------|
||o-------------8-5-8---5-|-------------7-5-7---5-o||-----------------|
||----------4-------------|---------3--------------||-----------------|
||------2-5---------------|-----2-4----------------||-----------------|
||o-----------------------|-----------------------o||-----------------|
||------------------------|------------------------||-----------------|


   Verse
    E5 F#5                E5 F#G5
    Gtr I
    E. S Q  S E S S S E   E. S Q  S E S S S E
||----------------------|---------------------|
||o---------------------|---------------------|
||----------------------|---------------------|
||----------------------|---------------------|
||o-2--4-4--x-x-x-x-x-x-|-2--4-5--x-x-x-x-x-x-|
||--0--2-2--x-x-x-x-x-x-|-0--2-3--x-x-x-x-x-x-|


                              To Coda
  G5 F#E5               B       D
                                     ~
  E. S Q  S E S S S E   E. S q  E. S Q     4x
|---------------------|--------------------||
|---------------------|-------------------o||
|---------------------|--------------------||
|---------------------|-1-------4----------||
|-5--4-2--x-x-x-x-x-x-|-2--1-0--5--4-3----o||
|-3--2-0--x-x-x-x-x-x-|--------------------||


 Solo (Mustaine)
  N.C.
  Gtr I
  E S S S S S S E S   S S e     S   E S S S S S S S   e       S   S   e     S
|---------------------------------|-------------------------------------------|
|---------------------------------|-------------------------------------------|
|---------------------------------|-------------------------------------------|
|---------------------------------|-------------------------------------------|
|-2-2-0-2-3-2-0-2-2---0-2-3-----0-|-2-2-0-2-3-2-0-2---3-------0---2---3-----0-|
|---------------------------------|-------------------------------------------|
|
| Gtr II                                        Gtr VI                    Gtr II
| ~~~~~~~~                          ~             TPTPTPTPTPTPTPTPTPTPTPTP
| Q     Q       E Q         +E      H             T T T T T T T T T T T T E
|---------------------------------|-------------------------------------------|
|---------------------------------|-------------------------------------------|
|-----------------7b8-------(7)---|-------------------------------------------|
|---------------------------------|-7-------------------------------------7---|
|---------------9-----------------|-------------------------------------------|
|-7-----7-------------------------|---------------xsxsxsxsxsxsxsxsxsxsxsx-----|


   E      S   S    S   S    S   S   E     S   S   S   e       S
|-----------------------------------------------------------------|
|-----------------------------------------------------------------|
|-----------------------------------------------------------------|
|-----------------------------------------------------------------|
|--2------2---0----2---3----2---0---2-----2---0---2---3-------0---|
|-----------------------------------------------------------------|
|
|  |-3-|  |--3--|  |--3--|  |--3--| |-3-| |--3--| |--3--| |--3--|
|  S S S  S S   S  S S   S  S S   S S S S S S   S S S   S S S   S
|-----------------------------------------------------------------|
|-----------------------------------------------------------------|
|-----------------------------------------------------------------|
|-10p9p7-10p9p==7-------------------------------------------------|
|-----------------10p9p==7-10p9p==7-9p7p6-9p7p==6-----------------|
|-------------------------------------------------8p7p==5-8p7p==5-|


  E S S S S S S  S  e S S e S
|-------------------------------|
|-------------------------------|
|-------------------------------|
|-------------------------------|
|-2-2-0-2-3-2-0--2--3-0-2-3-0---|
|-------------------------------|
|
| ~~~~~~~~~~~~~~~TP~
| H             +H
|-------------------------------|
|-------------------------------|
|-------------------------------|
|-------------------------------|
|-------------------------------|
|-7-------------(7)-------------|


  E S S S S S S E    S S S e  S
|--------------------------------|
|--------------------------------|
|--------------------------------|
|--------------------------------|
|-2-2-0-2-3-2-0-2----2-0-2-3--0--|
|--------------------------------|
|
| ~
| Q     Q       S Q.         +S
|--------------------------------|
|--------------------------------|
|--------------------------------|
|-------9------------------------|
|---------------9----------------|
|-7---------------8----------(8)-|


  E S   S S S  S S    S    e    S    S    e     S
|-------------------------------------------------|
|-------------------------------------------------|
|-------------------------------------------------|
|-------------------------------------------------|
|-2-2---0-2-3--2-0----2----3----0----2----3-----0-|
|-------------------------------------------------|
|
|              |----3----|    |----3----|
| E S   E   S  E    E    E    E    E    E    S  S
|-------------------------------------------------|
|---------------------------------16--------19----|
|-8---/11-----14--------16-------------14------16-|
|---7-------9------13--------16-------------------|
|-------------------------------------------------|
|-------------------------------------------------|


  E      S    S   S    S   S    S   E      S    S   S    e        S
|---------------------------------------------------------------------|
|---------------------------------------------------------------------|
|---------------------------------------------------------------------|
|---------------------------------------------------------------------|
|-2------2----0---2----3---2----0---2------2----0---2----3--------0---|
|---------------------------------------------------------------------|
|
| |------6------| |-------6-------| |------6------| |-------6-------|
| S  S S S  S   S S  S   S S  S   S S  S S S  S   S S  S   S S  S   S
|---------------------------------------------------------------------|
|-7h10p7-7h10p==7-----------------------------------------------------|
|-----------------8h11p==8-8h11p==8-----------------------------------|
|-----------------------------------9h12p9-9h12p==9-------------------|
|---------------------------------------------------9h12p==9-9h12p==9-|
|---------------------------------------------------------------------|


                |---------6---------|   |---------6---------|
  E S S S S S S S   S   S   S   S   S   S   S   S   S   S   S
|-----------------------------------------------------------------|
|-----------------------------------------------------------------|
|---------------4p==2p==0-----------------------------------------|
|---------------------------4p==2p==0-----------------------------|
|-2-2-0-2-3-2-0-------------------------3p==2p==0-----------------|
|---------------------------------------------------3p==2p==0-----|
|
|               Gtr VI
| ~             TPTP  TP  TPTPTP  TP  TPTPTP  TP  TPTPTP  TP  TP
| H             T T   T   T T T   T   T T T   T   T T T   T   T
|-----------------------------------------------------------------|
|-----------------------------------------------------------------|
|-----------------------------------------------------------------|
|-----------------------------------------------------------------|
|-----------------------------------------------------------------|
|-7-------------xsxs==xs==xsxsxs==xs==xsxsxs==xs==xsxsxs==xs==x---|


   Chorus
    E5            D5E5       C5
                                PM--------------------|
    Q   Q   S E S S E +S     Q  S S S S S S S S S S S S
||------0------------------|----------------------------|
||o-----0------------------|----------------------------|
||-------------------------|----------------------------|
||----------------7s9-(9)\-|-5--------------------------|
||o-2--(2)--x-x-x-5s7-(7)\-|-3--3-3-3-3-3-3-2-0-2-3-2-0-|
||--0--(0)--x-x-x----------|----------------------------|


  E5            D5E5       C5
                              PM--------------------|
  Q   Q   S E S S E +S     Q  S S S S S S S S S S S S
|-----0------------------|-------------------------------||
|-----0------------------|------------------------------o||
|------------------------|-------------------------------||
|---------------7s9-(9)\-|-5-----------------------------||
|-2--(2)--x-x-x-5s7-(7)\-|-3--3-3-3-3-3-3-2-0-2-3-2-0---o||
|-0--(0)--x-x-x----------|-------------------------------||


  Em                      Fmaj7
  Gtr I
  S S E E S S E E S S E    S  S E E S S E E S S E
|-0-7-----0-7-----0-7---|--0--6-----0-6-----0-6---|
|-----8-------8-------8-|-------7-------7-------7-|
|-------9-------9-------|---------9-------9-------|
|-----------------------|-------------------------|
|-----------------------|-------------------------|
|-----------------------|-------------------------|
|
| Gtr III
| W                       +W
|-----------------------|-------------------------|
|-----------------------|-------------------------|
|-----------------------|-------------------------|
|-----------------------|-------------------------|
|-2---------------------|-(2)---------------------|
|-0---------------------|-(0)---------------------|


                                              D.S. al Coda
  Em                        Em
   S  S E E S S E E S S E    S  S E E S S  E      E S S E
|--0--7-----0-7-----0-7---|--0--6-----0-6-----------0-6------|
|-------8-------8-------8-|-------7--------7------------7----|
|---------9-------9-------|---------9-------------9----------|
|-------------------------|----------------------------------|
|-------------------------|----------------------------------|
|-------------------------|----------------------------------|
|
|                                                       PM|
| +W                        +H             S   S  E S S S S
|-------------------------|----------------------------------|
|-------------------------|----------------------------------|
|-------------------------|----------------------------------|
|-------------------------|----------------------------------|
|-(2)---------------------|-(2)-----------<3>-<3>---2-0------|
|-(0)---------------------|-(0)-------------------------3-2--|


 Solo (Mustaine)
  &
  N.C.
  Gtr I
  E S S S S S S E      S    S    S   e        S
|-------------------------------------------------|
|-------------------------------------------------|
|-------------------------------------------------|
|-------------------------------------------------|
|-2-2-0-2-3-2-0-2------2----0----2---3--------0---|
|-------------------------------------------------|
|
| Gtr II
| ~~~~~~~~
|               |------6------|  |------6-------|
| Q     Q       S  S S S  S   S  S S   S  S S   S
|-------------------------------------------------|
|-------------------------------------------------|
|-------------------------------------------------|
|-------------------------------------------7---8-|
|-----------------------------7h10p7---9-10-------|
|-7-----7-------7h10p7-9-10-----------------------|


   E    S  S  S  S S S S e S S e S
|----------------------------------|
|----------------------------------|
|----------------------------------|
|----------------------------------|
|--2----2--0--2--3-2-0-2-3-0-2-3-0-|
|----------------------------------|
|
|             ~~
|  E.     +S  H.
|----------------------------------|
|----------------------------------|
|-[7]b8---(7)----------------------|
|-------------9--------------------|
|----------------------------------|
|----------------------------------|


  E      S    S   S    S   S    S   E      S   S    S   e       S
|--------------------------------------------------------------------|
|--------------------------------------------------------------------|
|--------------------------------------------------------------------|
|--------------------------------------------------------------------|
|-2------2----0---2----3---2----0---2------2---0----2---3-------0----|
|--------------------------------------------------------------------|
|
| |------6------| |-------6-------| |-----6------|  |------6-------|
| S  S S S  S   S S  S   S S  S   S S S  S S S   S  S S   S S S    S
|--------------------------------------------------------------------|
|--------------------------------------------------------------------|
|--------------------------------------------------------------------|
|-9-10-7-9--------------------------7-9----7-------------------------|
|----------10---7-9-10---7-9------------10---7---9----7---9-7-9------|
|----------------------------10---7----------------10-------------10-|


  E S S S S S S  S  e S S e S
|-------------------------------|
|-------------------------------|
|-------------------------------|
|-------------------------------|
|-2-2-0-2-3-2-0--2--3-0-2-3-0---|
|-------------------------------|
|
| ~~~~~~~~~~~~~~~TP~
| H             +H
|-------------------------------|
|-------------------------------|
|-------------------------------|
|-------------------------------|
|-------------------------------|
|-7-------------(7)-------------|


    E S S  S S S S  E        S    S     S    e          S
|------------------------------------------------------------|
|------------------------------------------------------------|
|------------------------------------------------------------|
|------------------------------------------------------------|
|---2-2-0--2-3-2-0--2--------2----0-----2----3----------0----|
|------------------------------------------------------------|
|
|   ~~~~~~~~~
|                   |-------6--------|  |--------6---------|
|   Q      Q        S  S  S  S  S    S  S  S    S  S  S    S
|---------------------------------------------------------12-|
|--------------------------------------12------------13------|
|-----------------------------------12----12---14-16---------|
|---------13-------13h16p13-15-16----------------------------|
|-/14--------------------------------------------------------|
|------------------------------------------------------------|


   E        S   S  S  S S S S e S S e S
|---------------------------------------|
|---------------------------------------|
|---------------------------------------|
|---------------------------------------|
|--2--------2---0--2--3-2-0-2-3-0-2-3-0-|
|---------------------------------------|
|
|                  ~~~
|  E       +S   S  H.
|---------------------------------------|
|-15b15.5-(15)p12-----------------------|
|-----------------14--------------------|
|---------------------------------------|
|---------------------------------------|
|---------------------------------------|


   E       S    S  S   S      S        S  E        S    S  S    e               S
|---------------------------------------------------------------------------------|
|---------------------------------------------------------------------------------|
|---------------------------------------------------------------------------------|
|---------------------------------------------------------------------------------|
|--2-------2----0--2---3------2--------0--2--------2----0--2----3---------------0-|
|---------------------------------------------------------------------------------|
|
|  |----6-----|    |-------6-------|      |-----6-----|    |-------6--------|
|  S S  S  S  E    S S    S   S   +E      S  S  S  S  E    S  S    S   S   +E
|-11p8------------11p8-------------------14p11------------14p11-------------------|
|------10----10----------10-(10)-(10)/---------13----13-----------13-(13)-(13)/---|
|---------11-----------------11--(11)/------------14------------------14--(14)/---|
|---------------------------------------------------------------------------------|
|---------------------------------------------------------------------------------|
|---------------------------------------------------------------------------------|


                                            |------6------|  |-------6-------|
   E        S    S  S    S      S        S  S  S  S  S  S S  S  S  S  S   S  S
|--------------------------------------------------------------------------------|
|--------------------------------------------------------------------------------|
|-------------------------------------------4p=2p=0------------------------------|
|----------------------------------------------------4p=2p0----------------------|
|--2--------2----0--2----3------2--------0-------------------3p=2p=0-------------|
|---------------------------------------------------------------------3p==2p=0---|
|
|  |-----6-----|    |-------6--------|      |-----6-----|    |-----6------|
|  S  S  S  S  E    S  S    S   S   +E      S  S  S  S  E    S  S  S  S  +E
|-17p14------------17p14-------------------20p17------------20p17----------------|
|-------16----16-----------16-(16)-(16)/---------19----19---------19-------------|
|----------17------------------17--(17)/------------20---------------20-(20)-----|
|--------------------------------------------------------------------------------|
|--------------------------------------------------------------------------------|
|--------------------------------------------------------------------------------|


 Chorus
  E5             D5E5       C5
                                  PM--------------------|
   Q   Q   S E S S E +S       Q   S S S S S S S S S S S S
|------0------------------|-------------------------------|
|------0------------------|-------------------------------|
|-------------------------|-------------------------------|
|----------------7s9-(9)\-|---5---------------------------|
|--2--(2)--x-x-x-5s7-(7)\-|---3---3-3-3-3-3-3-2-0-2-3-2-0-|
|--0--(0)--x-x-x----------|-------------------------------|
|
|  ~~~~~~~~~~~~~~~~~~~~~~~~~~~~~~~~~~~~~~~~~~~~~~~~~~~~~~~~
|  W                         +W
|-------------------------|-------------------------------|
|-20----------------------|-(20)--------------------------|
|-21----------------------|-(21)--------------------------|
|-------------------------|-------------------------------|
|-------------------------|-------------------------------|
|-------------------------|-------------------------------|


  E5             D5E5       C5
                                  PM--------------------|
   Q   Q   S E S S E +S       Q   S S S S S S S S S S S S
|------0------------------|----------------------------------|
|------0------------------|----------------------------------|
|-------------------------|----------------------------------|
|----------------7s9-(9)\-|---5------------------------------|
|--2--(2)--x-x-x-5s7-(7)\-|---3---3-3-3-3-3-3-2-0-2-3-2-0----|
|--0--(0)--x-x-x----------|----------------------------------|
|
|~~~~~~~~~~~~~~~~~~~~~~~~~~~~~~~~
|  W                         +W
|-------------------------|----------------------------------|
|-------------------------|----------------------------------|
|-16----------------------|-(16)-----------------------------|
|-------------------------|----------------------------------|
|-------------------------|----------------------------------|
|-------------------------|----------------------------------|


  E5            D5E5       C5
  Gtr I
                              PM--------------------|
  Q   Q   S E S S E +S     Q  S S S S S S S S S S S S
|-----0------------------|----------------------------|
|-----0------------------|----------------------------|
|------------------------|----------------------------|
|---------------7s9-(9)\-|-5--------------------------|
|-2--(2)--x-x-x-5s7-(7)\-|-3--3-3-3-3-3-3-2-0-2-3-2-0-|
|-0--(0)--x-x-x----------|----------------------------|


  E5            D5E5       C5
                              PM--------------------|
  Q   Q   S E S S E +S     Q  S S S S S S S S S S S S
|-----0------------------|-------------------------------|
|-----0------------------|-------------------------------|
|------------------------|-------------------------------|
|---------------7s9-(9)\-|-5-----------------------------|
|-2--(2)--x-x-x-5s7-(7)\-|-3--3-3-3-3-3-3-2-0-2-3-2-0----|
|-0--(0)--x-x-x----------|-------------------------------|


 Solo (Mustaine)
  F#5            E5F#5        N.C.
  Gtr I
                                                       |-3-|
   Q   Q   S E S S  E  +S      H            +E         S S S  S S S S
|------2--------------------|-----------------------------------------|
|------2--------------------|-----------------------------------------|
|---------------------------|-----------------------------------------|
|----------------9s11-(11)\-|---------------------------------4-------|
|--4--(4)--x-x-x-7s=9--(9)\-|--3tr4---------(3tr4)-----0-2-3----3-2-0-|
|--2--(2)--x-x-x------------|-----------------------------------------|
|
| Gtr II
|  TP                          ~~~~~~~~~~~~~~~~~~~~~~~~~~~~~~~~~
|  W                           E.    E.  E.         E.        Q
|---------------------------|-----------------------------------------|
|-14------------------------|-----------------------------------------|
|---------------------------|-16----16--16---------16--------16-------|
|---------------------------|-----------------------------------------|
|---------------------------|-----------------------------------------|
|---------------------------|-----------------------------------------|


  F#5                                               E5    F#5
   Q              Q                 S     E       S  S     E     +S
|-----------------2---------------------------------------------------|
|-----------------2---------------------------------------------------|
|---------------------------------------------------------------------|
|----------------------------------------------------9s===11----(11)\-|
|--4-------------(4)----------------x-----x-------x--7s====9-----(9)\-|
|--2-------------(2)----------------x-----x-------x-------------------|
|
|  S  S     S  S  T  T  S     S  S  T  T  S     E    T  T  S  S   S
|-------------14----------------14------------------------------------|
|----------14----17p14-------14----17p14-------14---------------------|
|-14-16b18-------------16b18-------------16b18------17p16p14----------|
|------------------------------------------------------------16--14---|
|---------------------------------------------------------------------|
|---------------------------------------------------------------------|


  N.C.
                            |-3-|
   H             +E         S S S  S S S S
|------------------------------------------|
|------------------------------------------|
|------------------------------------------|
|----------------------------------4-------|
|--3tr4----------(3tr4)-----0-2-3----3-2-0-|
|------------------------------------------|
|
|  ~~~~~~~~~~~~~~~~~~~~~~~~~~~~~~~~~~
|  E.    +E.  E.         E.        Q
|------------------------------------------|
|------------------------------------------|
|------------------------------------------|
|------------------------------------------|
|-15----(15)-15---------15--------15-------|
|------------------------------------------|


  F#5                                                          E5    F#5
   Q                  Q                   S    E          S     S     E             +S
|---------------------2--------------------------------------------------------------------|
|---------------------2--------------------------------------------------------------------|
|------------------------------------------------------------------------------------------|
|---------------------------------------------------------------9s===11------------(11)\---|
|--4-----------------(4)------------------x----x----------x-----7s====9-------------(9)\---|
|--2-----------------(2)------------------x----x----------x--------------------------------|
|
|  T                  T                   T          T          T
|  |-------6-------|  |-------6--------|  |--------6---------|  |-----------6------------|
|  S  S  S a  S  S S  S   S  S a  S  S S  S  S    S  S  S    S  S  S     S a  S  S       S
|-17-14p12p9h14p12p9-17--14p12p9h14p12p9-17-14p==12-19p14p==12-17-14p===12p9h14p12p======9-|
|------------------------------------------------------------------------------------------|
|------------------------------------------------------------------------------------------|
|------------------------------------------------------------------------------------------|
|------------------------------------------------------------------------------------------|
|------------------------------------------------------------------------------------------|


  N.C.
                         |-3-|
   H              +E     S S S  S     S S S
|---------------------------------------------|
|---------------------------------------------|
|---------------------------------------------|
|-------------------------------4-------------|
|--3tr4-----------(3tr4)-0-2-3--------3-2-0---|
|---------------------------------------------|
|
|  Q       Q       Q            Q
|---------------------------------------------|
|-13tr14--------------------------------------|
|---------14tr15------------------------------|
|-----------------15tr16----------------------|
|------------------------------15tr16---------|
|---------------------------------------------|


  F#5                                                     E5    F#5               N.C.
   Q               Q                 S    E          S     S     E           +S
|------------------2-----------------------------------------------------------------|
|------------------2-----------------------------------------------------------------|
|------------------------------------------------------------------------------------|
|----------------------------------------------------------9s===11----------(11)\----|
|--4--------------(4)----------------x----x----------x-----7s====9-----------(9)\----|
|--2--------------(2)----------------x----x----------x-------------------------------|
|
|  |-----6------|  |------6-------|  |--------6---------|  |-----------6-----------|
|  S S  S  S S  S  S  S  S  S  S  S  S  S    S  S  S    S  S  S     S  S  S        S
|-12p9-14p12p9-15p13p10-15p13p10-16p14p11---16p14p11---17p15p12----17p15p12-------18-|
|------------------------------------------------------------------------------------|
|------------------------------------------------------------------------------------|
|------------------------------------------------------------------------------------|
|------------------------------------------------------------------------------------|
|------------------------------------------------------------------------------------|


                                 |--3--|
   Q.                            S  S  S  S    S     S    S     S    S     S    S
|-----------------------------------------------------------------------------------|
|-----------------------------------------------------------------------------------|
|-----------------------------------------------------------------------------------|
|-----------------------------------------4-----------------------------------------|
|--3tr4--------------------------0--2--3-------3-----2----0-----3----2-----0--------|
|-------------------------------------------------------------------------------3---|
|
|  |--------6--------|  |------6-------|  |--------6---------|  |------6------|
|  S     S  S  S  S  S  S  S  S  S  S  S  S  S    S  S  S    S  S  S    S  S  E
|-16p===13-18p16p13-19p17p14-19p17p14-20p18p15---20p18p15---21p19p16---21p19p16-----|
|-----------------------------------------------------------------------------------|
|-----------------------------------------------------------------------------------|
|-----------------------------------------------------------------------------------|
|-----------------------------------------------------------------------------------|
|-----------------------------------------------------------------------------------|


 Chorus
  E5                              D5E5       C5
                                                         PM-------------------------------------|
   Q           Q         S    E S S E +S      Q          S S  S    S  S    S  S    S  S     S S S
|--------------0---------------------------|------------------------------------------------------|
|--------------0---------------------------|------------------------------------------------------|
|------------------------------------------|------------------------------------------------------|
|---------------------------------7s9-(9)\-|--5---------------------------------------------------|
|--2----------(2)--------x----x-x-5s7-(7)\-|--3----------3-3--3----3--3----3--2----0--2-----3-2-0-|
|--0----------(0)--------x----x-x----------|------------------------------------------------------|
|
|  ~~~~~~~~~~~~~~~~~~~~~~~~~~~~~~~~~~~~~~~~~~~~~~~~~~~~~~~~~~~~~~~~~~~~~~~~~~~~~~~~~~~~~~~~~~~~~~~~
|  E.    E.        E     H                    E.    E.        E       E       E       Q
|-22b24-22b24-----22b24-22b24--------------|-22b24-22b24-----22b24---22b24---22b24---24b26========|
|------------------------------------------|------------------------------------------------------|
|------------------------------------------|------------------------------------------------------|
|------------------------------------------|------------------------------------------------------|
|------------------------------------------|------------------------------------------------------|
|------------------------------------------|------------------------------------------------------|


  E5                   D5E5       C5
                                        PM--------------------|
    Q     Q     S  E S S E +S       Q   S S S S S S S S S S S S
|---------0---------------------|----------------------------------|
|---------0---------------------|----------------------------------|
|-------------------------------|----------------------------------|
|----------------------7s9-(9)\-|---5------------------------------|
|---2----(2)----x--x-x-5s7-(7)\-|---3---3-3-3-3-3-3-2-0-2-3-2-0----|
|---0----(0)----x--x-x----------|----------------------------------|
|
|~~~~~~~~~~~~~~~~~~~~~~~~~~~~~~~~~~~~~~
|  +Q    +Q    +H                  +W
|-(24)--(24)r=(24)--------------|-(24)-----------------------------|
|-------------------------------|----------------------------------|
|-------------------------------|----------------------------------|
|-------------------------------|----------------------------------|
|-------------------------------|----------------------------------|
|-------------------------------|----------------------------------|


  E5                   D5E5       C5
                                       PM------------------------|
    Q    Q   S E     S S E +S      Q   S S  S S S S S S S S   S  S
|--------0----------------------|----------------------------------|
|--------0----------------------|----------------------------------|
|-------------------------------|----------------------------------|
|----------------------7s9-(9)\-|--5-------------------------------|
|---2---(2)--x-x-----x-5s7-(7)\-|--3---3-3--3-3-3-3-2-0-2-3---2--0-|
|---0---(0)--x-x-----x----------|----------------------------------|
|
|   ~~~~~~~~~~~~~~~~~~~~~~~~~~~~~~~~~~~~~~~~~~~~~~~~~~~~~~~~~~~~~~~~
|  +Q    Q.       Q.               Q.       H                +E
|-(24)--------------------------|----------------------------------|
|-------22-------20-------------|-19-------17---------------(17)---|
|-------------------------------|----------------------------------|
|-------------------------------|----------------------------------|
|-------------------------------|----------------------------------|
|-------------------------------|----------------------------------|


  E5               D5    E5       C5
                                       PM------------------------|
    Q    Q   S E S  S    E +S      Q   S S  S  S S S S S  S  S S S
|--------0----------------------|------------------------------------|
|--------0----------------------|------------------------------------|
|-------------------------------|------------------------------------|
|-------------------7s===9-(9)\-|--5---------------------------------|
|---2---(2)--x-x-x--5s===7-(7)\-|--3---3-3--3--3-3-3-2-0--2--3-2-0---|
|---0---(0)--x-x-x--------------|------------------------------------|
|
|~~~~~~~~~~~~~~~~~~~~~~~~~~~~~~~~~~~~~~~~~~~~~~~~~~~~~~~~~~~~
|  +H.              Q              Q.       Q.            Q
|-------------------------------|------------------------------------|
|-(17)-------------20b22--------|-20-------19------------18\---------|
|-------------------------------|------------------------------------|
|-------------------------------|------------------------------------|
|-------------------------------|------------------------------------|
|-------------------------------|------------------------------------|


   Verse
    E5 F#5                E5 F#G5
    Gtr I
    E. S Q  S E S S S E   E. S Q  S E S S S E
||----------------------|---------------------|
||o---------------------|---------------------|
||----------------------|---------------------|
||----------------------|---------------------|
||o-2--4-4--x-x-x-x-x-x-|-2--4-5--x-x-x-x-x-x-|
||--0--2-2--x-x-x-x-x-x-|-0--2-3--x-x-x-x-x-x-|


  G5 F#E5               B       D
                                     ~
  E. S Q  S E S S S E   E. S q  E. S Q     4x
|---------------------|--------------------||
|---------------------|-------------------o||
|---------------------|--------------------||
|---------------------|-1-------4----------||
|-5--4-2--x-x-x-x-x-x-|-2--1-0--5--4-3----o||
|-3--2-0--x-x-x-x-x-x-|--------------------||


 Outro
  Em                      Fmaj7
  Gtr I
  S S E E S S E E S S E    S  S E E S S E E S S E
|-0-7-----0-7-----0-7---|--0--6-----0-6-----0-6---|
|-----8-------8-------8-|-------7-------7-------7-|
|-------9-------9-------|---------9-------9-------|
|-----------------------|-------------------------|
|-----------------------|-------------------------|
|-----------------------|-------------------------|
|
| Gtr III
| W                       +W
|-----------------------|-------------------------|
|-----------------------|-------------------------|
|-----------------------|-------------------------|
|-----------------------|-------------------------|
|-2---------------------|-(2)---------------------|
|-0---------------------|-(0)---------------------|


  Em                        Fmaj7
   S  S E E S S E E S S E    S  S E E S S  E      E S S E
|--0--7-----0-7-----0-7---|--0--6-----0-6-----------0-6------|
|-------8-------8-------8-|-------7--------7------------7----|
|---------9-------9-------|---------9-------------9----------|
|-------------------------|----------------------------------|
|-------------------------|----------------------------------|
|-------------------------|----------------------------------|
|
|                                                       PM|
| +W                        +H             S   S  E S S S S
|-------------------------|----------------------------------|
|-------------------------|----------------------------------|
|-------------------------|----------------------------------|
|-------------------------|----------------------------------|
|-(2)---------------------|-(2)-----------<3>-<3>---2-0------|
|-(0)---------------------|-(0)-------------------------3-2--|


  E5                      F#5                    E5
  S S E E S S E E S S E   S S E  E   S S E E S S E
|-0-7-----0-7-----0-7---|-0-6--------0-6-----0-6---|
|-----8-------8-------8-|-----7----------7-------7-|
|-------9-------9-------|--------9---------9-------|
|-----------------------|--------------------------|
|-----------------------|--------------------------|
|-----------------------|--------------------------|
|
| W                       Q     +E   H           E
|-----------------------|--------------------------|
|-----------------------|--------------------------|
|-----------------------|--------------------------|
|-----------------------|------------------------9-|
|-2---------------------|-4-----(4)\-------------7-|
|-0---------------------|-2-----(2)\---------------|


                          F#5
  S S E E S S E E S S E   S S E E S S E E S S E
|-0-7-----0-7-----0-7---|-0-6-----0-6-----0-6---|
|-----8-------8-------8-|-----7-------7-------7-|
|-------9-------9-------|-------9-------9-------|
|-----------------------|-----------------------|
|-----------------------|-----------------------|
|-----------------------|-----------------------|
|
| W                       W
|-----------------------|-----------------------|
|-----------------------|-----------------------|
|-----------------------|-----------------------|
|-9---------------------|-----------------------|
|-7---------------------|-4---------------------|
|-----------------------|-2---------------------|


    Em                      Fmaj7
    S S E E S S E E S S E   S S E E S S E E S S E
||--0-7-----0-7-----0-7---|-0-6-----0-6-----0-6---|
||o-----8-------8-------8-|-----7-------7-------7-|
||--------9-------9-------|-------9-------9-------|
||------------------------|-----------------------|
||o-----------------------|-----------------------|
||------------------------|-----------------------|
|
|   Gtr IV
|   E   e e e   e e e   e   E   e e e   e e e   e
||------------------------|-----------------------|
||o-----------------------|-----------------------|
||------------------------|-----------------------|
||--------------5-2-5---2-|-------------4-2-4---2-|
||o---------2-------------|---------1-------------|
||------0-3---------------|-----0-2---------------|
|
|   Gtr V
|   E   e e e   e e e   e   E   e e e   e e e   e
||------------------------|-----------------------|
||o-------------8-5-8---5-|-------------7-5-7---5-|
||----------4-------------|---------3-------------|
||------2-5---------------|-----2-4---------------|
||o-----------------------|-----------------------|
||------------------------|-----------------------|


  Em                      Fmaj7
  S S E E S S E E S S E   S S E E S S E E S S E
|-0-7-----0-7-----0-7---|-0-6-----0-6-----0-6------||
|-----8-------8-------8-|-----7-------7-------7---o||
|-------9-------9-------|-------9-------9----------||
|-----------------------|--------------------------||
|-----------------------|-------------------------o||
|-----------------------|--------------------------||
|
| E   e e e   e e e   e   E   e e e   e e e   e
|-----------------------|--------------------------||
|-----------------------|-------------------------o||
|-----------------------|--------------------------||
|-------------5-2-5---2-|-------------4-2-4---2----||
|---------2-------------|---------1---------------o||
|-----0-3---------------|-----0-2------------------||
|
| E   e e e   e e e   e   E   e e e   e e e   e
|-----------------------|--------------------------||
|-------------8-5-8---5-|-------------7-5-7---5---o||
|---------4-------------|---------3----------------||
|-----2-5---------------|-----2-4------------------||
|-----------------------|-------------------------o||
|-----------------------|--------------------------||




--------------------------------------------------------------------------------


Duration Legend
---------------
W - whole; H - half; Q - quarter; E - 8th; S - 16th; T - 32nd; X - 64th; a - acciaccatura
+ - note tied to previous; . - note dotted; .. - note double dotted
Uncapitalized letters represent notes that are staccato (1/2 duration)
Irregular groupings are notated above the duration line
Duration letters will always appear directly above the note/fret number it represents the
duration for.  Duration letters with no fret number below them represent rests.  Multi-
bar rests are notated in the form Wxn, where n is the number of bars to rest for.  Low
melody durations appear below the staff

Tablature Legend
----------------
 h   - hammer-on
 p   - pull-off
 b   - bend
 pb  - pre-bend
 r   - bend release (if no number after the r, then release immediately)
 /\  - slide into or out of (from/to "nowhere")
 s   - legato slide
 S   - shift slide
<n> - natural harmonic
[n]  - artificial harmonic
n(n) - tapped harmonic
 ~   - vibrato
 tr  - trill
 T   - tap
 TP  - trem. picking
 PM  - palm muting
\n/  - tremolo bar dip; n = amount to dip
 \n  - tremolo bar down
 n/  - tremolo bar up
/n\  - tremolo bar inverted dip
 =   - hold bend; also acts as connecting device for hammers/pulls
 <> - volume swell (louder/softer)
 x   - on rhythm slash represents muted slash
 o   - on rhythm slash represents single note slash

Misc Legend
-----------
 |  - bar
||  - double bar
||o - repeat start
o|| - repeat end
*|  - double bar (ending)
 :  - bar (freetime)
 $  - Segno
 &  - Coda
Tempo markers - <E/E./Q/Q./H/H.> = BPM(8/16=s8/s16), where s8 = swing 8ths, s16 = swing 16ths

comments
We did not receive enough feedback on this tab! Please rate:
print report bad tab
1 2 3 4 5
2 comments total.
0 reply
BringerOfMetal wrote on July 9 2007, 12:44 pm

Excellent tab! ☆☆☆☆☆
This is one of my fav's!
Keep it up!

0 reply
DRaGAONpie wrote on July 10 2007, 08:36 pm

thanx dude

I want to post or [tab]
guest
You may want to rate the tab now too:
select rating
Please do not post tabs as comments. Select "correction" instead!