Oops, an error
Loading. Please wait.

Set The World Afire Tab

ver3
ver3

Whole song

Interactive

More versions @911Tabs.com
2,674 views 3 this week
2 commentsread comments
1 2 3 4 5
worth learning
x 4
Autoscroll
+/-
esc
set tempo
stop
Contributor
Hey! There's an official Ultimate Guitar app which is ideal
for learning songs when you're away from computer. Get the app
WARNING: You are trying to view
                                    content from Ultimate-Guitar.com
                                    in an unauthorized application,
                                    which is prohibited.

                                    Please use an official Ultimate
                                    Guitar Tabs application for iPhone,
                                    iPad or Android to access legitimate
                                    chords, guitar, bass, and drum tabs
                                    from Ultimate-Guitar.com database.

                                    Type "ultimate guitar tabs" in Apple
                                    App Store's or Android Market's
                                    search to find the application.
#----------------------------------PLEASE NOTE---------------------------------#
#This file is the author's own work and represents their interpretation of the #
#song. You may only use this file for private study, scholarship, or research. #
#------------------------------------------------------------------------------#

SET THE WORLD AFIRE
As recorded by Megadeth
(From the 1988 Album SO FAR...SO GOOD...SO WHAT!)

Transcribed by Rick Dobbins
        

Words by Dave Mustaine Music by Megadeth
Arranged by Megadeth

Gtr I (E A D G B E) - 'Untitled'
Gtr II (E A D G B E) - 'Untitled'

 Intro
  Fast Rock Q=104
  N.C.
 4/4
  Gtr I
  W          W
|----------|------|
|----------|------|
|----------|------|
|----------|------|
|----------|------|
|----------|------|


  PM-----------------------------------------------
  |-3-| |-3-| |-3-| |-3-| |-3-| |-3-| |-3-| |-3-|
  S S S S S S S S S S S S S S S S S S S S S S S S
|-------------------------------------------------|
|-------------------------------------------------|
|-------------------------------------------------|
|-------------------------------------------------|
|-7-7-7-7-7-7-7-7-7-7-7-7-7-7-7-7-7-7-7-7-7-7-7-7-|
|-0-0-0-0-0-0-0-0-0-0-0-0-0-0-0-0-0-0-0-0-0-0-0-0-|


                                      F5
 -----------------------------------|
  |-3-| |-3-| |-3-| |-3-| |-3-| |-3-|  |--3--|
  S S S S S S S S S S S S S S S S S S  E  E  E
|-----------------------------------------------|
|-----------------------------------------------|
|-------------------------------------10-10-10--|
|-------------------------------------10-10-10--|
|-7-7-7-7-7-7-7-7-7-7-7-7-7-7-7-7-7-7--8--8--8--|
|-0-0-0-0-0-0-0-0-0-0-0-0-0-0-0-0-0-0-----------|


    E5
    PM-----------------------------------------------
    |-3-| |-3-| |-3-| |-3-| |-3-| |-3-| |-3-| |-3-|
    S S S S S S S S S S S S S S S S S S S S S S S S
||--------------------------------------------------|
||o-------------------------------------------------|
||--9-----------------------------------------------|
||--9-----------------------------------------------|
||o-7-7-7-7-7-7-7-7-7-7-7-7-7-7-7-7-7-7-7-7-7-7-7-7-|
||----0-0-0-0-0-0-0-0-0-0-0-0-0-0-0-0-0-0-0-0-0-0-0-|


                                      F5
 -----------------------------------|
  |-3-| |-3-| |-3-| |-3-| |-3-| |-3-|  |--3--|
  S S S S S S S S S S S S S S S S S S  E  E  E
|-----------------------------------------------||
|----------------------------------------------o||
|-------------------------------------10-10-10--||
|-------------------------------------10-10-10--||
|-7-7-7-7-7-7-7-7-7-7-7-7-7-7-7-7-7-7--8--8--8-o||
|-0-0-0-0-0-0-0-0-0-0-0-0-0-0-0-0-0-0-----------||


  E5
  Gtr I
  PM-----------------------------------------------
  |-3-| |-3-| |-3-| |-3-| |-3-| |-3-| |-3-| |-3-|
  S S S S S S S S S S S S S S S S S S S S S S S S
|-------------------------------------------------|
|-------------------------------------------------|
|-9-----------------------------------------------|
|-9-----------------------------------------------|
|-7-7-7-7-7-7-7-7-7-7-7-7-7-7-7-7-7-7-7-7-7-7-7-7-|
|---0-0-0-0-0-0-0-0-0-0-0-0-0-0-0-0-0-0-0-0-0-0-0-|
|
| Gtr II
| W
|-------------------------------------------------|
|-------------------------------------------------|
|-------------------------------------------------|
|-------------------------------------------------|
|-------------------------------------------------|
|-------------------------------------------------|


                                      D5    Eb5
 -----------------------------------------------|
  |-3-| |-3-| |-3-| |-3-| |-3-| |-3-| |-3-| |-3-|
  S S S S S S S S S S S S S S S S S S S S S S S S
|--------------------------------------------------|
|--------------------------------------------------|
|--------------------------------------------------|
|--------------------------------------------------|
|-7-7-7-7-7-7-7-7-7-7-7-7-7-7-7-7-7-7-7-7-7-7-7-7--|
|-0-0-0-0-0-0-0-0-0-0-0-0-0-0-0-0-0-0-0-0-0-0-0-0--|
|
| H                       Q           E     E
|--------------------------------------------------|
|--------------------------------------------------|
|-------------------------------------7-----8------|
|-------------------------------------7-----8------|
|-------------------------------------5-----6------|
|--------------------------------------------------|


    E5                                  F5
    PM--------------------------------------------------
    |-3-| |-3-| |-3-| |-3-| |-3-| |-3-|  |-3--| |-3--|
    S S S S S S S S S S S S S S S S S S  S S  S S  S S
||-----------------------------------------------------|
||o----------------------------------------------------|
||-----------------------------------------------------|
||-----------------------------------------------------|
||o-7-7-7-7-7-7-7-7-7-7-7-7-7-7-7-7-7-7--7-7--7-7--7-7-|
||--0-0-0-0-0-0-0-0-0-0-0-0-0-0-0-0-0-0--0-0--0-0--0-0-|
|
|                                        |----3----|
|   E     E     Q           Q            E    E    E
||-----------------------------------------------------|
||o----------------------------------------------------|
||--9-----------9-----------------------10---10---10---|
||--9-----------9-----------------------10---10---10---|
||o-7-----------7------------------------8----8----8---|
||--0-----------0--------------------------------------|


  E5                                  D5    Eb5
 -----------------------------------------------|
  |-3-| |-3-| |-3-| |-3-| |-3-| |-3-| |-3-| |-3-|
  S S S S S S S S S S S S S S S S S S S S S S S S  3x
|--------------------------------------------------||
|-------------------------------------------------o||
|--------------------------------------------------||
|--------------------------------------------------||
|-7-7-7-7-7-7-7-7-7-7-7-7-7-7-7-7-7-7-7-7-7-7-7-7-o||
|-0-0-0-0-0-0-0-0-0-0-0-0-0-0-0-0-0-0-0-0-0-0-0-0--||
|
| E     E     Q           Q           E     E      3x
|--------------------------------------------------||
|-------------------------------------------------o||
|-9-----------9-----------------------7-----8------||
|-9-----------9-----------------------7-----8------||
|-7-----------7-----------------------5-----6-----o||
|-0-----------0------------------------------------||


  E5                                  F5
  PM--------------------------------------------------
  |-3-| |-3-| |-3-| |-3-| |-3-| |-3-|  |-3--| |-3--|
  S S S S S S S S S S S S S S S S S S  S S  S S  S S
|----------------------------------------------------|
|----------------------------------------------------|
|----------------------------------------------------|
|----------------------------------------------------|
|-7-7-7-7-7-7-7-7-7-7-7-7-7-7-7-7-7-7--7-7--7-7--7-7-|
|-0-0-0-0-0-0-0-0-0-0-0-0-0-0-0-0-0-0--0-0--0-0--0-0-|
|
|                                      |----3----|
| E     E     Q           Q            E    E    E
|----------------------------------------------------|
|----------------------------------------------------|
|-9-----------9-----------------------10---10---10---|
|-9-----------9-----------------------10---10---10---|
|-7-----------7------------------------8----8----8---|
|-0-----------0--------------------------------------|


  E5                                  D5    Eb5
 9/8
 -----------------------------------------------------|
  |-3-| |-3-| |-3-| |-3-| |-3-| |-3-| |-3-| |-3-| |-3-|
  S S S S S S S S S S S S S S S S S S S S S S S S S S S
|-------------------------------------------------------|
|-------------------------------------------------------|
|-------------------------------------------------------|
|-------------------------------------------------------|
|-7-7-7-7-7-7-7-7-7-7-7-7-7-7-7-7-7-7-7-7-7-7-7-7-7-7-7-|
|-0-0-0-0-0-0-0-0-0-0-0-0-0-0-0-0-0-0-0-0-0-0-0-0-0-0-0-|
|
| E     E     Q           Q           E     E     E
|-------------------------------------------------------|
|-------------------------------------------------------|
|-9-----------9-----------------------7-----8-----------|
|-9-----------9-----------------------7-----8-----------|
|-7-----------7-----------------------5-----6-----------|
|-0-----------0-----------------------------------------|


                E5                    G5
   4/4
    |-3-| |-3-|     |-3-| |-3-| |-3-|       |-3-|
    S S S S S S S s S S S S S S S S S  S  s S S S
||------------------------------------------------|
||o-----------------------------------------------|
||--------------9-9-x-x-x-------------12-12-x-x-x-|
||--------------9-9-x-x-x-------------12-12-x-x-x-|
||o-------5-6-7-7-7-x-x-x-------5-6-7-10-10-x-x-x-|
||--5-6-7-----------------5-6-7-------------------|
|
|   Q           S s E     Q            S  s E
||------------------------------------------------|
||o-----------------------------------------------|
||--------------9-9-------------------12-12-------|
||--------------9-9-------------------12-12-------|
||o-------------7-7-------------------10-10-------|
||------------------------------------------------|


              E5                    G5
  |-3-| |-3-|     |-3-| |-3-| |-3-|       |-3-|
  S S S S S S S s S S S S S S S S S  S  s S S S
|--------------------------------------------------|
|--------------------------------------------------|
|-------------9-9-x-x-x-------------12-12-x-x-x----|
|-------------9-9-x-x-x-------------12-12-x-x-x----|
|-------5-5-6-7-7-x-x-x-------5-6-7-10-10-x-x-x----|
|-5-6-7-----------------5-6-7----------------------|
|
| Q           S s E     Q            S  s E
|--------------------------------------------------|
|--------------------------------------------------|
|-------------9-9-------------------12-12----------|
|-------------9-9-------------------12-12----------|
|-------------7-7-------------------10-10----------|
|--------------------------------------------------|


              E5                    G5
  |-3-| |-3-|     |-3-| |-3-| |-3-|       |-3-|
  S S S S S S S s S S S S S S S S S  S  s S S S
|-----------------------------------------------|
|-----------------------------------------------|
|-------------9-9-x-x-x-------------12-12-x-x-x-|
|-------------9-9-x-x-x-------------12-12-x-x-x-|
|-------5-6-7-7-7-x-x-x-------5-6-7-10-10-x-x-x-|
|-5-6-7-----------------5-6-7-------------------|
|
| Q           S s E     Q            S  s E
|-----------------------------------------------|
|-----------------------------------------------|
|-------------9-9-------------------12-12-------|
|-------------9-9-------------------12-12-------|
|-------------7-7-------------------10-10-------|
|-----------------------------------------------|


              E5    G5      D5
  |-3-| |-3-|                   |-3-|
  S S S S S S S s E  S  s E S s S S S   3x
|---------------------------------------||
|--------------------------------------o||
|-------------9-9---12-12---7-7-x-x-x---||
|-------------9-9---12-12---7-7-x-x-x---||
|-------5-5-6-7-7---10-10---5-5-x-x-x--o||
|-5-6-7---------------------------------||
|
| Q           S s E  S  s E S s E       3x
|---------------------------------------||
|--------------------------------------o||
|-------------9-9---12-12---7-7---------||
|-------------9-9---12-12---7-7---------||
|-------------7-7---10-10---5-5--------o||
|---------------------------------------||


              E5                    G5
  |-3-| |-3-|     |-3-| |-3-| |-3-|       |-3-|
  S S S S S S S s S S S S S S S S S  S  s S S S
|-----------------------------------------------|
|-----------------------------------------------|
|-------------9-9-x-x-x-------------12-12-x-x-x-|
|-------------9-9-x-x-x-------------12-12-x-x-x-|
|-------5-6-7-7-7-x-x-x-------5-6-7-10-10-x-x-x-|
|-5-6-7-----------------5-6-7-------------------|
|
| Q           S s E     Q            S  s E
|-----------------------------------------------|
|-----------------------------------------------|
|-------------9-9-------------------12-12-------|
|-------------9-9-------------------12-12-------|
|-------------7-7-------------------10-10-------|
|-----------------------------------------------|


              E5                    G5
  |-3-| |-3-|     |-3-| |-3-| |-3-|       |-3-|
  S S S S S S S s S S S S S S S S S  S  s S S S
|-------------------------------------------------|
|-------------------------------------------------|
|-------------9-9-x-x-x-------------12-12-x-x-x---|
|-------------9-9-x-x-x-------------12-12-x-x-x---|
|-------5-5-6-7-7-x-x-x-------5-6-7-10-10-x-x-x---|
|-5-6-7-----------------5-6-7---------------------|
|
| Q           S s E     Q            S  s E
|-------------------------------------------------|
|-------------------------------------------------|
|-------------9-9-------------------12-12---------|
|-------------9-9-------------------12-12---------|
|-------------7-7-------------------10-10---------|
|-------------------------------------------------|


              E5                    G5
  |-3-| |-3-|     |-3-| |-3-| |-3-|       |-3-|
  S S S S S S S s S S S S S S S S S  S  s S S S
|-----------------------------------------------|
|-----------------------------------------------|
|-------------9-9-x-x-x-------------12-12-x-x-x-|
|-------------9-9-x-x-x-------------12-12-x-x-x-|
|-------5-6-7-7-7-x-x-x-------5-6-7-10-10-x-x-x-|
|-5-6-7-----------------5-6-7-------------------|
|
| Q           S s E     Q            S  s E
|-----------------------------------------------|
|-----------------------------------------------|
|-------------9-9-------------------12-12-------|
|-------------9-9-------------------12-12-------|
|-------------7-7-------------------10-10-------|
|-----------------------------------------------|


              E5    G5      D5
 7/8
  |-3-| |-3-|
  S S S S S S S s E  S  s E S s
|-------------------------------||
|-------------------------------||
|-------------9-9---12-12---7-7-||
|-------------9-9---12-12---7-7-||
|-------5-5-6-7-7---10-10---5-5-||
|-5-6-7-------------------------||
|
| Q           S s E  S  s E S s
|-------------------------------||
|-------------------------------||
|-------------9-9---12-12---7-7-||
|-------------9-9---12-12---7-7-||
|-------------7-7---10-10---5-5-||
|-------------------------------||


    Double Time Q=208
    E5 Eb5C5  E5      B5 Eb5   Bb5
   4/4
    Gtrs I, II
              |-3-|      |-3-|
    Q  Q   Q  E E E   Q  E E E H     3x
||------------------|----------------||
||o-----------------|---------------o||
||--9--8------9-9-9-|----8-8-8-------||
||--9--8--10--9-9-9-|-9--8-8-8-8-----||
||o-7--6--10--7-7-7-|-9--6-6-6-8----o||
||---------8--------|-7--------6-----||


  E5 Eb5C5  E5      Eb5   E5
  Gtr I
            |-3-|   |-3-|
  Q  Q   Q  E E E   E E E H.
|-----------------|-------------|
|-----------------|-------------|
|-9--8------9-9-9-|-8-8-8-9-----|
|-9--8--10--9-9-9-|-8-8-8-9-----|
|-7--6--10--7-7-7-|-6-6-6-7-----|
|--------8--------|-------------|
|
| Gtr II
|           |-3-|   |-3-|
| Q  Q   Q  E E E   E E E H.
|-----------------|-------------|
|-----------------|-------------|
|-9--8------9-9-9-|-8-8-8-9-----|
|-9--8--10--9-9-9-|-8-8-8-9-----|
|-7--6--10--7-7-7-|-6-6-6-7-----|
|--------8--------|-------------|


 Pre-Verse
  Slower Q=172
  G5      E5    D5        Bb5 A5  G5
   E  E E E E E E E    E   E   Q   Q  S S S S
|-------------------|-------------------------|
|-------------------|-------------------------|
|-12--x-x-9-x-x-7-x-|--x--15\-14--12----------|
|-12--x-x-9-x-x-7-x-|--x--15\-14--12----------|
|-10--x-x-7-x-x-5-x-|--x--13\-12--10--7p5-----|
|-------------------|---------------------7p5-|
|
|  >
| +W                  +W
|-------------------|-------------------------|
|-------------------|-------------------------|
|-(9)---------------|-(9)---------------------|
|-(9)---------------|-(9)---------------------|
|-(7)---------------|-(7)---------------------|
|-------------------|-------------------------|


  G5     E5    D5      B5 Bb5   A5
   E E E E E E E E   E Q  E +E  Q.
|------------------|----------------|
|------------------|----------------|
|-12-x-x-9-x-x-7-x-|----------------|
|-12-x-x-9-x-x-7-x-|---9--8-(8)-7---|
|-10-x-x-7-x-x-5-x-|---9--8-(8)-7---|
|------------------|---7--6-(6)-5---|
|
|                               TP
|  W                 H       E  Q.
|------------------|----------------|
|------------------|----------------|
|------------------|------------x/--|
|------------------|------------x/--|
|------------------|------------x/--|
|------------------|----------------|


  G5     E5    D5        Bb5 A5  G5
   E E E E E E E E    E   E   Q   Q  S S S S
|------------------|-------------------------|
|------------------|-------------------------|
|-12-x-x-9-x-x-7-x-|--x--15\-14--12----------|
|-12-x-x-9-x-x-7-x-|--x--15\-14--12----------|
|-10-x-x-7-x-x-5-x-|--x--13\-12--10--7p5-----|
|------------------|---------------------7p5-|
|
|  W                 +W
|------------------|-------------------------|
|------------------|-------------------------|
|--9---------------|-(9)---------------------|
|--9---------------|-(9)---------------------|
|--7---------------|-(7)---------------------|
|------------------|-------------------------|


  G5     E5    D5      B5 Bb5   A5
   E E E E E E E E   E Q  E +E  Q.
|------------------|----------------||
|------------------|----------------||
|-12-x-x-9-x-x-7-x-|----------------||
|-12-x-x-9-x-x-7-x-|---9--8-(8)-7---||
|-10-x-x-7-x-x-5-x-|---9--8-(8)-7---||
|------------------|---7--6-(6)-5---||
|
|  W                 E Q  E +E  Q.
|------------------|----------------||
|------------------|----------------||
|------------------|----------------||
|------------------|---9--8-(8)-7---||
|------------------|---9--8-(8)-7---||
|------------------|---7--6-(6)-5---||


   Verse
    G5     E5    D5      Bb5 A5  G5
    Gtrs I, II
     E E E E E E E E   E  E   Q   Q  S S S S
||-------------------|-----------------------|
||o------------------|-----------------------|
||--12-x-x-9-x-x-7-x-|-x-15\-14--12----------|
||--12-x-x-9-x-x-7-x-|-x-15\-14--12----------|
||o-10-x-x-7-x-x-5-x-|-x-13\-12--10--7p5-----|
||-------------------|-------------------7p5-|


  G5     E5    D5      B5 Bb5   A5
   E E E E E E E E   E Q  E +E  Q.     4x
|------------------|-------------------||
|------------------|------------------o||
|-12-x-x-9-x-x-7-x-|-------------------||
|-12-x-x-9-x-x-7-x-|---9--8-(8)-7------||
|-10-x-x-7-x-x-5-x-|---9--8-(8)-7-----o||
|------------------|---7--6-(6)-5------||


  C#5   C5    G#5     G5              Eb5   B5    Bb5
  E E E E E E E E   E E E E E E E E   E E E E E E E E
|-----------------|-----------------|-----------------|
|-----------------|-----------------|-----------------|
|-----------------|-----------------|-----------------|
|-6-6-6-5-5-5-----|-----------------|-8-8-8-----------|
|-4-4-4-3-3-3-6-6-|-6-5-5-5-5-5-5-5-|-6-6-6-9-9-9-8-8-|
|-------------4-4-|-4-3-3-3-3-3-3-3-|-------7-7-7-6-6-|


    E5    C5  B5    C5    G#5   G5      F#5       G5
  E E E E E E E E   E E E E E E E E   E E E E E E S S S S
|-----------------|-----------------|----------------------||
|-----------------|-----------------|----------------------||
|-----------------|-----------------|----------------------||
|---9-9-9-5-5-4-4-|-5-5-5-----------|----------------------||
|-8-7-7-7-3-3-2-2-|-3-3-3-6-6-6-5-5-|-5-4-4-4-4-4-5-5-5-5--||
|-6---------------|-------4-4-4-3-3-|-3-2-2-2-2-2-3-3-3-3--||


 Verse
  E5  F5  E5F5 E5        F5 E5F5 E5        F5 E5F5 E5        F5
  E E E E E Q  E   +E  E Q  E Q  E   +E  E Q  E Q  E   +E  E Q  E Q  E
|----------------|-----------------|-----------------|-----------------|
|----------------|-----------------|-----------------|-----------------|
|----------------|-----------------|-----------------|-----------------|
|----------------|-----------------|-----------------|-----------------|
|-2-2-3-3-2-3--2-|-(2)-2-3--2-3--2-|-(2)-2-3--2-3--2-|-(2)-2-3----3--3-|
|-0-0-1-1-0-1--0-|-(0)-0-1--0-1--0-|-(0)-0-1--0-1--0-|-(0)-0-1----1--1-|


  E5  F5  E5F5 E5        F5 E5F5 E5        F5 E5F5 E5        F5   F5 E5
  E E E E E Q  E   +E  E Q  E Q  E   +E  E Q  E Q  E   +E  E Q  E Q  E
|----------------|-----------------|-----------------|-----------------|
|----------------|-----------------|-----------------|-----------------|
|----------------|-----------------|-----------------|-----------------|
|----------------|-----------------|-----------------|-----------------|
|-2-2-3-3-2-3--2-|-(2)-2-3--2-3--2-|-(2)-2-3--2-3--2-|-(2)-2-3----3--2-|
|-0-0-1-1-0-1--0-|-(0)-0-1--0-1--0-|-(0)-0-1--0-1--0-|-(0)-0-1----1--0-|


  E5 N.C.                            E5  F5  E5F5 E5        F5 E5F5 E5
  Gtr I
  Q   S  S  S  S  S  S  S  S  S E.   E E E E E Q  E   +E  E Q  E Q  E
|----------------15----------------|----------------|-----------------|
|-------------17----17-------------|----------------|-----------------|
|----------16----------16----------|----------------|-----------------|
|-------17----------------17-------|----------------|-----------------|
|-2--19----------------------19----|-2-2-3-3-2-3--2-|-(2)-2-3--2-3--2-|
|-0--------------------------------|-0-0-1-1-0-1--0-|-(0)-0-1--0-1--0-|
|
| Gtr II
| Q   Q           H                  E E E E E Q  E   +E  E Q  E Q  E
|----------------------------------|----------------|-----------------|
|----------------------------------|----------------|-----------------|
|----------------------------------|----------------|-----------------|
|----------------------------------|----------------|-----------------|
|-2--------------------------------|-2-2-3-3-2-3--2-|-(2)-2-3--2-3--2-|
|-0--------------------------------|-0-0-1-1-0-1--0-|-(0)-0-1--0-1--0-|


        F5 E5F5 E5        F5   F5     E5  F5  E5F5 E5
  Gtrs I, II
  +E  E Q  E Q  E   +E  E Q  E Q  E   E E E E E Q  E
|-----------------|-----------------|----------------|
|-----------------|-----------------|----------------|
|-----------------|-----------------|----------------|
|-----------------|-----------------|----------------|
|-(2)-2-3--2-3--2-|-(2)-2-3----3--3-|-2-2-3-3-2-3--2-|
|-(0)-0-1--0-1--0-|-(0)-0-1----1--1-|-0-0-1-1-0-1--0-|


        F5 E5F5 E5        F5 E5F5 E5        F5      E5  N.C.
                                                           TP
  +E  E Q  E Q  E   +E  E Q  E Q  E   +E  E Q  E Q  E   Q  H.
|-----------------|-----------------|-----------------|----------||
|-----------------|-----------------|-----------------|----------||
|-----------------|-----------------|-----------------|----------||
|-----------------|-----------------|-----------------|----x\----||
|-(2)-2-3--2-3--2-|-(2)-2-3--2-3--2-|-(2)-2-3----3--2-|----x\----||
|-(0)-0-1--0-1--0-|-(0)-0-1--0-1--0-|-(0)-0-1----1--0-|----x\----||


 Chorus
  Faster Q=224
  B5        D5            F5  E5    D5E5 D5   A5        C5
  Gtr I
  PM------------------|                       PM------------------|
  E S S E E S S S S E E    E. S +E  E Q  Q    E S S E E S S S S E E
|-----------------------|-------------------|------------------------|
|-----------------------|-------------------|------------------------|
|-----------------------|-------------------|------------------------|
|-----------------------|-10--9-(9)-7-9--7--|------------------------|
|-2-2-2-2-2-5-5-5-5-5-5-|--8--7-(7)-5-7--5--|------------------------|
|-----------------------|-------------------|-5-5-5-5-5-8-8-8-8-8-8--|
|
| Gtr II
| E S S E E S S S S E E    E. S +E  E Q  Q    E S S E E S S S S E E
|-----------------------|-------------------|------------------------|
|-----------------------|-------------------|------------------------|
|-----------------------|-------------------|------------------------|
|-4-4-4-4-4-7-7-7-7-7-7-|-10--9-(9)-7-9--7--|-2-2-2-2-2-5-5-5-5-5-5--|
|-2-2-2-2-2-5-5-5-5-5-5-|--8--7-(7)-5-7--5--|-0-0-0-0-0-3-3-3-3-3-3--|
|-----------------------|-------------------|------------------------|


  B5A5G5A5B5C5   G5             B5    F#5A5 F5 N.C.
  |-3-| |-3--|
  Q Q Q Q Q  Q   E S S E S S Q  Q     Q  Q  Q  E E
|--------------|--------------------|--------------||
|--------------|--------------------|--------------||
|--------------|--------------------|--------------||
|--------------|--------------------|----------2-0-||
|-9-7-5-7-9-10-|-5-5-5-5-5-5-5--9\--|-4--7--3------||
|-7-5-3-5-7--8-|-3-3-3-3-3-3-3--7\--|-2--5--1------||
|
| |-3-| |-3--|
| Q Q Q Q Q  Q   E S S E S S Q  Q     Q  Q  Q  E E
|--------------|--------------------|--------------||
|--------------|--------------------|--------------||
|--------------|--------------------|--------------||
|--------------|--------------------|----------2-0-||
|-9-7-5-7-9-10-|-5-5-5-5-5-5-5--9\--|-4--7--3------||
|-7-5-3-5-7--8-|-3-3-3-3-3-3-3--7\--|-2--5--1------||


   Interlude
    B5               C5   B5            A5 F#5
    Q     S S S S Q  Q    E S S S S S S Q  Q
||----------------------|---------------------|
||o---------------------|---------------------|
||----------------------|---x-x-x-x-x-x-------|
||--------4p2--------5--|-4-x-x-x-x-x-x-------|
||o-2---------5-4-2--3--|-2-x-x-x-x-x-x-7--4--|
||----------------------|---------------5--2--|
|
|   E S S E   S S Q  Q    E S S S S S S Q  Q
||----------------------|---------------------|
||o---------------------|---------------------|
||----------------------|---------------------|
||--4-4-4-4---4-4-4--5--|-4-4-4-4-4-4-4-------|
||o-2-2-2-2---2-2-2--3--|-2-2-2-2-2-2-2-7--4--|
||----------------------|---------------5--2--|


  B5               D5   B5            A5 F#5
  Q     S S S S Q  Q    E S S S S S S Q  Q
|---------------------|------------------------||
|---------------------|-----------------------o||
|---------------------|---x-x-x-x-x-x----------||
|-------4p2--------7--|-4-x-x-x-x-x-x----------||
|-2---------5-4-2--5--|-2-x-x-x-x-x-x-7--4----o||
|---------------------|---------------5--2-----||
|
| E S S E   S S Q  Q    E S S S S S S Q  Q
|---------------------|------------------------||
|---------------------|-----------------------o||
|---------------------|------------------------||
|-4-4-4-4---4-4-4--7--|-4-4-4-4-4-4-4----------||
|-2-2-2-2---2-2-2--5--|-2-2-2-2-2-2-2-7--4----o||
|---------------------|---------------5--2-----||


 Chorus
  B5        D5            F5  E5    D5E5 D5   A5        C5
  PM------------------|                       PM------------------|
  E S S E E S S S S E E    E. S +E  E Q  Q    E S S E E S S S S E E
|-----------------------|-------------------|------------------------|
|-----------------------|-------------------|------------------------|
|-----------------------|-------------------|------------------------|
|-----------------------|-10--9-(9)-7-9--7--|------------------------|
|-2-2-2-2-2-5-5-5-5-5-5-|--8--7-(7)-5-7--5--|------------------------|
|-----------------------|-------------------|-5-5-5-5-5-8-8-8-8-8-8--|
|
| E S S E E S S S S E E    E. S +E  E Q  Q    E S S E E S S S S E E
|-----------------------|-------------------|------------------------|
|-----------------------|-------------------|------------------------|
|-----------------------|-------------------|------------------------|
|-4-4-4-4-4-7-7-7-7-7-7-|-10--9-(9)-7-9--7--|-2-2-2-2-2-5-5-5-5-5-5--|
|-2-2-2-2-2-5-5-5-5-5-5-|--8--7-(7)-5-7--5--|-0-0-0-0-0-3-3-3-3-3-3--|
|-----------------------|-------------------|------------------------|


  B5A5G5A5B5C5   G5             B5    F#5A5 F5 N.C.
  |-3-| |-3--|
  Q Q Q Q Q  Q   E S S E S S Q  Q     Q  Q  Q  E E
|--------------|--------------------|--------------|
|--------------|--------------------|--------------|
|--------------|--------------------|--------------|
|--------------|--------------------|----------2-0-|
|-9-7-5-7-9-10-|-5-5-5-5-5-5-5--9\--|-4--7--3------|
|-7-5-3-5-7--8-|-3-3-3-3-3-3-3--7\--|-2--5--1------|
|
| |-3-| |-3--|
| Q Q Q Q Q  Q   E S S E S S Q  Q     Q  Q  Q  E E
|--------------|--------------------|--------------|
|--------------|--------------------|--------------|
|--------------|--------------------|--------------|
|--------------|--------------------|----------2-0-|
|-9-7-5-7-9-10-|-5-5-5-5-5-5-5--9\--|-4--7--3------|
|-7-5-3-5-7--8-|-3-3-3-3-3-3-3--7\--|-2--5--1------|


  B5
  E E E E +E  S S E E   E e E E a E E E S S
|-------2-(2)-1p0-----|---------------------|
|---------------------|---------------------|
|-----------------4-5-|-4-4-4-2-4p2---------|
|-4-------------------|-------------4-3-2p1-|
|-2-------------------|---------------------|
|---------------------|---------------------|
|
| E E Q    H            E E Q     H
|---------------------|---------------------|
|---------------------|---------------------|
|---------------------|---------------------|
|-4-------------------|-4-------------------|
|-2-------------------|-2-------------------|
|---------------------|---------------------|


                              BbA5
                            |-3-|
  E E E E E E S S E   Q  Q  Q Q Q
|-------------------|--------------||
|-------------------|--------------||
|-------------------|--------------||
|-------------------|-4------------||
|-2---2---2-------0-|-2-----9-8-7--||
|-------4---4-0h2---|-------7-6-5--||
|
|                           |-3-|
| E E Q   H           Q  Q  Q Q Q
|-------------------|--------------||
|-------------------|--------------||
|-------------------|--------------||
|-4-----------------|-4------------||
|-2-----------------|-2-----9-8-7--||
|-------------------|-------7-6-5--||


   Verse
    End of Double Time Feel Q=172
    F#5            G5   F#5      A5 C5 B5
    Gtrs I, II
    S S E Q  S S E Q    S S E Q  Q   E E
||--------------------|------------------|
||o-------------------|------------------|
||--------------------|------------------|
||--------------------|------------------|
||o-4-4-4-4--4-4-4-5--|-4-4-4-4--7--10-9-|
||--2-2-2-2--2-2-2-3--|-2-2-2-2--5---8-7-|


  F#5            G5   F#5      A5 C5
  S S E Q  S S E Q    S S E Q  Q   Q
|-------------------|--------------------||
|-------------------|-------------------o||
|-------------------|--------------------||
|-------------------|--------------------||
|-4-4-4-4--4-4-4-5--|-4-4-4-4--7--10----o||
|-2-2-2-2--2-2-2-3--|-2-2-2-2--5---8-----||


 Guitar Solo I
  A5                Bb5   A5          C5   EbD5
  Gtr I
  S S E   Q   S S E Q     S S E Q      Q   E E
|-----------------------|------------------------|
|-----------------------|------------------------|
|-----------------------|------------------------|
|-----------------------|------------------8S7---|
|-7-7-7---7---7-7-7-8---|-7-7-7-7-----10---6S5---|
|-5-5-5---5---5-5-5-6---|-5-5-5-5------8---------|
|
| Gtr II
| S S S S E E S S E E E   E   E S S E  E.S E S S
|-----------------------|------------------------|
|-4p3-------------------|------------------------|
|-----5-5-2-5-7p5---5---|------------------------|
|-----------------7---7-|-5----------------------|
|-----------------------|-----7-7p5----5p3-----3h|
|-----------------------|-----------8------5-5---|


  A5                    Bb5
  S S E Q       S S E    Q
|--------------------------------|
|--------------------------------|
|--------------------------------|
|--------------------------------|
|-7-7-7-7-------7-7-7----8-------|
|-5-5-5-5-------5-5-5----6-------|
|
| E   E S S S S S S S S +E  S S
|--------------------------------|
|--------------------------------|
|--------------------------------|
|---------------------5-(5)-5-7--|
|-5-----5-7-5---3-5S7------------|
|-----5-------5------------------|


  A5          C5   Eb5   A5                                     Bb5
  S S E Q     Q    Q      S    S E          Q          S    S E  Q
|----------------------|--------------------------------------------------|
|----------------------|--------------------------------------------------|
|----------------------|--------------------------------------------------|
|-------------5----8---|--------------------------------------------------|
|-7-7-7-7-----3----6---|--7----7-7----------7----------7----7-7--8--------|
|-5-5-5-5--------------|--5----5-5----------5----------5----5-5--6--------|
|
|                         ~~~~~~~~~~~~~~~~~~~~~~~~~~~~~~~~~~
| S S E E S S E Q    E    E.        S      +E    E     Q         E  E
|----------------------|-------------------------------------------22b24==|
|---------------8/-----|-20b22-----20b22==(20)r-20b22-20b22-----22--------|
|-5h7p5---7h9p7--------|--------------------------------------------------|
|----------------------|--------------------------------------------------|
|----------------------|--------------------------------------------------|
|----------------------|--------------------------------------------------|


  A5                 C5         Eb5  D5
    S   S E  Q        Q           E    E
|-----------------------------------------|
|-----------------------------------------|
|-----------------------------------------|
|---------------------------------8S===7--|
|---7---7-7--7-------10-----------6S===5--|
|---5---5-5--5--------8-------------------|
|
|  +Q        E  S  S  E.  S      +E   +E
|-(22)r-----------------------------------|
|-----------22-22-20-----20b22==(20)r(20)-|
|--------------------21-------------------|
|-----------------------------------------|
|-----------------------------------------|
|-----------------------------------------|


  A5                            Bb5     A5                C5         Eb5
   S S  E     Q      S  S  E     Q       S  S  E  Q         Q         Q
|-------------------------------------|-----------------------------------||
|-------------------------------------|-----------------------------------||
|-------------------------------------|-----------------------------------||
|-------------------------------------|---------------------5---------8---||
|--7-7--7-----7------7--7--7-----8----|--7--7--7--7---------3---------6---||
|--5-5--5-----5------5--5--5-----6----|--5--5--5--5-----------------------||
|
|  E    S  S  S  E.  S  S  S  S  E  E    S  S  E  S  S  E  +E   S  S  E E
|-------------------------------------|-----------------------------------||
|-------------------------------------|-----------------------------------||
|-21---21p20p19-17--19h20h21p20p19-17-|-20p19p17-19p17--------------------||
|-------------------------------------|----------------19-(19)-17p14------||
|-------------------------------------|------------------------------15---||
|-------------------------------------|-----------------------------------||


 Guitar Solo II
  Faster Q=224
  F#5              G5      F#5         A5    C5
  S S E Q   S  S E Q        S  S E Q   Q      Q
|------------------------|---------------------------|
|------------------------|---------------------------|
|------------------------|---------------------------|
|------------------------|---------------------------|
|-4-4-4-4---4--4-4-5-----|--4--4-4-4---7-----10------|
|-2-2-2-2---2--2-2-3-----|--2--2-2-2---5------8------|
|
| H        +Q      S E S   +Q      E.S E S S +S  S E
|------------------------|---------------------------|
|------------------------|---------------5p4-(4)-2---|
|-5--------(5)-----2---2-|-(2)-----4p2-------------2-|
|-7--------(7)-------4-2-|-(2)---------4-------------|
|------------------------|---------------------------|
|------------------------|---------------------------|


  F#5           G5
  S   S E Q     S S  E  Q
|-----------------------------|
|-----------------------------|
|-----------------------------|
|-----------------------------|
|-4---4-4-4-----5-5--5--5-----|
|-2---2-2-2-----3-3--3--3-----|
|
| E     E S S E E    E  S E S
|-----------------------------|
|-----------------------------|
|-4b5---4-4p2---2---[4]-------|
|-------------4-----------x-x-|
|-----------------------------|
|-----------------------------|


  F#5              A5      C5     F#5             A5    C5
  S  S E    Q      Q        Q      S  S E Q       Q      Q
|-------------------------------|---------------------------------|
|-------------------------------|---------------------------------|
|-------------------------------|---------------------------------|
|-------------------------------|---------------------------------|
|-4--4-4----4------7-------10---|--4--4-4-4-------7-----10--------|
|-2--2-2----2------5--------8---|--2--2-2-2-------5------8--------|
|
|                           ~~~~~~~~~~
| E.     S +E  S S S S S S +Q     +Q      S S S S S S E  S S S S
|-------------------------------|---------------------------------|
|-------------------------------|---------------------------------|
|-------------------------------|------------------------5h6p5h6--|
|-------------------------------|-----------------5p4h5-----------|
|-2------0-(0)-----3p2p0--------|---------3h4p3h4-----------------|
|--------------1-0-------2-(2)--|-(2)-----------------------------|


  F#5              A5   C5    F#5             A5          C5
  S S E    Q        Q    Q     S  S  E  Q      Q            Q
|---------------------------|-----------------------------------|
|---------------------------|-----------------------------------|
|---------------------------|-----------------------------------|
|---------------------------|-----------------------------------|
|-4-4-4----4--------7---10--|--4--4--4--4------7-----------10---|
|-2-2-2----2--------5----8--|--2--2--2--2------5------------8---|
|
|          T
| S E   S  S  S  E  Q    Q     S  E.    S  E.  S  S  S  S  +Q
|---------------------------|-----------------------------------|
|---------------------------|-----------------------------------|
|-9p6---9-21p18p16-14/--18--|-16p14-----------------------------|
|---------------------------|----------16p14-----14-------------|
|---------------------------|-----------------16----16p14-(14)--|
|---------------------------|-----------------------------------|


  G#5               A5
   S  S  E      Q     S  S E Q
|----------------------------------||
|----------------------------------||
|----------------------------------||
|----------------------------------||
|--6--6--6------6-----7--7-7-7-----||
|--4--4--4------4-----5--5-5-5-----||
|
|  S  S  S  S  +Q    +Q.       S S
|----------------------------------||
|----------------------------------||
|--------------------------------x-||
|------------------------------x---||
|-12h14p12-------------------------||
|----------14-(14)--(14)-----------||


  End of Double Time Feel Q=172
  G5       E5         D5         Bb5   A5     G5
   E E   E E    E E   E E      E  E     Q      Q     S S S S
|---------------------------|--------------------------------|
|---------------------------|--------------------------------|
|-12-x---x-9----x-x---7-x---|--x-15\---14-----12-------------|
|-12-x---x-9----x-x---7-x---|--x-15\---14-----12-------------|
|-10-x---x-7----x-x---5-x---|--x-13\---12-----10-----7p5-----|
|---------------------------|----------------------------7p5-|
|
|  e S S E S S  e S S E S S    e  S  S  E S S  e S S E   S S
|---------------------------|--------------------------------|
|-10-----------13-----------|-16--------------19-------------|
|----x-------x----x-------x-|-----x---------x----x---------x-|
|------x---x--------x---x---|--------x----x--------x-----x---|
|---------------------------|--------------------------------|
|---------------------------|--------------------------------|


  G5       E5         D5         B5    Bb5     A5
   E E   E E    E E   E E      E Q     E   +E  Q.
|---------------------------|------------------------|
|---------------------------|------------------------|
|-12-x---x-9----x-x---7-x---|------------------------|
|-12-x---x-9----x-x---7-x---|----9-----8---(8)-7-----|
|-10-x---x-7----x-x---5-x---|----9-----8---(8)-7-----|
|---------------------------|----7-----6---(6)-5-----|
|
|  E S S E S S  E S S E S S    E S S E S S  Q.     E
|--------------17-----------|-20-----------23--------|
|-19---------x----x-------x-|----x-------x-----------|
|----x-----x--------x---x---|------x---x-------------|
|------x--------------------|------------------------|
|---------------------------|------------------------|
|---------------------------|------------------------|


  G5               E5              D5        Bb5 A5   G5
   E    E     E    E     E    E     E E    E  E   Q    Q     S S   S   S
|----------------------------------------|-------------------------------|
|----------------------------------------|-------------------------------|
|-12----x-----x----9-----x----x-----7-x--|-x-15\-14---12-----------------|
|-12----x-----x----9-----x----x-----7-x--|-x-15\-14---12-----------------|
|-10----x-----x----7-----x----x-----5-x--|-x-13\-12---10-----7p5---------|
|----------------------------------------|-------------------------7p==5-|
|
|  |---3---|  |---3---|  |---3---|                     |-3-| |---3---|
|  E  E    E  E  E    E  E  E    E  E E    E  E   E E  E E E E   E   E
|----------------------------------------|-------------8-4---------------|
|----------------------------------------|-9--6------------7-------------|
|-13p11-----------------15p13---------8/-|--------7-4--------8---5-------|
|---------13p11-----------------15p13----|---------------------------7---|
|---------------14p==11------------------|-------------------------------|
|----------------------------------------|-------------------------------|


  G5           E5           D5             B5        Bb5       A5
   E   E   E   E    E   E   E   E      E   Q         E    +E   Q.
|-----------------------------------|-------------------------------------------||
|-----------------------------------|-------------------------------------------||
|-12---x---x---9----x---x---7---x---|-------------------------------------------||
|-12---x---x---9----x---x---7---x---|------9---------8----(8)--7----------------||
|-10---x---x---7----x---x---5---x---|------9---------8----(8)--7----------------||
|-----------------------------------|------7---------6----(6)--5----------------||
|
|  |--3--| |--3--|  |--3--| |--3--|    |--3---|  |--3---|  |---3---|  |-3--|
|  E E   E E E   E  E E   E E E   E    E E    E  E E    E  E E     E  E E  E
|--9p6-------------10p7-------------|-11p8----------------12p9------------------||
|--------8----------------9---------|--------10-------------------11------------||
|----------9p6--------------9p6-----|-----------10p7-----------------11p8-------||
|----------------8----------------8-|------------------10-----------------11----||
|-----------------------------------|-------------------------------------------||
|-----------------------------------|-------------------------------------------||


 Verse
  G5         E5              D5           Bb5   A5    G5
   E    E  E  E       E    E  E    E    E  E     Q     Q      S S  S    S
|------------------------------------|------------------------------------|
|------------------------------------|------------------------------------|
|-12----x--x--9-------x----x--7----x-|--x-15\---14----12------------------|
|-12----x--x--9-------x----x--7----x-|--x-15\---14----12------------------|
|-10----x--x--7-------x----x--5----x-|--x-13\---12----10------7p5---------|
|------------------------------------|-----------------------------7p===5-|
|
|  Q       E  E      +E    E  Q         E  Q        E  Q      E    E
|---------24--------------24---------|-24----------24--------24-----------|
|-22b24------22b24==(22)r----22b24---|----22b24-------22b24-------22b23r==|
|------------------------------------|------------------------------------|
|------------------------------------|------------------------------------|
|------------------------------------|------------------------------------|
|------------------------------------|------------------------------------|


  G5        E5              D5           B5     Bb5      A5
    E  E  E  E       E    E  E    E    E  Q      E +E    Q.
|-----------------------------------|-----------------------------------|
|-----------------------------------|-----------------------------------|
|--12--x--x--9-------x----x--7----x-|-----------------------------------|
|--12--x--x--9-------x----x--7----x-|-----9------8-(8)---7--------------|
|--10--x--x--7-------x----x--5----x-|-----9------8-(8)---7--------------|
|-----------------------------------|-----7------6-(6)---5--------------|
|
|  +Q     E  E      +E    E  Q         E  Q      E  Q        E  E
|--------24--------------24---------|-24--------24----------24----------|
|-(22)------22b24==(22)r----22b24---|----22b24-----22b24-------22b23====|
|-----------------------------------|-----------------------------------|
|-----------------------------------|-----------------------------------|
|-----------------------------------|-----------------------------------|
|-----------------------------------|-----------------------------------|


  G5         E5         D5        Bb5 A5    G5
    E   E  E  E   E   E  E E    E  E   Q     Q   S S  S     S
|----------------------------|--------------------------------|
|----------------------------|--------------------------------|
|--12---x--x--9---x---x--7-x-|--x-15\-14----12----------------|
|--12---x--x--9---x---x--7-x-|--x-15\-14----12----------------|
|--10---x--x--7---x---x--5-x-|--x-13\-12----10---7p5----------|
|----------------------------|------------------------7p====5-|
|
|  +Q      E  E  +E   E  Q      E  Q      E  Q   E    E
|---------24---------24------|-24--------24-----24------------|
|-(22)r------22-(22)----22---|----22--------22-------22b24====|
|----------------------------|--------------------------------|
|----------------------------|--------------------------------|
|----------------------------|--------------------------------|
|----------------------------|--------------------------------|


  G5         E5              D5           B5     Bb5      A5
    E   E  E  E       E    E  E    E    E  Q      E +E    Q.
|------------------------------------|--------------------------|
|------------------------------------|--------------------------|
|--12---x--x--9-------x----x--7----x-|--------------------------|
|--12---x--x--9-------x----x--7----x-|-----9------8-(8)---7-----|
|--10---x--x--7-------x----x--5----x-|-----9------8-(8)---7-----|
|------------------------------------|-----7------6-(6)---5-----|
|
|  +Q      E  E      +E    E  Q         E  Q      E  Q        Q
|---------24--------------24---------|-24--------24----------24-|
|-(22)r------22b24==(22)r----22b24---|----22b24-----22b24-------|
|------------------------------------|--------------------------|
|------------------------------------|--------------------------|
|------------------------------------|--------------------------|
|------------------------------------|--------------------------|


  G5         E5    D5          Bb5 A5  G5
   E     E E E E E E E     E    E   Q   Q  S S S S
|----------------------|---------------------------|
|----------------------|---------------------------|
|-12-----x-x-9-x-x-7-x-|---x---15\-14--12----------|
|-12-----x-x-9-x-x-7-x-|---x---15\-14--12----------|
|-10-----x-x-7-x-x-5-x-|---x---13\-12--10--7p5-----|
|----------------------|-----------------------7p5-|
|
|  W                      +W
|----------------------|---------------------------|
|-23b25================|=(23)r---------------------|
|----------------------|---------------------------|
|----------------------|---------------------------|
|----------------------|---------------------------|
|----------------------|---------------------------|


  G5     E5    D5      B5 Bb5   A5
   E E E E E E E E   E Q  E +E  Q.
|------------------|----------------|
|------------------|----------------|
|-12-x-x-9-x-x-7-x-|----------------|
|-12-x-x-9-x-x-7-x-|---9--8-(8)-7---|
|-10-x-x-7-x-x-5-x-|---9--8-(8)-7---|
|------------------|---7--6-(6)-5---|
|
|  E E E E E E E E   E Q  E +E  Q.
|------------------|----------------|
|------------------|----------------|
|-12-x-x-9-x-x-7-x-|----------------|
|-12-x-x-9-x-x-7-x-|---9--8-(8)-7---|
|-10-x-x-7-x-x-5-x-|---9--8-(8)-7---|
|------------------|---7--6-(6)-5---|


  G5     E5    D5      Bb5 A5  G5
   E E E E E E E E   E  E   Q   Q  S S S S
|------------------|-----------------------|
|------------------|-----------------------|
|-12-x-x-9-x-x-7-x-|-x-15\-14--12----------|
|-12-x-x-9-x-x-7-x-|-x-15\-14--12----------|
|-10-x-x-7-x-x-5-x-|-x-13\-12--10--7p5-----|
|------------------|-------------------7p5-|
|
|  E E E E E E E E   E  E   Q   Q  S S S S
|------------------|-----------------------|
|------------------|-----------------------|
|-12-x-x-9-x-x-7-x-|-x-15\-14--12----------|
|-12-x-x-9-x-x-7-x-|-x-15\-14--12----------|
|-10-x-x-7-x-x-5-x-|-x-13\-12--10--7p5-----|
|------------------|-------------------7p5-|


  G5     E5    D5      B5 Bb5   A5
   E E E E E E E E   E Q  E +E  Q.
|------------------|----------------||
|------------------|----------------||
|-12-x-x-9-x-x-7-x-|----------------||
|-12-x-x-9-x-x-7-x-|---9--8-(8)-7---||
|-10-x-x-7-x-x-5-x-|---9--8-(8)-7---||
|------------------|---7--6-(6)-5---||
|
|  E E E E E E E E   E Q  E +E  Q.
|------------------|----------------||
|------------------|----------------||
|-12-x-x-9-x-x-7-x-|----------------||
|-12-x-x-9-x-x-7-x-|---9--8-(8)-7---||
|-10-x-x-7-x-x-5-x-|---9--8-(8)-7---||
|------------------|---7--6-(6)-5---||


 Guitar Solo III
  C5    B5    G5      F#5     G5F#E5              F5 E5       F5           E5
  PM--------------------------|
                                                       |-------3-------|
  E E E E E E E E   E E E E E E E  E        +H        +Q         +Q   +Q
|-----------------|----------------------|-----------------------------------|
|-----------------|---------------22b24==|=(22)r=====(22)b23====(22)-(22)r---|
|-----------------|----------------------|-----------------------------------|
|-----------------|----------------------|-----------------------------------|
|-3-3-3-2-2-2-----|----------------------|-----------------------------------|
|-------------3-3-|-3-2-2-2-2-3----------|-----------------------------------|
|
| E E E E E E E E   E E E E E E E  E        +E  E Q    E      Q            E
|-----------------|----------------------|-----------------------------------|
|-----------------|----------------------|-----------------------------------|
|-----------------|----------------------|-----------------------------------|
|-5-5-5-4-4-4-----|----------------------|-----------------------------------|
|-3-3-3-2-2-2-5-5-|-5-4-4-4-4-5-4--2-----|--(2)-2-3----2------3------------2-|
|-------------3-3-|-3-2-2-2-2-3-2--0-----|--(0)-0-1----0------1------------0-|


          F5    E5 F5    E5             F5             E5 F5         E5
                                   |---3---|
   E    E  E  E  E  E  E  E    E   E  E    E      +E    E   E  S  E.
|---------------------------|-12---------------------------------------|
|-17---------------------15-|-----12-10---12b15==(12)r-12--------------|
|-----/21-21-19-16-14-16----|-----------------------------/16-14-12\---|
|---------------------------|------------------------------------------|
|---------------------------|------------------------------------------|
|---------------------------|------------------------------------------|
|
| +E    E  Q     E  Q     E   +E   E    Q               E   Q        E
|---------------------------|------------------------------------------|
|---------------------------|------------------------------------------|
|---------------------------|------------------------------------------|
|---------------------------|------------------------------------------|
|-(2)---2--3-----2--3-----2-|-(2)--2----3---------------2---3--------2-|
|-(0)---0--1-----0--1-----0-|-(0)--0----1---------------0---1--------0-|


         F5    E5  F5 E5            F5         E5  F5 E5
                ~~~
   E   E  E  E  Q.     S  S    Q     +E   S  S  Q.     S  S
|---------------------------|-------------------------------|
|-----12--------------------|-------------------------12h14-|
|-14-----14-12s14-----------|------------11h12h13-----------|
|---------------------12h13h|=14----(14)--------------------|
|---------------------------|-------------------------------|
|---------------------------|-------------------------------|
|
| +E   E  Q     E  Q   E      +E  E   Q         E  Q   E
|---------------------------|-------------------------------|
|---------------------------|-------------------------------|
|---------------------------|-------------------------------|
|---------------------------|-------------------------------|
|-(2)--2--3-----2--3---2----|-(2)-2---3---------2--3---2----|
|-(0)--0--1-----0--1---0----|-(0)-0---1---------0--1---0----|


            F5       E5    F5     E5                          F5       E5      F5      E5
                                             |------5-------|
   E   S  S  S  S  E  S  S  E  E.    T  T    S   S  S    S  S  S  E  S  +S   S  E  +E   S  S
|--------------12----12-14----------------|-15----------15----------17-(17)p15---------15----|
|-----12-13-14----15-------15-15----15h17-|-----17-15------17-15-17------------17-(17)----17-|
|-14--------------------------------------|--------------------------------------------------|
|-----------------------------------------|--------------------------------------------------|
|-----------------------------------------|--------------------------------------------------|
|-----------------------------------------|--------------------------------------------------|
|
| +E   E     Q        E     Q     E         +E        E        Q         E      Q       E
|-----------------------------------------|--------------------------------------------------|
|-----------------------------------------|--------------------------------------------------|
|-----------------------------------------|--------------------------------------------------|
|-----------------------------------------|--------------------------------------------------|
|-(2)--2-----3--------2-----3-----2-------|-(2)-------2--------3---------2------3-------2----|
|-(0)--0-----1--------0-----1-----0-------|-(0)-------0--------1---------0------1-------0----|


            F5          E5    F5      E5                     F5   E5 F5     E5
   E   S  S  S  S  S  S  S  S  E  +E   S  S        +W
|-----------15p12----12-17p15---------15-17b19==|=(17)r-----------------------|
|-----15-17-------15----------17-(17)-----------|------------------------12---|
|-16--------------------------------------------|---9------------------9------|
|-----------------------------------------------|-----------------10----------|
|-----------------------------------------------|---------11---12-------------|
|-----------------------------------------------|-----------------------------|
|                                                   Q      Q    Q  Q   Q  Q
|                                                   |-----3-----|  |--3---|
|
| +E   E     Q           E     Q       E           +E   E    Q     E Q      E
|-----------------------------------------------|-----------------------------|
|-----------------------------------------------|-----------------------------|
|-----------------------------------------------|-----------------------------|
|-----------------------------------------------|-----------------------------|
|-(2)--2-----3-----------2-----3-------2--------|--(2)--2----3-----2-3------2-|
|-(0)--0-----1-----------0-----1-------0--------|--(0)--0----1-----0-1------0-|


           F5  E5F5      E5           F5   E5 F5      E5
   |----3----| |---3---|      |----3-----|  |---3---|
   Q     Q   Q Q    Q  Q      Q     Q    Q  Q    Q  Q
|--------------------------|-12-------------------------|
|-------10---9-----12------|-------12---13------15------|
|--7-----------9------13---|---------------14------13---|
|--------------------------|----------------------------|
|--------------------------|----------------------------|
|--------------------------|----------------------------|
|
| +E  E    Q   E Q       E   +E  E    Q     E Q       E
|--------------------------|----------------------------|
|--------------------------|----------------------------|
|--------------------------|----------------------------|
|--------------------------|----------------------------|
|-(2)-2----3---2-3-------2-|-(2)-2----3-----2-3-------2-|
|-(0)-0----1---0-1-------0-|-(0)-0----1-----0-1-------0-|


        F5 E5      F5        E5          F5 E5    F5          E5
             |---3----| |--3---|
   H        +E   E    E E  E   E   +H        S  S  S  S  S  S  S  S
|-12-------(12)-10h==12-8h10---7-|-(7)------------------------------|
|--------------------------------|----------13-13p12----------------|
|--------------------------------|-------------------14p13----12h13-|
|--------------------------------|-------------------------14-------|
|--------------------------------|----------------------------------|
|--------------------------------|----------------------------------|
|
| +E  E Q    E     Q         E     +E  E Q   E     Q           E
|--------------------------------|----------------------------------|
|--------------------------------|----------------------------------|
|--------------------------------|----------------------------------|
|--------------------------------|----------------------------------|
|-(2)-2-3----2-----3---------2---|-(2)-2-3---2-----3-----------2----|
|-(0)-0-1----0-----1---------0---|-(0)-0-1---0-----1-----------0----|


               F5          E5    F5       E5            F5          E5     F5      E5
   S   S  S  S  S  S  S  S  S  S  S  S  E  S  S    E  E  S  S  S  S  S  E.    S  S  S  S
|-----------------------------------------------|-------------------------------------17-|
|-----------------------------------------------|-------13-12-13-15-17-17----17-19-20----|
|-14p=12----------------------13-13h14p13-13h14p|=13-------------------------------------|
|--------14-13-12----12-13-14-------------------|----------------------------------------|
|-----------------15----------------------------|----------------------------------------|
|-----------------------------------------------|----------------------------------------|
|
| +E      E     Q           E     Q        E      +E  E  Q           E     Q        E
|-----------------------------------------------|----------------------------------------|
|-----------------------------------------------|----------------------------------------|
|-----------------------------------------------|----------------------------------------|
|-----------------------------------------------|----------------------------------------|
|-(2)-----2-----3-----------2-----3--------2----|-(2)-2--3-----------2-----3--------2----|
|-(0)-----0-----1-----------0-----1--------0----|-(0)-0--1-----------0-----1--------0----|


        F5 E5   F5 E5               F5   E5 F5            E5
                            |----3-----|  |----3-----|
   H        +Q.     S  S    Q     Q    Q  Q    Q     Q
|-19-------(19)----19h20-|-17----17---17-17---20b22-20b22---|
|------------------------|----------------------------------|
|------------------------|----------------------------------|
|------------------------|----------------------------------|
|------------------------|----------------------------------|
|------------------------|----------------------------------|
|
| +E  E Q    E  Q   E      +E  E    Q     E Q             E
|------------------------|----------------------------------|
|------------------------|----------------------------------|
|------------------------|----------------------------------|
|------------------------|----------------------------------|
|-(2)-2-3----2--3---2----|-(2)-2----3-----2-3-------------2-|
|-(0)-0-1----0--1---0----|-(0)-0----1-----0-1-------------0-|


                F5      E5    F5            E5
   |-------3-------|     |------3------|
   Q       Q       Q     Q       Q     Q
|-22b24---22b24---22b24-22b24---22b24-22b24---|
|---------------------------------------------|
|---------------------------------------------|
|---------------------------------------------|
|---------------------------------------------|
|---------------------------------------------|
|
| +E    E       Q        E    Q             E
|---------------------------------------------|
|---------------------------------------------|
|---------------------------------------------|
|---------------------------------------------|
|-(2)---2-------3--------2----3-------------2-|
|-(0)---0-------1--------0----1-------------0-|


          F5   E5  F5      E5        F5 E5F5  E5
                 |---3---|
   E    Q    E   Q    Q  Q      H       E  Q   S S
|-----------20---------------|---------------------|
|-----h22------h22---20-18---|-17------------------|
|----------------------------|---------------------|
|----------------------------|---------------------|
|----------------------------|------------h7--h7-8-|
|----------------------------|---------------------|
|
| +E    E Q      E Q       E   +E  E Q  E  Q   E
|----------------------------|---------------------|
|----------------------------|---------------------|
|----------------------------|---------------------|
|----------------------------|---------------------|
|-(2)---2-3------2-3-------2-|-(2)-2-3--2--3---2---|
|-(0)---0-1------0-1-------0-|-(0)-0-1--0--1---0---|


             F5       E5  F5        E5              F5       E5   F5      E5
   S  S S  S S S  S S S S  S S S  S S S    S  S S S S S  S S S  S S  S  Q
|---------------------------------------|-----------------------------------|
|---------------------------------------|-------------------------9-10-12---|
|---------------------------------------|-----------7h9h10-7h9h10-----------|
|-----------------------------------6h7h|==9--6h7h9-------------------------|
|-10--7-8----7-8----7-7h8h10-7h8h10-----|-----------------------------------|
|---------10-----10---------------------|-----------------------------------|
|
| +E    E    Q        E    Q        E     +E    E   Q        E    Q       E
|---------------------------------------|-----------------------------------|
|---------------------------------------|-----------------------------------|
|---------------------------------------|-----------------------------------|
|---------------------------------------|-----------------------------------|
|-(2)---2----3--------2----3--------2---|-(2)---2---3--------2----3-------2-|
|-(0)---0----1--------0----1--------0---|-(0)---0---1--------0----1-------0-|


         F5 E5   F5          E5                   F5          E5    F5          E5
   +H        +E   S  S  S  S  S  S    S   S  S  S  S  S  S  S  S  S  S  S  S  S  E
|----------------------------------|-----------------------------------------------||
|-(12)------(12)-10S12-13h15-12h13-|-12p=10-10S12-13h15-12h13-12p10-10S12-13h15S17-||
|----------------------------------|-----------------------------------------------||
|----------------------------------|-----------------------------------------------||
|----------------------------------|-----------------------------------------------||
|----------------------------------|-----------------------------------------------||
|
|  +E  E Q    E   Q           E      +E      E     Q           E     Q           E
|----------------------------------|-----------------------------------------------||
|----------------------------------|-----------------------------------------------||
|----------------------------------|-----------------------------------------------||
|----------------------------------|-----------------------------------------------||
|--(2)-2-3----2---3-----------2----|-(2)-----2-----3-----------2-----3-----------2-||
|--(0)-0-1----0---1-----------0----|-(0)-----0-----1-----------0-----1-----------0-||


 Outro
  C5       B5      G5        G5 A5G5 A5   C5     B5      G5        G5 A5G5 A5
   +W                    +W                W                   +W
|---------------------|-----------------|-------------------|-----------------|
|-(17)----------------|-(17)------------|-20----------------|-(20)------------|
|---------------------|-----------------|-------------------|-----------------|
|---------------------|-----------------|-------------------|-----------------|
|---------------------|-----------------|-------------------|-----------------|
|---------------------|-----------------|-------------------|-----------------|
|
|   E  E E E +E  E Q      E  Q  E Q  Q     E E E E +E  E Q      E  Q  E Q  Q
|---------------------|-----------------|-------------------|-----------------|
|---------------------|-----------------|-------------------|-----------------|
|---------------------|-----------------|-------------------|-----------------|
|---5--5-5-4-(4)-4----|-----------------|--5-5-5-4-(4)-4----|-----------------|
|---3--3-3-2-(2)-2-5--|------5--7-5--7--|--3-3-3-2-(2)-2-5--|------5--7-5--7--|
|------------------3--|------3--5-3--5--|----------------3--|------3--5-3--5--|


  E5                    D5E5
  Q  E E Q  Q    E E Q  E E Q    Q  E E Q  Q    +W
|--------------|---------------|--------------|--------|
|--------------|---------------|--------------|--------|
|--------------|---------------|--------------|--------|
|-9----9----9--|---9----7S9-9--|-9----9----9--|-(9)----|
|-7----7----7--|---7----5S7-7--|-7----7----7--|-(7)----|
|-0----0----0--|---0----0---0--|-0----0----0--|-(0)----|
|
| Q  E E Q  Q    E E Q  E E Q    Q  E E Q  Q    +W
|--------------|---------------|--------------|--------|
|--------------|---------------|--------------|--------|
|--------------|---------------|--------------|--------|
|-9----9----9--|---9----7S9-9--|-9----9----9--|-(9)----|
|-7----7----7--|---7----5S7-7--|-7----7----7--|-(7)----|
|-0----0----0--|---0----0---0--|-0----0----0--|-(0)----|


                                   TP
  W          W          W          W
|----------|----------|----------|------|
|----------|----------|----------|------|
|----------|----------|----------|------|
|-9--------|-9--------|-9--------|-9----|
|-7--------|-7--------|-7--------|-7----|
|-0--------|-0--------|-0--------|-0----|
|
|                                  TP
| W          W          W          W
|----------|----------|----------|------|
|----------|----------|----------|------|
|----------|----------|----------|------|
|-9--------|-9--------|-9--------|------|
|-7--------|-7--------|-7--------|-7----|
|-0--------|-0--------|-0--------|------|


  Gtrs I, II
  W          +W           +W           Q  Q  H
|----------|------------|------------|------------*|
|----------|------------|------------|------------*|
|----------|------------|------------|------------*|
|-9--------|-(9)--------|-(9)--------|-9----------*|
|-7--------|-(7)--------|-(7)--------|-7----------*|
|-0--------|-(0)--------|-(0)--------|-0----------*|



Duration Legend
---------------
W - whole; H - half; Q - quarter; E - 8th; S - 16th; T - 32nd; X - 64th; a - acciaccatura
+ - note tied to previous; . - note dotted; .. - note double dotted
Uncapitalized letters represent notes that are staccato (1/2 duration)
Irregular groupings are notated above the duration line
Duration letters will always appear directly above the note/fret number it represents the
duration for.  Duration letters with no fret number below them represent rests.  Multi-
bar rests are notated in the form Wxn, where n is the number of bars to rest for.  Low
melody durations appear below the staff

Tablature Legend
----------------
 h   - hammer-on
 p   - pull-off
 b   - bend
 pb  - pre-bend
 r   - bend release (if no number after the r, then release immediately)
 /\  - slide into or out of (from/to "nowhere")
 s   - legato slide
 S   - shift slide
 - natural harmonic
[n]  - artificial harmonic
n(n) - tapped harmonic
 ~   - vibrato
 tr  - trill
 T   - tap
 TP  - trem. picking
 PM  - palm muting
\n/  - tremolo bar dip; n = amount to dip
 \n  - tremolo bar down
 n/  - tremolo bar up
/n\  - tremolo bar inverted dip
 =   - hold bend; also acts as connecting device for hammers/pulls
 <> - volume swell (louder/softer)
 x   - on rhythm slash represents muted slash
 o   - on rhythm slash represents single note slash

Misc Legend
-----------
 |  - bar
||  - double bar
||o - repeat start
o|| - repeat end
*|  - double bar (ending)
 :  - bar (freetime)
 $  - Segno
 &  - Coda
Tempo markers -  = BPM(8/16=s8/s16), where s8 = swing 8ths, s16 = swing 16ths

comments
print report bad tab
2 comments total.
0 reply
guitarfreak222 wrote on December 14 2008, 08:01 am

very nice tab thnx

0 reply
Asterix_13 wrote on February 5 2010, 06:55 pm

not good. the solos are all wrong and the riffs are mostly off

I want to post or [tab]
guest
You may want to rate the tab now too:
select rating
Please do not post tabs as comments. Select "correction" instead!