Oops, an error
Loading. Please wait.

She Wolf Rude Awakening Tab

ver1
ver1

Whole song

Interactive

More versions @911Tabs.com
5,059 views 12 this week
no commentswrite comment
1 2 3 4 5
poor
x 1
Autoscroll
+/-
esc
set tempo
stop
Contributor
WARNING: You are trying to view
                                    content from Ultimate-Guitar.com
                                    in an unauthorized application,
                                    which is prohibited.

                                    Please use an official Ultimate
                                    Guitar Tabs application for iPhone,
                                    iPad or Android to access legitimate
                                    chords, guitar, bass, and drum tabs
                                    from Ultimate-Guitar.com database.

                                    Type "ultimate guitar tabs" in Apple
                                    App Store's or Android Market's
                                    search to find the application.
#----------------------------------PLEASE NOTE---------------------------------#
#This file is the author's own work and represents their interpretation of the #
#song. You may only use this file for private study, scholarship, or research. #
#------------------------------------------------------------------------------#

SHE-WOLF (RUDE AWAKENING) 
As recorded by Megadeth
(From the 2002 Album RUDE AWAKENING)

Transcribed by mental goat & livingzombie & abysslord
	

Words and Music by Dave Mustaine

G5
3 5 5 x x x
	
F5
1 3 3 x x x
	
Eb5/Bb
x 1 1 3 x x
	
C5
x 3 5 5 x x

Bb5
x 1 3 3 x x
	
G#5
4 6 6 x x x
	
B5
x 2 4 4 x x

Gtr I (E A D G B E) - 'Dave Mustaine'
Gtr II (E A D G B E) - 'Al Pitrelli'

   Intro
    Fast Rock Q=180
    N.C.
   4/4
    Gtr I
    E S S E E S S E E S S   E E S S E S S E S S E
||------------------------|------------------------||
||o-----------------------|-----------------------o||
||------------------------|------------------------||
||------------------------|------------------------||
||o-----------------------|-----------------------o||
||--0-0-0-0-0-0-0-0-0-0-0-|-0-0-0-0-0-0-0-0-0-0-0--||


 Verse
  E S S E E S S E E S S   E E S S E S S E S S E
|-----------------------|-----------------------|
|-----------------------|-----------------------|
|-----------------------|-----------------------|
|-----------------------|-----------------------|
|-----------------------|-----------------------|
|-0-0-0-0-0-0-0-0-0-0-0-|-0-0-0-0-0-0-0-0-0-0-0-|


  Gtr I
  E S S E E S S E E  S S     E      E S S E   S  S E   S  S E
|------------------------|------------------------------------|
|------------------------|------------------------------------|
|------------------------|------------------------------------|
|------------------------|------------------------------------|
|------------------------|------------------------------------|
|-0-0-0-0-0-0-0-0-0--0-0-|---0------0-0-0-0---0--0-0---0--0-0-|
|
| Gtr II
| H         Q     E  E      +H               +Q       +Q
|------------------------|------------------------------------|
|------------------------|------------------------------------|
|-------------------14---|-(14)b17==========(14)-----(14)-----|
|-------------------14---|-(14)b17==========(14)-----(14)-----|
|------------------------|------------------------------------|
|------------------------|------------------------------------|


    E  S S E E   S   S E E S S   E E S S E S S E S S E
|------------------------------|-------------------------|
|------------------------------|-------------------------|
|------------------------------|-------------------------|
|------------------------------|-------------------------|
|------------------------------|-------------------------|
|---0--0-0-0-0---0---0-0-0-0-0-|-0-0-0-0-0-0-0-0-0-0-0---|
|
|  +H           +H               W
|------------------------------|-------------------------|
|------------------------------|-------------------------|
|-(14)r========(14)\-----------|-------------------------|
|-(14)---------(14)\-----------|-------------------------|
|------------------------------|-------------------------|
|------------------------------|-------------------------|


  Gtr I
  E S S E E S S E E S S   E E S S E S S E S S E
|-----------------------|-----------------------|
|-----------------------|-----------------------|
|-----------------------|-----------------------|
|-----------------------|-----------------------|
|-----------------------|-----------------------|
|-0-0-0-0-0-0-0-0-0-0-0-|-0-0-0-0-0-0-0-0-0-0-0-|


  C5                            C5BB5 C5        Bb5 B5C5        BbB5C5BbB5
  Gtr I
                            |-3-|                           |--3--| |-3-|
  Q.   E +Q   Q    +E  Q.   Q Q Q     Q  +E     E E E Q    +Q   Q Q Q Q Q
|----------------|------------------|--------------------|------------------|
|------4-(4)-----|-----4------------|--------------------|------------------|
|------0-(0)-----|-----0------------|--------------------|------------------|
|-5-----------5--|-(5)------5-3-4---|-5--(5)\---3---4-5--|-(5)\-3-4-5-3-4---|
|-3-----------3--|-(3)------3-1-2---|-3--(3)\---1---2-3--|-(3)\-1-2-3-1-2---|
|----------------|------------------|--------------------|------------------|
|
| Gtr II
|                                         /0.5_______________________________
| W                 W                 Q   H.               +W
|----------------|------------------|--------------------|------------------|
|----------------|------------------|--------------------|------------------|
|----------------|------------------|-----0--------------|-(0)--------------|
|----------------|------------------|--------------------|------------------|
|----------------|------------------|--------------------|------------------|
|----------------|------------------|--------------------|------------------|


  C5
   E     S S E E S S E E S S    E   E S S E S S E S S E    Q.   E +Q   Q
|----------------------------|--------------------------|-----------------|
|----------------------------|--------------------------|-------4-(4)-----|
|----------------------------|--------------------------|-------0-(0)-----|
|--5-------------------------|--------------------------|--5-----------5--|
|--3-----3-3-3-3-3-3-3-3-3-3-|--3---3-3-3-3-3-3-3-3-3-3-|--3-----------3--|
|----------------------------|--------------------------|-----------------|
|
|  /1.5_________________________/1_________________________|
|  W                           +W                         +W
|----------------------------|--------------------------|-----------------|
|--0-------------------------|-(0)----------------------|-(0)-------------|
|-(0)------------------------|-(0)----------------------|-(0)-------------|
|----------------------------|--------------------------|-----------------|
|----------------------------|--------------------------|-----------------|
|----------------------------|--------------------------|-----------------|


           C5BbB5  C5      Bb5 B5C5        BbB5C5B5Bb5
  Gtr I
           |-3-|                       |--3--| |-3-|
  +E  Q.   Q Q Q   Q  +E   E E E Q    +Q   Q Q Q Q Q
|----------------|------------------|----------------|
|-----4----------|------------------|----------------|
|-----0----------|------------------|----------------|
|-(5)------5-3-4-|-5--(5)\-3---4-5--|-(5)\-3-4-5-4-3-|
|-(3)------3-1-2-|-3--(3)\-1---2-3--|-(3)\-1-2-3-2-1-|
|----------------|------------------|----------------|


 Verse
  N.C.
  Gtrs I, II
  E S S E E S S E E S S   E E S S E S S E S S E
|-----------------------|-----------------------|
|-----------------------|-----------------------|
|-----------------------|-----------------------|
|-----------------------|-----------------------|
|-----------------------|-----------------------|
|-0-0-0-0-0-0-0-0-0-0-0-|-0-0-0-0-0-0-0-0-0-0-0-|


  E S S E E S S E E S S   E E S S E S S E S S E
|-----------------------|-------------------------|
|-----------------------|-------------------------|
|-----------------------|-------------------------|
|-----------------------|-------------------------|
|-----------------------|-------------------------|
|-0-0-0-0-0-0-0-0-0-0-0-|-0-0-0-0-0-0-0-0-0-0-0---|


  Gtr I
  E S S E E S S E E S S   E E S S E S S E S S E   E S S E E   S  S  E  E  S S
|-----------------------|-----------------------|-----------------------------|
|-----------------------|-----------------------|-----------------------------|
|-----------------------|-----------------------|-----------------------------|
|-----------------------|-----------------------|-----------------------------|
|-----------------------|-----------------------|-----------------------------|
|-0-0-0-0-0-0-0-0-0-0-0-|-0-0-0-0-0-0-0-0-0-0-0-|-0-0-0-0-0---0--0--0--0--0-0-|
|
| Gtr II
| W                       W                       H           S  S  E  Q
|-----------------------|-----------------------|-----------/16-16-16-16\-----|
|-----------------------|-----------------------|-----------/15-15-15-15\-----|
|-----------------------|-----------------------|-----------/16-16-16-16\-----|
|-----------------------|-----------------------|-----------------------------|
|-----------------------|-----------------------|-----------------------------|
|-----------------------|-----------------------|-----------------------------|


    E     E  S  S E  S      S   E     S  S  E
|---------------------------------------------------|
|---------------------------------------------------|
|---------------------------------------------------|
|---------------------------------------------------|
|---------------------------------------------------|
|---0-----0--0--0-0--0------0---0-----0--0--0-------|
|
|   S  S  E  Q       S     +S   S  S  S  S  S  S
|-/16-16-16-16\-------------------------------------|
|-/15-15-15-15\-------------------------------------|
|-/16-16-16-16\-----14b16-(14)-14p12-14p12----------|
|------------------------------------------14p12----|
|---------------------------------------------------|
|---------------------------------------------------|


  C5                               C5BB5 C5      Bb5          B5 C5
                               |-3-|
   Q.   E  +Q    Q    +E  Q.   Q Q Q     Q  +E    E        E   E  Q
|-------------------|------------------|-----------------------------|
|-------4--(4)------|-----4------------|-----------------------------|
|-------0--(0)------|-----0------------|-----------------------------|
|--5-------------5--|-(5)------5-3-4---|-5--(5)\--3------------4--5--|
|--3-------------3--|-(3)------3-1-2---|-3--(3)\--1------------2--3--|
|-------------------|------------------|-----------------------------|
|
|  ~~~~~~~~~~~~~
|  H       +Q    Q     W                 Q   E    E       +E   E  Q
|-------------------|------------------|---------18pb20==(18)-18-18--|
|-------------------|------------------|-----------------------------|
|-------------------|------------------|-----------------------------|
|-------------------|------------------|-----------------------------|
|-15------(15)\-----|------------------|-----------------------------|
|-------------------|------------------|-----------------------------|


            BbB5         C5   BbB5
    |----3----|            |-3--|
   +Q       Q Q            Q  Q Q
|---------------------------------------|
|---------------------------------------|
|---------------------------------------|
|--(5)\-----3-4------------5--3-4-------|
|--(3)\-----1-2------------3--1-2-------|
|---------------------------------------|
|
|  +E    Q        E       +Q.       E
|-(18)--18r-----(18)-----(18)-----(18)--|
|----------------18pb20==(18)r====(18)--|
|---------------------------------------|
|---------------------------------------|
|---------------------------------------|
|---------------------------------------|


  C5
   E S S E E S S E E S S     E  E S S E S S E S S E     Q.    E +Q   Q
|------------------------|--------------------------|-------------------|
|------------------------|--------------------------|---------4-(4)-----|
|------------------------|--------------------------|---------0-(0)-----|
|--5---------------------|--------------------------|---5------------5--|
|--3-3-3-3-3-3-3-3-3-3-3-|---3--3-3-3-3-3-3-3-3-3-3-|---3------------3--|
|------------------------|--------------------------|-------------------|
|
|  W                        +W                          H        H
|------------------------|--------------------------|-------------------|
|-16---------------------|-(16)---------------------|-(16)\-------------|
|------------------------|--------------------------|-------------------|
|------------------------|--------------------------|-------------------|
|------------------------|--------------------------|-------------------|
|------------------------|--------------------------|-------------------|


           C5BbB5   C5          Bb5    B5C5
           |-3-|
  +E  Q.   Q Q Q    Q  +E     E   E  E  Q
|-----------------|-------------------------|
|-----4-----------|-------------------------|
|-----0-----------|-------------------------|
|-(5)------5-3-4--|-5--(5)\---3------4--5---|
|-(3)------3-1-2--|-3--(3)\---1------2--3---|
|-----------------|-------------------------|
|
|  W                Q   E     E  +E  E  E E
|-----------------|-------------------------|
|-----------------|-------------------------|
|-----------------|-----------------------8-|
|-----------------|------------------8-10---|
|-----------------|---------/10-(10)--------|
|-----------------|-------------------------|


              Bb5    B5  C5   B5    Bb5
   |--------3--------|    |----3----|
   Q          Q      Q    Q   Q     Q
|-------------------------------------|
|-------------------------------------|
|-------------------------------------|
|-(5)\--------3------4----5---4-----3-|
|-(3)\--------1------2----3---2-----1-|
|-------------------------------------|
|
|  E      +E      E    E  E E    Q
|-------------------------------------|
|-10b11==(10)r==(10)------------------|
|-10b11==(10)r==(10)---8-10-8---------|
|-------------------------------10\---|
|-------------------------------------|
|-------------------------------------|


  G5                               F5                  Eb5/Bb              C5
  Gtr I
  W                +H.          +E E   +H.          +E E   +H.          +E E
  |                 |            | |    |            | |    |            | |
  /                 /            / /    /            / /    /            / /

  Gtr II
  ~  PM--------|
  Q  E E E E E E    E E E E E E  E E    Q.   E +Q    Q      Q.   E +Q    E E
|----------------|-------------------|-------------------|--------------------||
|----------------|-------------------|-------------------|--------------------||
|----------------|---------------3---|-------------------|---------------3-5--||
|----------------|------3-----3----5-|--3----5-(5)---6---|--5----6-(6)--------||
|----1---1---3-1-|--4h5---4h5--------|-------------------|--------------------||
|-3----3---3-----|-------------------|-------------------|--------------------||


   Chorus
    $
    C5              Bb5                  F5
    Gtr I
    +H.          +E E   +H.           +E E
     |            | |    |             | |
     /            / /    /             / /

    Gtr II
    +W                  +W
||--------------------|--------------------|
||o-------------------|--------------------|
||--(5)---------------|-(5)----------------|
||--------------------|--------------------|
||o-------------------|--------------------|
||--------------------|--------------------|
|
|   Gtr II
|    Q   E E E E  E E    E  Q.   +H
||--------------------|--------------------|
||o-------------------|--------------------|
||-------5---5p3----5-|-----3----(3)-------|
||----------------5---|--------------------|
||o-------------------|--------------------|
||--------------------|--------------------|


                  Eb5/Bb               C5
  +H.          +E E   +H.           +E E
   |            | |    |             | |
   /            / /    /             / /

   W                   W
|-------------------|--------------------|
|-------------------|--------------------|
|-------------------|--------------------|
|-------------------|--------------------|
|-------------------|--------------------|
|-------------------|--------------------|
|
| +Q   E E E E  E E    E  Q.   +H
|-------------------|--------------------|
|-------------------|--------------------|
|-(3)---------------|--------------------|
|------3---3p1------|-----1----(1)-------|
|---------------3-1-|--------------------|
|-------------------|--------------------|


  C5              Bb5                  F5                  G5
  +H.          +E E   +H.           +E E   +H.          +E E
   |            | |    |             | |    |            | |
   /            / /    /             / /    /            / /

  Gtr II
   Q   E E E E  E E    E  Q.   +H          +Q   E E E E  E E
|-------------------|--------------------|-------------------|
|-------------------|--------------------|-------------------|
|------5---5p3----5-|-----3----(3)-------|-(3)---------------|
|---------------5---|--------------------|------3---3p1--3S5-|
|-------------------|--------------------|-------------------|
|-------------------|--------------------|-------------------|


 1.                    2.
                                  To Coda
        D EbD C BbC5          D EbD C Bb
  +Q    E E E E E E     +Q    E E E E Q
   |    | | | | | |      |    | | | | |
   /    o o o o o /      /    o o o o o

  +E  E E E E E E E      E  E E E E E Q
|--------------------||---------------------||
|-------------------o||---------------------||
|--------------------||---------------------||
|-(5)---5-6-5--------||-(5)---5-6-5-3-------||
|-----5-------3-6-3-o||-----5---------5\----||
|--------------------||---------------------||


   Verse
    N.C.
    Gtrs I, II
    E S S E E S S E E S S   E E S S E S S E S S E
||------------------------|-----------------------|
||o-----------------------|-----------------------|
||------------------------|-----------------------|
||------------------------|-----------------------|
||o-----------------------|-----------------------|
||--0-0-0-0-0-0-0-0-0-0-0-|-0-0-0-0-0-0-0-0-0-0-0-|


  E S S E E S S E E S S   E E S S E S S E S S E
|-----------------------|-------------------------||
|-----------------------|------------------------o||
|-----------------------|-------------------------||
|-----------------------|-------------------------||
|-----------------------|------------------------o||
|-0-0-0-0-0-0-0-0-0-0-0-|-0-0-0-0-0-0-0-0-0-0-0---||


  C5                        C5BbB5   C5         Bb5   B5  C5
  Gtr I
                            |-3-|
  Q.   E +Q   Q    +E  Q.   Q Q Q    Q     +E   E   E E   Q
|----------------|-----------------|------------------------------|
|------4-(4)-----|-----4-----------|------------------------------|
|------0-(0)-----|-----0-----------|------------------------------|
|-5-----------5--|-(5)------5-3-4--|-5-----(5)\-3-----4---5-------|
|-3-----------3--|-(3)------3-1-2--|-3-----(3)\-1-----2---3-------|
|----------------|-----------------|------------------------------|
|
| Gtr II
| W                 W                S S E  E   S S E S S S S S S
|----------------|-----------------|------------------------------|
|----------------|-----------------|------------------------------|
|----------------|-----------------|-5p3p0--0---5p3p0-5p3p0-5p3p0-|
|----------------|-----------------|------------------------------|
|----------------|-----------------|------------------------------|
|----------------|-----------------|------------------------------|


           Bb5     B5    C5    Bb5     B5
   |-------3-------|     |------3------|
  +Q       Q       Q     Q     Q       Q
|---------------------------------------------|
|---------------------------------------------|
|---------------------------------------------|
|-(5)\-----3-------4-----5-----3-------4------|
|-(3)\-----1-------2-----3-----1-------2------|
|---------------------------------------------|
|
|  S   S S   S S S   S S S S S   S S S   S S
|---------------------------------------------|
|---------------------------------------------|
|--5p==3p0---3h5p3p==0-5p3-5p3p==0-3p0h==5p0--|
|---------------------------------------------|
|---------------------------------------------|
|---------------------------------------------|


  C5
  E S S E     E S S E E S S    E  E  S  S E S S E   S S E   Q.   E +Q   Q
|---------------------------|-----------------------------|-----------------|
|---------------------------|-----------------------------|------4-(4)------|
|---------------------------|-----------------------------|------0-(0)------|
|-5-------------------------|-----------------------------|-5-----------5---|
|-3-3-3-3-----3-3-3-3-3-3-3-|--3--3--3--3-3-3-3-3---3-3-3-|-3-----------3---|
|---------------------------|-----------------------------|-----------------|
|
|                                                                   ~~~
| Q     H.                    +Q     E    E S E   S E   E   H      +H
|---------------------------|-----------------------------|-----------------|
|-------3pb4================|=(3)r==(3)-------------------|-----------------|
|---------------------------|-------------5-3-3---3-------|-----------------|
|---------------------------|-----------------------3---3-|-----------------|
|---------------------------|-----------------------------|-3------(3)------|
|---------------------------|-----------------------------|-----------------|


           C5BbB5   C5      Bb5   B5C5           Bb5 B5       C5   B5Bb5
           |-3-|                             |---3---|          |-3--|
  +E  Q.   Q Q Q    Q  +E   E  E  E  Q      +Q   Q   Q          Q  Q Q
|-----------------|-----------------------|-----------------------------|
|-----4-----------|-----------------------|-----------------------------|
|-----0-----------|-----------------------|-----------------------------|
|-(5)------5-3-4--|-5--(5)\-3-----4--5----|-(5)\-3---4----------5--4-3--|
|-(3)------3-1-2--|-3--(3)\-1-----2--3----|-(3)\-1---2----------3--2-1--|
|-----------------|-----------------------|-----------------------------|
|
|                                                       /1.5____/
|  ~~~
| +H       H        Q   E   E +Q    +Q       Q     E    E      +H
|-----------------|---------x-(x)---(x)\--|-----------------------------|
|-----------------|-----------------------|-----------------------------|
|-----------------|-----------------------|------------14-----(14)------|
|-----------------|-----------------------|-----------------------------|
|-(3)-------------|-----------------------|-----------------------------|
|-----------------|-----------------------|-----------------------------|


                                                               D.S. al Coda
  G5                               F5                 Eb5/Bb             C5
  Gtr I
  W                +H.          +E E   +H.          E E   +H.          E E
  |                 |            | |    |           | |    |           | |
  /                 /            / /    /           / /    /           / /

  Gtr II
  ~  PM--------|
  Q  E E E E E E    E E E E E E  E E    Q.   E +Q   Q      Q.   E +Q   E E
|----------------|-------------------|------------------|-------------------||
|----------------|-------------------|------------------|-------------------||
|----------------|---------------3---|------------------|--------------3-5--||
|----------------|------3-----3----5-|--3----5-(5)--6---|--5----6-(6)-------||
|----1---1---3-1-|--4h5---4h5--------|------------------|-------------------||
|-3----3---3-----|-------------------|------------------|-------------------||


   Bridge
    &
    C5                       Bb5                            G#5
    Gtrs I, II
               PM----------|                  PM----------|
    W          E E E E E E E E   +W           E E E E E E E E
||-----------|-----------------|------------|-----------------|
||o----------|-----------------|------------|-----------------|
||--5--------|---------------3-|-(3)--------|-----------------|
||--5--------|---------------3-|-(3)--------|---------------6-|
||o-3--------|-3-3-3-3-3-3-3-1-|-(1)--------|-1-1-1-1-1-1-1-6-|
||-----------|-----------------|------------|---------------4-|


                                                  1.
                             G5               Bb5            B5  C5
               PM----------|            PM--|
  +W           E E E E E E E E   +H     E E E E   +H     +E  E E E
|------------|-----------------|----------------|--------------------||
|------------|-----------------|----------------|-------------------o||
|------------|-----------------|--------------3-|-(3)----(3)-4---5---||
|-(6)--------|---------------5-|-(5)----------3-|-(3)----(3)-4---5---||
|-(6)--------|---------------5-|-(5)----------1-|-(1)----(1)-2---3--o||
|-(4)--------|-4-4-4-4-4-4-4-3-|-(3)----3-3-3---|--------------------||


  2.
  Bb5      B5  C5
  Gtr II
  H    +E  E E E   +W
  |     |  |   |    |
  /     /  /   /    /

  Gtr I
                               ~~
  H    +E  E E E   +H..        E
|----------------|---------------|
|--------------8-|-(8)-----------|
|-3----(3)-4---8-|-(8)-----------|
|-3----(3)-4-----|------------10-|
|-1----(1)-2-----|---------------|
|----------------|---------------|


 Solo
  C5                 Bb5
   +H..               E   +W             +W
    |                 |    |              |
    /                 /    /              /

                                     ~
   +H       +E  E  E  E   +H..       E   +H      E E  E  E
|-----------------------|--------------|-----------------------|
|---------------8-----8-|-(8)----------|-----------8-----------|
|---------------8----/8-|-(8)--------5-|-(5)-------8----10b12==|
|-(10)-----(10)---10----|--------------|--------10---10--------|
|-----------------------|--------------|-----------------------|
|-----------------------|--------------|-----------------------|


  G#5
    W
    |
    /

   +E  E S  S E  E    E  S S  E
|--------8----------------------|
|------8---11p8-------8---------|
|-(10)----------10b12---10p8----|
|----------------------------10-|
|-------------------------------|
|-------------------------------|


                         G5                          Bb5
  +H..                     E     +H..                E
   |                       |      |                  |
   /                       /      /                  /

          ~
                                          |-3--|
   E    E Q   E E  E      +E     +E   +E  E  E E H
|-----------------------------|------------------------|
|-10------8-------------------|------------------------|
|-10------8-----8-10b12==(10)-|-(10)r(10)-8h10p8-7-----|
|------10----10---------------|------------------------|
|-----------------------------|------------------------|
|-----------------------------|------------------------|


                       B5       C5
  +H             +E    E    E    E   +W
   |              |    |         |    |
   /              /    /         /    /

                                 ~~
  +E  E S S S  S  S  S S  S S S  E   +E  E E E E E E E
|----------------------------------|-------------------|
|----------------------------------|-------------------|
|-(7)-8-7h8p7-----7----8h10p8------|-------------------|
|-------------10----10--------5----|---------------5-8-|
|-------------------------------/3-|-(3)-3-6-3-6-8-----|
|----------------------------------|-------------------|


                    Bb5
  +H..              E   +W                  +W
   |                |    |                   |
   /                /    /                   /

                    ~            ~~     ~~~~~~~~     ~~
  +E    E  E Q  E E E   +E  E E  Q  E E E   +E  E E  Q  E E  E
|---------------------|-------------------|--------------------|
|------------8------8-|-(8)-----10------8-|-(8)-----10---------|
|------------8--x-x-8-|-(8)-x-x-10--x-x-8-|-(8)-x-x-10--x-x-10-|
|-(8)--/8-10----------|-------------------|--------------------|
|---------------------|-------------------|--------------------|
|---------------------|-------------------|--------------------|


  G#5                                                                                G5
    W                                       +H..                                     E
    |                                        |                                       |
    /                                        /                                       /

         |---3----|  |---3---|               |---3---|  |---3---|  |---3---|  |----3----|
   +E   +E     E  E  E    E  E  E    E  E    E    E  E  E    E  E  E    E  E  E    E    E
|-----------------------------------------|-----------------------------------------------|
|-------------------11b13r8---------------|-11b13r8---------------11b13r8-----------------|
|-(10)-(10)b12r8------------10-10b12r8----|---------10-10b12r8------------10-10b12r8------|
|----------------10--------------------10-|--------------------10----------------------10-|
|-----------------------------------------|-----------------------------------------------|
|-----------------------------------------|-----------------------------------------------|


                                                    Bb5
  +H..                                              E
   |                                                |
   /                                                /

   S      +S   +S  S  E  S  S  S      +S   +S  S  E E
|-----------------------------------------------------|
|-----------------------------------------------------|
|-10b12==(10)r(10)p8----10-11-10b12==(10)r(10)p8------|
|--------------------10--------------------------10-8-|
|-----------------------------------------------------|
|-----------------------------------------------------|


                 B5      C5
  +H        +E   E   E   E   +W           +W           +W
   |         |   |       |    |            |            |
   /         /   /       /    /            /            /

                         ~~~~~~~~~~~~~~~~~~~~~~~~~~~~~~~~~~
   E E  E E  S S S S S S E   +W           +W           +W
|--------------------------|------------|------------|--------|
|--------------------------|------------|------------|--------|
|---------8--8-8-8-8-8-8-8-|-(8)--------|-(8)--------|-(8)----|
|-10-8-10------------------|------------|------------|--------|
|--------------------------|------------|------------|--------|
|--------------------------|------------|------------|--------|


  +W           +W           +W           +W           +H..       E
   |            |            |            |            |
   /            /            /            /            /

   ~~~~~~~~~~~~~~~~~~~~~~~~~~~~~~~~~~~~~~~~~~~~~~~~~~~~~~~~
  +W           +W           +W           +W           +H..       E
|------------|------------|------------|------------|----------------|
|------------|------------|------------|------------|------------8---|
|-(8)--------|-(8)--------|-(8)--------|-(8)--------|-(8)--------8---|
|------------|------------|------------|------------|----------------|
|------------|------------|------------|------------|----------------|
|------------|------------|------------|------------|----------------|


  N.C.
                                                                   ~
  +E   Q  Q  Q.     W          E   E E E  E E  E E    S S  E  E  E E  E E E
|-----------------|----------|---------8-----------|------------------------|
|-(8)\------------|----------|-------8---11-8----8-|----------------------8-|
|-(8)\------------|----------|---/10----------10---|-10p8----10----8-10---8-|
|-----------------|----------|---------------------|------10----10----------|
|-----------------|----------|---------------------|------------------------|
|-----------------|----------|---------------------|------------------------|


  +E   Q  Q  Q.     H    E E E  E       +H..       E       +H     +Q   +E  E
|-----------------|-------------8----|--(8)--------6-----|-(6)----(6)--(6)----|
|-(8)\------------|------------11b13-|-(11)--------9b11==|=(9)----(9)--(9)r8--|
|-(8)\------------|------------------|-------------------|-----------------8--|
|-----------------|------x-x-x-------|-------------------|--------------------|
|-----------------|------x-x-x-------|-------------------|--------------------|
|-----------------|------------------|-------------------|--------------------|


  +E   Q  Q  Q.     W          E   E E E  E E  E E
|-----------------|----------|---------8-----------|
|-(8)\------------|----------|-------8---11-8----8-|
|-(8)\------------|----------|---/10----------10---|
|-----------------|----------|---------------------|
|-----------------|----------|---------------------|
|-----------------|----------|---------------------|


                ~
   S S  E  E  E E  E E E   +E   Q  Q  Q.
|------------------------|------------------|
|----------------------8-|-(8)\-------------|
|-10p8----10----8-10---8-|-(8)\-------------|
|------10----10----------|------------------|
|------------------------|------------------|
|------------------------|------------------|


                                                    TP
  H    E E E  E       +H..       E      +H..        E
|-------------8----|--(8)--------6----|-(6)---------8-----|
|------------11b13-|-(11)--------9b11-|-(9)--------11b13==|
|------------------|------------------|-------------------|
|------x-x-x-------|------------------|-------------------|
|------x-x-x-------|------------------|-------------------|
|------------------|------------------|-------------------|


    TP   TP     TP      TP        TP   TP     TP      TP
   +Q    Q      Q.      E        +Q    Q      Q.      E
|--(8)---8------8-------8-----|--(8)---8------8------10----|
|-(11)--11b13--11b13---11b13==|=(11)--11b13--11b13---13b15-|
|-----------------------------|----------------------------|
|-----------------------------|----------------------------|
|-----------------------------|----------------------------|
|-----------------------------|----------------------------|


    TP   TP     TP      TP       TP   TP     TP      TP
   +Q    Q      Q.      E       +Q    Q      Q.      E
|-(10)--10-----10------10----|-(10)--10-----10------11------|
|-(13)--13b15--13b15---13b15-|-(13)--13b15--13b15---14b16===|
|----------------------------|------------------------------|
|----------------------------|------------------------------|
|----------------------------|------------------------------|
|----------------------------|------------------------------|


    TP   TP     TP      TP       TP   TP     TP      TP
   +Q    Q      Q.      E       +Q    Q      Q.      E
|-(11)--11-----11------11----|-(11)--11-----11------13----|
|-(14)--14b16--14b16---14b16-|-(14)--14b16--14b16---16b18-|
|----------------------------|----------------------------|
|----------------------------|----------------------------|
|----------------------------|----------------------------|
|----------------------------|----------------------------|


    TP   TP     TP      TP       TP   TP     TP      TP
   +Q    Q      Q.      E       +Q    Q      Q.      E
|-(13)--13-----13------13----|-(13)--13-----13------15------|
|-(16)--16b18--16b18---16b18-|-(16)--16b18--16b18---18b20===|
|----------------------------|------------------------------|
|----------------------------|------------------------------|
|----------------------------|------------------------------|
|----------------------------|------------------------------|


    TP      TP        TP            TP            TP
   +H      +H        +W            +W            +H..        E
|-(15)----(15)----|-(15)--------|-(15)--------|-(15)--------15--|
|-(18)----(18)----|-(18)--------|-(18)r=======|=(18)--------18--|
|-----------------|-------------|-------------|-----------------|
|-----------------|-------------|-------------|-----------------|
|-----------------|-------------|-------------|-----------------|
|-----------------|-------------|-------------|-----------------|


   +E       +E   +E   E      +E   +E   E      +E
|-(15)-----(15)-(15)-15-----(15)-(15)-15-----(15)-|
|-(18)b20==(18)-(18)r18b20==(18)-(18)r18b20==(18)-|
|-------------------------------------------------|
|-------------------------------------------------|
|-------------------------------------------------|
|-------------------------------------------------|


                                             Gtr II
                                                                             ~~~~~~
   +E   E      +E   +E   E      +E   +E  E   W          H     E      +E   E  E
|-(15)-15-----(15)-(15)-15-----(15)-(15)---|----------|-----------------------------|
|-(18)r18b20==(18)-(18)r18b20==(18)-(18)r==|==========|======18b20==(18)r16-18b20===|
|----------------------------------------0-|----------|-----------------------------|
|----------------------------------------0-|----------|-----------------------------|
|------------------------------------------|----------|-----------------------------|
|------------------------------------------|----------|-----------------------------|


    ~~~~~~~~~~~~~~~~~~                     ~~~~
                                |--3--|
   +W            +E    E  E  E  Q  Q  Q    H..       E
|-------------|-------------------------|--------------|
|-(18)--------|-(18)r-16-18-16-15-16-18-|-18-----------|
|-------------|-------------------------|------------0-|
|-------------|-------------------------|--------------|
|-------------|-------------------------|--------------|
|-------------|-------------------------|--------------|


                           ~~
   S  S  S  S  S  S  S  S  H
|-------------------------------|
|-16p15-------15----------------|
|-------17-16----17-16-15-17----|
|-------------------------------|
|-------------------------------|
|-------------------------------|


   S  S  S  S  S  S  S  S  S  S  S  S  S  S  S  S
|-11h13-10-11-10----------------------------------|
|----------------11-12-10-13-12-10----------------|
|----------------------------------13-12----------|
|----------------------------------------15-13-12-|
|-------------------------------------------------|
|-------------------------------------------------|


   S  S  S  S  S  S  S  S  S  S  S  S  S  S  S  S
|-------------------------------------------------|
|-------------------------------------------------|
|-------------------------------------------------|
|-13-12-13-12-13-12-------12----------------------|
|-------------------15-13----15-13-12-15-13-15-13-|
|-------------------------------------------------|
|
| Gtr I
|  W
|-------------------------------------------------|
|-------------------------------------------------|
|-------------------------------------------------|
|-------------------------------------------------|
|-------------------------------------------------|
|-------------------------------------------------|


                     |--3--|
   E  E  E  E  E  E  E  E  E    E    Q   Q   E  E  E
|----------------------------|-----------------15-18b20--|
|-------------15-16-15h16p15-|------15--16--18-----------|
|----------17----------------|-17------------------------|
|-------17-------------------|---------------------------|
|----15----------------------|---------------------------|
|-15-------------------------|---------------------------|
|
|                                                  TP
|  W                            H..                E
|----------------------------|---------------------------|
|----------------------------|---------------------------|
|----------------------------|--------------------12-----|
|----------------------------|---------------------------|
|----------------------------|---------------------------|
|----------------------------|---------------------------|


   +W            +E   Q  Q  Q.         W             W
|-(18)--------|-(18)\--------------|-------------|----------------|
|-------------|--------------------|-------------|----------------|
|-------------|--------------------|-------------|----------------|
|-------------|--------------------|-------------|----------------|
|-------------|--------------------|-------------|----------------|
|-------------|--------------------|-------------|----------------|
|
|   TP            TP             TP    TP            TP        TP
|  +W            +H..            E    +W            +H..       E
|-------------|--------------------|-------------|----------------|
|-------------|--------------------|-------------|----------------|
|-(12)--------|-(12)------------10-|-(10)--------|-(10)--------8--|
|-------------|--------------------|-------------|----------------|
|-------------|--------------------|-------------|----------------|
|-------------|--------------------|-------------|----------------|


  Gtr I
   TP           TP        TP   TP        TP   TP
  +W           +H..       E   +H..       E   +H..        E
|------------|--------------|--------------|----------------|
|------------|--------------|--------------|----------------|
|-(8)--------|-(8)--------7-|-(7)--------5-|-(5)---------5--|
|------------|--------------|--------------|----------------|
|------------|--------------|--------------|----------------|
|------------|--------------|--------------|----------------|
|
| Gtr II
|  W            W              W              H..        E
|------------|--------------|--------------|----------------|
|------------|--------------|--------------|------------11--|
|------------|--------------|--------------|----------------|
|------------|--------------|--------------|----------------|
|------------|--------------|--------------|----------------|
|------------|--------------|--------------|----------------|


   +E     Q         Q         Q.
|--------------------------------------------|
|--------------------------------------------|
|--(5)\--------------------------------------|
|--------------------------------------------|
|--------------------------------------------|
|--------------------------------------------|
|
|  +S  S  S S  S S  S S  S S  S  S  S S  S S
|--------------------------------------------|
|-(11)p8----8-11p8----8-11p8-----8-11p8----8-|
|--------10--------10--------10---------10---|
|--------------------------------------------|
|--------------------------------------------|
|--------------------------------------------|


   W
|------------------------------------------|
|------------------------------------------|
|------------------------------------------|
|------------------------------------------|
|------------------------------------------|
|------------------------------------------|
|
|  S S  S S  S S  S S  S S  S S  S S  S S
|------------------------------------------|
|-11p8----8-11p8----8-11p8----8-11p8----8--|
|------10--------10--------10--------10----|
|------------------------------------------|
|------------------------------------------|
|------------------------------------------|


  Gtr II
   S S  S  S S  S S  S S  S S  S S  S S S
|----8-11-10-8----8h10-8----8---------8---|
|-11-----------11--------11---11-8--------|
|----------------------------------10---8-|
|-----------------------------------------|
|-----------------------------------------|
|-----------------------------------------|


   S S  S  S  S  S S  S S  S  S S  S S  S S
|--------------------------------------------|
|-------------------------------0------------|
|----8-10-11-11p10-8--------------10p8----0--|
|-10-----------------10-8-10-10--------10----|
|--------------------------------------------|
|--------------------------------------------|


   S S  S S  S S  S S  S S  S S  S S  S S
|-----------------------------------------|
|-----------------------------------------|
|-10p8----0-10p8----0-10p8----0-10p8----0-|
|------10--------10--------10--------10---|
|-----------------------------------------|
|-----------------------------------------|


   S S  S S  S S  S S  S S  E  E  E
|---------------------------------------|
|--------------------------11-13-13b15--|
|-10p8-10p8----8-10p8-10p8--------------|
|-----------10--------------------------|
|---------------------------------------|
|---------------------------------------|


  Gtr I
    W                        H..                   E
|------------------------|------------------------------|
|------------------------|------------------------------|
|------------------------|------------------------11b12-|
|------------------------|------------------------------|
|------------------------|------------------------------|
|------------------------|------------------------------|
|
| Gtr II
|  +H      +Q    E  E       +E    S  S  H     +E   E
|---------------11-------|------------------------------|
|-(13)----(13)-----13b15r|=(13)--13p11-13----(13)-10b11-|
|------------------------|------------------------------|
|------------------------|------------------------------|
|------------------------|------------------------------|
|------------------------|------------------------------|


                      ~~~~~~~~~~~~~~~~~~~~~~~
                      |----3----|    |---3----|
   +H      +H        +Q   +Q   +Q   +Q   +Q   Q
|-----------------|-----------------------------|
|-----------------|-----------------------------|
|-(11)----(11)----|-(11)-(11)-(11)-(11)-(11)-10-|
|-----------------|-----------------------------|
|-----------------|-----------------------------|
|-----------------|-----------------------------|
|
|                     ~~~~~~~~~~~~~~~~~~~~~~~
|                     |----3----|    |---3----|
|  +H      +H        +Q   +Q   +Q   +Q   +Q   Q
|-----------------|-----------------------------|
|-(10)----(10)----|-(10)-(10)-(10)-(10)-(10)-10-|
|-----------------|-----------------------------|
|-----------------|-----------------------------|
|-----------------|-----------------------------|
|-----------------|-----------------------------|


                      ~~~~~~~~~~~~~~~~~~~~~~~
                      |----3----|    |---3---|
   +H      +H        +Q   +Q   +Q   +Q   +Q  Q
|-----------------|----------------------------|
|-----------------|----------------------------|
|-(10)----(10)----|-(10)-(10)-(10)-(10)-(10)-8-|
|-----------------|----------------------------|
|-----------------|----------------------------|
|-----------------|----------------------------|
|
|                     ~~~~~~~~~~~~~~~~~~~~~~~
|                     |----3----|    |---3---|
|  +H      +H        +Q   +Q   +Q   +Q   +Q  Q
|-----------------|----------------------------|
|-(10)----(10)----|-(10)-(10)-(10)-(10)-(10)-8-|
|-----------------|----------------------------|
|-----------------|----------------------------|
|-----------------|----------------------------|
|-----------------|----------------------------|


                   ~~~~~~~~~~~~~~~~~~~
                   |---3---|   |--3---|
  +H     +H       +Q  +Q  +Q  +Q  +Q  Q
|---------------|-----------------------|
|---------------|-----------------------|
|-(8)----(8)----|-(8)-(8)-(8)-(8)-(8)-7-|
|---------------|-----------------------|
|---------------|-----------------------|
|---------------|-----------------------|
|
|                  ~~~~~~~~~~~~~~~~~~~
|                  |---3---|   |--3---|
| +H     +H       +Q  +Q  +Q  +Q  +Q  Q
|---------------|-----------------------|
|-(8)----(8)----|-(8)-(8)-(8)-(8)-(8)-6-|
|---------------|-----------------------|
|---------------|-----------------------|
|---------------|-----------------------|
|---------------|-----------------------|


                   ~~~~~~~~~~~~~~~~~~~
                   |---3---|   |---3---|
  +H     +H       +Q  +Q  +Q  +Q  +Q   Q
|---------------|------------------------|
|---------------|------------------------|
|-(7)----(7)----|-(7)-(7)-(7)-(7)-(7)----|
|---------------|---------------------10-|
|---------------|------------------------|
|---------------|------------------------|
|
|                  ~~~~~~~~~~~~~~~~~~~
|                  |---3---|   |---3---|
| +H     +H       +Q  +Q  +Q  +Q  +Q   Q
|---------------|------------------------|
|-(6)----(6)----|-(6)-(6)-(6)-(6)-(6)----|
|---------------|----------------------8-|
|---------------|------------------------|
|---------------|------------------------|
|---------------|------------------------|


                      ~~~~~~~~~~~~~~~~~~
                      |----3----|
   +H      +H        +Q   +Q   +Q   +Q    +E   E
|-----------------|---------------------------------|
|-----------------|---------------------------------|
|-----------------|---------------------------11b12-|
|-(10)----(10)----|-(10)-(10)-(10)-(10)--(10)-------|
|-----------------|---------------------------------|
|-----------------|---------------------------------|
|
|                     ~~~~~~~~~~~~~~~~~~
|                     |----3----|
|  +H      +H        +Q   +Q   +Q   +Q    +E   E
|-----------------|---------------------------------|
|-----------------|---------------------------10b11-|
|--(8)-----(8)----|--(8)--(8)--(8)--(8)---(8)-------|
|-----------------|---------------------------------|
|-----------------|---------------------------------|
|-----------------|---------------------------------|


                      ~~~~~~~~~~~~~~~~~~~~~~~
                      |----3----|    |---3----|
   +H      +H        +Q   +Q   +Q   +Q   +Q   Q
|-----------------|-----------------------------|
|-----------------|-----------------------------|
|-(11)----(11)----|-(11)-(11)-(11)-(11)-(11)-10-|
|-----------------|-----------------------------|
|-----------------|-----------------------------|
|-----------------|-----------------------------|
|
|                     ~~~~~~~~~~~~~~~~~~~~~~~
|                     |----3----|    |---3----|
|  +H      +H        +Q   +Q   +Q   +Q   +Q   Q
|-----------------|-----------------------------|
|-(10)----(10)----|-(10)-(10)-(10)-(10)-(10)-10-|
|-----------------|-----------------------------|
|-----------------|-----------------------------|
|-----------------|-----------------------------|
|-----------------|-----------------------------|


                      ~~~~~~~~~~~~~~~~~~~~~~~
                      |----3----|    |---3---|
   +H      +H        +Q   +Q   +Q   +Q   +Q  Q
|-----------------|----------------------------|
|-----------------|----------------------------|
|-(10)----(10)----|-(10)-(10)-(10)-(10)-(10)-8-|
|-----------------|----------------------------|
|-----------------|----------------------------|
|-----------------|----------------------------|
|
|                     ~~~~~~~~~~~~~~~~~~~~~~~
|                     |----3----|    |---3---|
|  +H      +H        +Q   +Q   +Q   +Q   +Q  Q
|-----------------|----------------------------|
|-(10)----(10)----|-(10)-(10)-(10)-(10)-(10)-8-|
|-----------------|----------------------------|
|-----------------|----------------------------|
|-----------------|----------------------------|
|-----------------|----------------------------|


                   ~~~~~~~~~~~~~~~~~~~~~~
                   |---3---|   |--3---|
  +H     +H       +Q  +Q  +Q  +Q  +Q  Q
|---------------|-----------------------|
|---------------|-----------------------|
|-(8)----(8)----|-(8)-(8)-(8)-(8)-(8)-7-|
|---------------|-----------------------|
|---------------|-----------------------|
|---------------|-----------------------|
|
|                  ~~~~~~~~~~~~~~~~~~~~~~
|                  |---3---|   |--3---|
| +H     +H       +Q  +Q  +Q  +Q  +Q  Q
|---------------|-----------------------|
|-(8)----(8)----|-(8)-(8)-(8)-(8)-(8)-6-|
|---------------|-----------------------|
|---------------|-----------------------|
|---------------|-----------------------|
|---------------|-----------------------|


 ~~~~~~~~~~~~~~~~~~~~~~~~~~~~~~~~~   ~~~~~~~~~
  +H     +Q.    E    +H      +Q   E  E    +W
|-----------------|--------------------|---------|
|-----------------|--------------------|---------|
|-(7)----(7)------|--------------------|---------|
|--------------10-|-(10)----(10)p=8-10-|-(10)----|
|-----------------|--------------------|---------|
|-----------------|--------------------|---------|
|
|~~~~~~~~~~~~~~~~~~~~~~~~~~~~~~~~~   ~~~~~~~~~
| +H     +Q.    E    +H      +Q   E  E    +W
|-----------------|--------------------|---------|
|-(6)----(6)------|--------------------|---------|
|---------------8-|--(8)-----(8)--7h=8-|--(8)----|
|-----------------|--------------------|---------|
|-----------------|--------------------|---------|
|-----------------|--------------------|---------|


    ~~~~~
   +H..        E       +E  E  E  E  E E  E    E
|-------------------|--------11-10----8---------|
|-------------------|------8-------11---------8-|
|-------------10b11-|-(10)--------------10b11---|
|-(10)--------------|---------------------------|
|-------------------|---------------------------|
|-------------------|---------------------------|
|
|   ~~~~~
|  +H..        E        W
|-------------------|---------------------------|
|-------------------|---------------------------|
|--(8)--------------|---------------------------|
|-------------------|---------------------------|
|-------------------|---------------------------|
|-------------------|---------------------------|


   E  E  E E  E    E  E  E    E    E  E  E  E E  E    E
|-11-10----8---------11-10-|---------11-10----8----------|
|-------11---------8-------|-------8-------11---------8--|
|------------10b11---------|-10b11--------------10b11----|
|--------------------------|-----------------------------|
|--------------------------|-----------------------------|
|--------------------------|-----------------------------|
|
|  W                          W
|--------------------------|-----------------------------|
|--------------------------|-----------------------------|
|--------------------------|-----------------------------|
|--------------------------|-----------------------------|
|--------------------------|-----------------------------|
|--------------------------|-----------------------------|


   E  E  E E  S  S E  E E    E    E  E  E  E E  E    E
|-11-10----8--------------|---------11-10----8---------|
|-------11----------------|-------8-------11---------8-|
|------------11p10p8------|-10b11--------------10b11---|
|--------------------10-8-|----------------------------|
|-------------------------|----------------------------|
|-------------------------|----------------------------|
|
|  W                         W
|-------------------------|----------------------------|
|-------------------------|----------------------------|
|-------------------------|----------------------------|
|-------------------------|----------------------------|
|-------------------------|----------------------------|
|-------------------------|----------------------------|


   E  E  E E  E    E  E  E    Q.    Q.    Q
|-11-10----8---------11-10-|-11----10-----8--|
|-------11---------8-------|-----------------|
|------------10b11---------|-----------------|
|--------------------------|-----------------|
|--------------------------|-----------------|
|--------------------------|-----------------|
|
|  W                          Q.    Q.    Q
|--------------------------|-15----13----11--|
|--------------------------|-----------------|
|--------------------------|-----------------|
|--------------------------|-----------------|
|--------------------------|-----------------|
|--------------------------|-----------------|


   +E   Q.    Q   Q       E E E  E E E  E E
|--(8)---------------||--11p8---10p8---11p8-|
|------11----10---8--||o------8------8------|
|--------------------||---------------------|
|--------------------||---------------------|
|--------------------||o--------------------|
|--------------------||---------------------|
|
|  +E   Q.    Q   Q       E E E  E E E  E E
|-(11)-10------------||---------------------|
|------------13--11--||o--------------------|
|--------------------||---8p5----7p5----8p5-|
|--------------------||-------5------5------|
|--------------------||o--------------------|
|--------------------||---------------------|


  E  E E E  E E  E E  3x  E  E E  E  E E  E  E
|---13p8---11p8-10p8--||-11-10-8----10-8--------|
|-8------8-----------o||---------11------11-10--|
|---------------------||------------------------|
|---------------------||------------------------|
|--------------------o||------------------------|
|---------------------||------------------------|
|
| E  E E E  E E  E E  3x  E  E E  E  E E  E  E
|---------------------||------------------------|
|--------------------o||------------------------|
|---10p5----8p5--7p5--||--8--7-5-----7-5--------|
|-5------5------------||----------8-------8--7--|
|--------------------o||------------------------|
|---------------------||------------------------|


  E  E  E E  E  E E  E      S  S  S  S  S  S  S  S  S  S  S  S  S  S  S  S
|-8--------------------||--13p10----10-13p10----10-13p10----10-13p10----10-|
|---11-10-8-11-10-8----||o-------13----------13----------13----------13----|
|-------------------10-||--------------------------------------------------|
|----------------------||--------------------------------------------------|
|----------------------||o-------------------------------------------------|
|----------------------||--------------------------------------------------|
|
| E  E  E E  E  E E  E      S  S  S  S  S  S  S  S  S  S  S  S  S  S  S  S
|----------------------||--------------------------------------------------|
|----------------------||o-------------------------------------------------|
|-5--------------------||--10p=7-----7-10p=7-----7-10p=7-----7-10p=7-----7-|
|----8--7-5--8--7-5----||--------10----------10----------10----------10----|
|--------------------8-||o-------------------------------------------------|
|----------------------||--------------------------------------------------|


   S  S  S  S  S  S  S  S  S  S  S  S  S  S  S  S  4x
|-13p10----10-13p10----10-15p10----10-13p10----10--||
|-------13----------13----------13----------13----o||
|--------------------------------------------------||
|--------------------------------------------------||
|-------------------------------------------------o||
|--------------------------------------------------||
|
|  S  S  S  S  S  S  S  S  S  S  S  S  S  S  S  S  4x
|--------------------------------------------------||
|-------------------------------------------------o||
|-10p=7-----7-10p=7-----7-12p=7-----7-10p=7-----7--||
|-------10----------10----------10----------10-----||
|-------------------------------------------------o||
|--------------------------------------------------||


       S  S  S  S  S  S  S  S  S  S  S  S  S  S  S  S
|-||--15p12-15p12----12-15p12-15p12----12-15p12-15p12-|
|-||o-------------15----------------15----------------|
|-||--------------------------------------------------|
|-||--------------------------------------------------|
|-||o-------------------------------------------------|
|-||--------------------------------------------------|
|
|      S  S  S  S  S  S  S  S  S  S  S  S  S  S  S  S
|-||--19p15-19p15----15-19p15-19p15----15-19p15-19p15-|
|-||o-------------17----------------17----------------|
|-||--------------------------------------------------|
|-||--------------------------------------------------|
|-||o-------------------------------------------------|
|-||--------------------------------------------------|


   S  S  S  S  S  S  S  S  S  S  S  S  S  S  S  S  4x  E H..         W
|----12-15p12-15p12----12-17p12----12-15p12----12--||-15-----------|------|
|-15----------------15----------15----------15----o||--------------|------|
|--------------------------------------------------||--------------|------|
|--------------------------------------------------||--------------|------|
|-------------------------------------------------o||--------------|------|
|--------------------------------------------------||--------------|------|
|
|  S  S  S  S  S  S  S  S  S  S  S  S  S  S  S  S  4x  E H..         W
|----15-19p15-19p15----15-20p15----15-19p15----15--||-19-----------|------|
|-17----------------17----------17----------17----o||--------------|------|
|--------------------------------------------------||--------------|------|
|--------------------------------------------------||--------------|------|
|-------------------------------------------------o||--------------|------|
|--------------------------------------------------||--------------|------|


  C5                                Bb5                                    G#5
  Gtr II
   W                 +H..            E   +W                 +H..            E
   |                  |              |    |                  |              |
   /                  /              /    /                  /              /

  Gtr I
   TP       TP   TP   TP        TP   TP   TP       TP   TP   TP        TP   TP
   H.      +E    E    H.       +E    E   +H.      +E    E   +H.       +E    E
|------------------|-------------------|------------------|--------------------|
|------------------|-------------------|------------------|----------------/9--|
|-/8-------(8)\-/8-|--8--------(8)\-/8-|-(8)------(8)\-/8-|-(8)-------(8)\-/8--|
|-/8-------(8)\-/8-|--8--------(8)\-/8-|-(8)------(8)\-/8-|-(8)-------(8)\-----|
|------------------|-------------------|------------------|--------------------|
|------------------|-------------------|------------------|--------------------|


                                    G5
  +W                 +H..             E
   |                  |               |
   /                  /               /

   TP       TP   TP   TP        TP    TP
  +H.      +E    E   +H.       +E     E
|------------------|--------------------|
|-(9)------(9)\-/9-|-(9)-------(9)\-/11-|
|-(8)------(8)\-/8-|-(8)-------(8)\-/10-|
|------------------|--------------------|
|------------------|--------------------|
|------------------|--------------------|


                   Bb5              B5      C5
   +H..              E    +H     +E E   E     E
    |                |     |      | |         |
    /                /     /      / /         /

    TP         TP    TP    TP           TP    TP
   +H.        +E     E    +H.          +E     E
|----------------------|-------------------------|
|-(11)-------(11)\-/11-|-(11)---------(11)\-/13--|
|-(10)-------(10)\-/10-|-(10)---------(10)\-/12--|
|----------------------|-------------------------|
|----------------------|-------------------------|
|----------------------|-------------------------|


                                                      Bb5
   +W                          +H..                     E
    |                           |                       |
    /                           /                       /

    TP    TP   TP   TP    TP    TP                      TP
   +Q    +E    Q   +Q     E    +Q      Q     Q     E    E
|---------------------------|-----------------------------|
|-(13)--(13)\-13--(13)\--13-|-(13)\--/13---/13---/13\-/13-|
|-(12)--(12)\-12--(12)\--12-|-(12)\--/12\--/12\--/12\-/12-|
|---------------------------|-----------------------------|
|---------------------------|-----------------------------|
|---------------------------|-----------------------------|


                                                    G#5
  +W                         +H..                     E
   |                          |                       |
   /                          /                       /

   TP   TP   TP   TP    TP    TP                      TP
   Q   +E    Q   +Q     E    +Q      Q     Q     E    E
|-------------------------|------------------------------|
|-13--(13)\-13--(13)\--13-|-(13)\--/13---/13---/13\-/13--|
|-12--(12)\-12--(12)\--12-|-(12)\--/12\--/12\--/12\-/13--|
|-------------------------|------------------------------|
|-------------------------|------------------------------|
|-------------------------|------------------------------|


                                             G5
   +W                        +H..              E
    |                         |                |
    /                         /                /

    TP    TP   TP       TP    TP         TP    TP
   +Q     E    H        E    +H.        +E     E
|--------13---13----------|----------------------|
|-(13)--(13)-(13)\----/13-|-(13)-------(13)\-/15-|
|-(13)--(13)-(13)\----/13-|-(13)-------(13)\-/15-|
|-------------------------|----------------------|
|-------------------------|----------------------|
|-------------------------|----------------------|


              Bb5               B5  C5
   +H..         E    +H      +E E E  E
    |           |     |       | |    |
    /           /     /       / /    /

    TP          TP    TP             ~~
   +H..         E    +H..            E
|-----------------|---------------------|
|-(15)--------/18-|-(18)----------------|
|-(15)--------/15-|-(15)------------17--|
|-----------------|---------------------|
|-----------------|---------------------|
|-----------------|---------------------|


 Drum Solo
                       N.C.
   +Q   H.             W          W          W
    |
    /

    ~~~~
   +H        +H        W          W          W
|--------------------|----------|----------|------|
|--------------------|----------|----------|------|
|-(17)------(17)\----|----------|----------|------|
|--------------------|----------|----------|------|
|--------------------|----------|----------|------|
|--------------------|----------|----------|------|


  C5C                                Bb5     Bb
  Gtr I
  H    +E  E E E   +E  E E E +E  E E E   +H.      +E  E   +E  E E E E E E E
|----------------|---------------------|--------------6-|-(6)-4-3---4-3------|
|----------3-4-6-|-(6)-4-3-4-(4)-3-----|----------------|---------6-----6-4--|
|-5----(5)-------|-----------------5-3-|-(3)------(3)---|--------------------|
|----------------|---------------------|----------------|--------------------|
|----------------|---------------------|----------------|--------------------|
|----------------|---------------------|----------------|--------------------|


  G#Ab                           G5    G           Bb5     Bb      B5  C5
  Gtr I
  H    +E  E E E   E E E E E E E E   E E E E E E E E   +E  E E E E E E E
|----------------|-----------------|-----------------|--------------------|
|----------------|-----------------|-----------------|--------------------|
|-1----(1)-----3-|-------1-------0-|-----1---0-1---3-|-(3)---1---3-4---5--|
|----------1h3---|---1h3-----1h3---|---3---3-----3---|-----3---3----------|
|----------------|-----------------|-----------------|--------------------|
|----------------|-----------------|-----------------|--------------------|
|
| Gtr II
| W                W                 W                  H        Q   E E
|----------------|-----------------|-----------------|--------------------|
|----------------|-----------------|-----------------|--------------------|
|----------------|-----------------|-----------------|-----------------8--|
|----------------|-----------------|-----------------|--------------------|
|----------------|-----------------|-----------------|--------------------|
|----------------|-----------------|-----------------|--------------------|


  C5  C                                Bb5
  +H     +E  E E E   +E  E E E +E  E E E
|------------------|---------------------|
|------------3-4-6-|-(6)-4-3-4-(4)-3-----|
|-(5)----(5)-------|-----------------5-3-|
|------------------|---------------------|
|------------------|---------------------|
|------------------|---------------------|
|
| +H     +E  E E E   +E  E E E +E  E E E
|------------------|---------------------|
|------------6-8-9-|-(9)-8-6-8-(8)-6-----|
|-(8)----(8)-------|-----------------8-7-|
|------------------|---------------------|
|------------------|---------------------|
|------------------|---------------------|


      Bb
  +H.      +E   E    +E  E E E E E E E
|---------------6-|--(6)-4-3---4-3------|
|-----------------|----------6-----6-4--|
|-(3)------(3)----|---------------------|
|-----------------|---------------------|
|-----------------|---------------------|
|-----------------|---------------------|
|
| +H.      +E   E    +E  E E E E E E E
|--------------10-|-(10)-8-6---8-6------|
|-----------------|----------9-----9-8--|
|-(7)------(7)----|---------------------|
|-----------------|---------------------|
|-----------------|---------------------|
|-----------------|---------------------|


  G#Ab                           G5    G           Bb5     Bb      B5  C5
  H    +E  E E E   E E E E E E E E   E E E E E E E E   +E  E E E E E E E
|----------------|-----------------|-----------------|--------------------|
|----------------|-----------------|-----------------|--------------------|
|-1----(1)-----3-|-------1-------0-|-----1---0-1---3-|-(3)---1---3-4---5--|
|----------1h3---|---1h3-----1h3---|---3---3-----3---|-----3---3----------|
|----------------|-----------------|-----------------|--------------------|
|----------------|-----------------|-----------------|--------------------|
|
| H    +E  E E E   E E E E E E E E   E E E E E E E E   +E  E E E E E E E
|----------------|-----------------|-----------------|--------------------|
|----------------|-----------------|-----------------|--------------------|
|-5----(5)-----7-|-------5-------4-|-----5---4-5---7-|-(7)---5---6-7---8--|
|----------5h6---|---5h6-----5-6---|---6---6-----6---|-----6---6----------|
|----------------|-----------------|-----------------|--------------------|
|----------------|-----------------|-----------------|--------------------|


    C5  C          Bb5     Bb         G#5
    +E  E E E E Q  E   +E  E E E E Q  E
||-------------------|------------------|
||o-----4-3---3-4----|-----4-3---3-4----|
||--(5)-----5------3-|-(3)-----5------1-|
||-------------------|------------------|
||o------------------|------------------|
||-------------------|------------------|
|
|   +E  E E E E Q  E   +E  E E E E Q  E
||-------------------|------------------|
||o-----8-6---6-8----|-----8-6---6-8----|
||--(8)-----8------7-|-(7)-----8------5-|
||-------------------|------------------|
||o------------------|------------------|
||-------------------|------------------|


      Ab         G5      G       B5 C5
  +E  E E E E Q  E   +E  E E E E Q  E
|------------------|-------------------||
|-----4-3---3-4----|-----4-3---3-4----o||
|-(1)-----5--------|---------5------5--||
|----------------5-|-(5)---------------||
|------------------|------------------o||
|------------------|-------------------||
|
| +E  E E E E Q  E   +E  E E E E Q  E
|------------------|-------------------||
|-----8-6---6-8----|-----8-6---6-8----o||
|-(5)-----8------4-|-(4)-----8------8--||
|------------------|-------------------||
|------------------|------------------o||
|------------------|-------------------||


    C5  C          Bb5     Bb         G#5
    +E  E E E E Q  E   +E  E E E E Q  E
||-------------------|------------------|
||o-----4-3---3-4----|-----4-3---3-4----|
||--(5)-----5------3-|-(3)-----5------1-|
||-------------------|------------------|
||o------------------|------------------|
||-------------------|------------------|
|
|    E  E E E E Q  E   +E  E E E E Q  E
||------8-6---6-8----|-----8-6---6-8----|
||o--8------8------6-|-(6)-----8--------|
||-------------------|----------------8-|
||-------------------|------------------|
||o------------------|------------------|
||-------------------|------------------|


      Ab         G5      G5      B5 C5
  +E  E E E E Q  E   +E  E E E E Q  E
|------------------|-------------------||
|-----4-3---3-4----|-----4-3---3-4----o||
|-(1)-----5--------|---------5------5--||
|----------------5-|-(5)---------------||
|------------------|------------------o||
|------------------|-------------------||
|
| +E  E E E E Q  E   +E  E E E E Q  E
|-----8-6---6-8----|-----8-6---6-8-----||
|---------8--------|---------8------8-o||
|-(8)------------7-|-(7)---------------||
|------------------|-------------------||
|------------------|------------------o||
|------------------|-------------------||


                      Bb5                   G#5                   G5
    E E E E S S S S E E   E E E E S S S S E E   E E E E S S S S E E
||----------------------|---------------------|----------------------|
||o---4-4-4-3-4-3---4---|---4-4-4-3-4-3---4---|---4-4-4-3-4-3---4----|
||----------------5---3-|---------------5---1-|---------------5---0--|
||----------------------|---------------------|----------------------|
||o---------------------|---------------------|----------------------|
||----------------------|---------------------|----------------------|
|
|   E E E E S S S S E E   E E E E S S S S E E   E E E E S S S S E E
||----------------------|---------------------|----------------------|
||o---8-8-8-6-8-6---8---|---8-8-8-6-8-6---8---|---8-8-8-6-8-6---8----|
||----------------8---7-|---------------8---5-|---------------8---4--|
||----------------------|---------------------|----------------------|
||o---------------------|---------------------|----------------------|
||----------------------|---------------------|----------------------|


  1.                     2.
  G5G         B5    C5    G5G         B5    C5
  E E E E S S S S E E     E E E E S S S S E E
|----------------------||---------------------*|
|---4-4-4-3-4-3---4---o||---4-4-4-3-4-3---4---*|
|---------------5---5--||---------------5---5-*|
|----------------------||---------------------*|
|---------------------o||---------------------*|
|----------------------||---------------------*|
|
| E E E E S S S S E E     E E E E S S S S E E
|----------------------||---------------------*|
|---8-8-8-6-8-6---8---o||---8-8-8-6-8-6---8---*|
|---------------8---8--||---------------8---8-*|
|----------------------||---------------------*|
|---------------------o||---------------------*|
|----------------------||---------------------*|



Duration Legend
---------------
W - whole; H - half; Q - quarter; E - 8th; S - 16th; T - 32nd; X - 64th; a - acciaccatura
+ - note tied to previous; . - note dotted; .. - note double dotted
Uncapitalized letters represent notes that are staccato (1/2 duration)
Irregular groupings are notated above the duration line
Duration letters will always appear directly above the note/fret number it represents the
duration for.  Duration letters with no fret number below them represent rests.  Multi-
bar rests are notated in the form Wxn, where n is the number of bars to rest for.  Low
melody durations appear below the staff

Tablature Legend
----------------
 h   - hammer-on
 p   - pull-off
 b   - bend
 pb  - pre-bend
 r   - bend release (if no number after the r, then release immediately)
 /\  - slide into or out of (from/to "nowhere")
 s   - legato slide
 S   - shift slide
<n> - natural harmonic
[n]  - artificial harmonic
n(n) - tapped harmonic
 ~   - vibrato
 tr  - trill
 T   - tap
 TP  - trem. picking
 PM  - palm muting
\n/  - tremolo bar dip; n = amount to dip
 \n  - tremolo bar down
 n/  - tremolo bar up
/n\  - tremolo bar inverted dip
 =   - hold bend; also acts as connecting device for hammers/pulls
 <> - volume swell (louder/softer)
 x   - on rhythm slash represents muted slash
 o   - on rhythm slash represents single note slash

Misc Legend
-----------
 |  - bar
||  - double bar
||o - repeat start
o|| - repeat end
*|  - double bar (ending)
 :  - bar (freetime)
 $  - Segno
 &  - Coda
Tempo markers - <E/E./Q/Q./H/H.> = BPM(8/16=s8/s16), where s8 = swing 8ths, s16 = swing 16ths

comments
We did not receive enough feedback on this tab! Please rate:
print report bad tab
1 2 3 4 5
I want to post or [tab]
guest
You may want to rate the tab now too:
select rating
Please do not post tabs as comments. Select "correction" instead!