Oops, an error
Loading. Please wait.

She Wolf Tab

ver4
ver4
More versions @911Tabs.com
59,423 views 72 this week
3 commentsread comments
1 2 3 4 5
accurate
x 5
Autoscroll
+/-
esc
set tempo
stop
Hey! There's an official Ultimate Guitar app which is ideal
for learning songs when you're away from computer. Get the app
WARNING: You are trying to view
                                    content from Ultimate-Guitar.com
                                    in an unauthorized application,
                                    which is prohibited.

                                    Please use an official Ultimate
                                    Guitar Tabs application for iPhone,
                                    iPad or Android to access legitimate
                                    chords, guitar, bass, and drum tabs
                                    from Ultimate-Guitar.com database.

                                    Type "ultimate guitar tabs" in Apple
                                    App Store's or Android Market's
                                    search to find the application.
Megadeth:  She-Wolf Rude Awakening

transcribed by: Juan Salazar
                
Date last modified:  12/2/07
  

Tuning: Standard

Riff 1
Guitar 1
e|---------------------------------|
B|---------------------------------|
G|---------------------------------|
D|---------------------------------|
A|---------------------------------|
E|-0-000-0-000-0-000-0-000-000-000-|
   * *** * *** * *** * *** *** ***
  "The mother of all..."

Guitar 2 fill 1:
e|---------------------------------|
B|-14b15r14\-----------------------|
G|-14b15r14\-----------------------|
D|---------------------------------|
A|---------------------------------|
E|---------------------------------|


Riff 2
e|----------------------------------------------|
B|----------------------------------------------|
G|-----0-------0--------------------------------|
D|-5---5---5---5---5--3-4-5\--3-4-5\--3-4-5-3-4-|
A|-3---6---3---6---3--1-2-3\--1-2-3\--1-2-3-1-2-|
E|----------------------------------------------|
                      * *     * *     * *   * * 
  "Wicked temptress...."
e|---------------------------------|
B|---------------------------------|
G|---------------------------------|
D|-5-------------------------------|
A|-3-333-3-333-3-333-3-333-333-333-|
E|---------------------------------|
     *** * *** * *** * *** *** ***

Guitar 2 fill 1:
e|-------------------------|
B|-------------------------|
G|------------------7b8~~--|
D|-----5b8*--------(8)r5*--|
A|-------------------------|
E|-------------------------|

e|----------------------------------------------|
B|----------------------------------------------|
G|-----0-------0--------------------------------|
D|-5---5---5---5---5--3-4-5\--3-4-5\--3-4-5-4-3-|
A|-3---6---3---6---3--1-2-3\--1-2-3\--1-2-3-2-1-|
E|----------------------------------------------|
                      * *     * *     * *   *   
  "Priestess roars..."


Play Riff 1   "The rite of the..."
Guitar 2 fill 1:
e|--------------------------------|
B|-14b15r14-14b15[14-14-14-14]r14-|
G|-14b15r14-14b15[14-14-14-14]r14-|
D|--------------------------------|
A|--------------------------------|
E|--------------------------------|

e|-------------------------|
B|-------------------------|
G|-14h16p14--14------------|
D|---------17--17-14-------|
A|------------------17-15~-|
E|-------------------------|


Play Riff 2  "Spellbound..."
Guitar 2 fill 1:
e|--19b20~---19b20-19b20-19b20-19b20---------------|
B|-----------------------------------[16]18r16~~~--|
G|-------------------------------------------------|
D|-------------------------------------------------|
A|-------------------------------------------------|
E|-------------------------------------------------|

Guitar 2 fill 2:
e|-------------------------------|
B|-----------10b11r10p8-10p8-----|
G|---------8-10b11r10p8-10p8-----|
D|----8-10-------------------10\-|
A|-/8----------------------------|
E|-------------------------------|


Riff 3
Guitar 1
e|------------------------|
B|------------------------|
G|------------------------|
D|-----------------8------|
A|-5--------3------6------|
E|-3--------1------6------|
  "The fight...."

Guitar 2
e|------------------------------------------------------|
B|------------------------------------------------------|
G|------------------------------------------------------|
D|--------------------3-----3---5p3~---5--6-5~--6--8-10-|
A|------------3---4h5---4h5---5-------------------------|
E|-3~~--3-6-3---3---------------------------------------|
        * * * * * 

Riff 4
Guitar 1
e|--------------------------------------------------|
B|--------------------------------------------------|
G|--------------------------------------------------|
D|-5----3---------8----5----3-----------------------|
A|-3----1----3----6----3----1----3----5---5-6-5-3---|
E|-----------1----6--------------1----3-----------6-|
  "One look in her..."

Guitar 2
e|-----------------------------------|
B|-----------------------------------|
G|-----------------------------------|
D|-10-10p8----10-8~~-----------------|
A|---------10----------8-8p6---8-6~~-|
E|---------------------------8-------|

e|----------------------------------|
B|----------------------------------|
G|----------------------------------|
D|-10-10p8----10-8~~----------------|
A|---------10----------8-8p6-8-/10~-|
E|----------------------------------|

Guitar 1
e|----------------------------------------------------|
B|----------------------------------------------------|
G|----------------------------------------------------|
D|-5----3---------8----5----3-------------------------|
A|-3----1----3----6----3----1----3----5---5-6-5p3-5p3-|
E|-----------1----6--------------1----3---------------|
  "One look in her..."

Guitar 2
e|-----------------------------------|
B|-----------------------------------|
G|-----------------------------------|
D|-10-10p8----10-8~~-----------------|
A|---------10----------8-8p6---8-6~~-|
E|---------------------------8-------|

e|----------------------------------|
B|----------------------------------|
G|----------------------------------|
D|-10-10p8----10-8~~----------------|
A|---------10----------8-8p6-8-/10~-|
E|----------------------------------|



Play Riff 1   "My desires of flesh..."

Play Riff 2   "Another heartbeat..."
Guitar 2 fill 1:
e|---------------------------------------------------|
B|---------------------------------------------------|
G|----[wah pedal]--------[long hold]-----------------|
D|-10p8--10p8--10p8-------/12b13r12--10p8------------|
A|-----10----10----10-...----------------10-9-8------|
E|---------------------------------------------10-8~-|

Guitar 2 fill 2:
e|-------[wah pedal]---|
B|-19~\\--10b12r10~~~--|
G|--a------------------|
D|---------------------|
A|---------------------|
E|---------------------|


Play Riff 3   "I'm stoned...."
Play Riff 4   "One look..."

Riff 5
Guitar 1 (Play 2x)
e|----------------------------------------|
B|----------------------------------------|
G|----------------------------------------|
D|----------------------------------------|
A|-10------------------8------------------|
E|--8----8-8-8-8-8-8-8-6----6-6-6-6-6-6-6-|
         * * * * * * *      * * * * * * * 
  "Beware what stalks you in the night..."
e|----------------------------------------|
B|----------------------------------------|
G|----------------------------------------|
D|----------------------------------------|
A|-6------------------5----------8------9-|
E|-4----4-4-4-4-4-4-4-3----3-3-3-6----6-7-|
        * * * * * * *      * * *      * 
  "Her Mystic lips...."

Play Riff 5 again
Guitar 2 fill (very quiet)
e|-8~~~---10~~~~----11~~~~---13~~~--15~~--20~~---|
B|-----------------------------------------------|
G|-----------------------------------------------|
D|-----------------------------------------------|
A|-----------------------------------------------|
E|-----------------------------------------------|


Ending rhythm:

Riff 6  (Play 2x)
e|---------------------------------|
B|---------------------------------|
G|---------------------------------|
D|---------------------------------|
A|-10------------------------------|
E|--8--8-8-8-8-8-8-8-8-8-8-8-8-8-8-|
       * * * * * * * * * * * * * * 
e|----------------------------------|
B|----------------------------------|
G|----------------------------------|
D|----------------------------------|
A|-8--------------------------------|
E|-6--6-6-6-6-6-6-6-6-6-6-6-6-6-6-6-|
      * * * * * * * * * * * * * * * 
e|------------------------------|
B|------------------------------|
G|------------------------------|
D|------------------------------|
A|-6----------------------------|
E|-4--4-4-4-4-4-4-4-4-4-4-4-4-4-|
      * * * * * * * * * * * * * 
e|------------------------------|
B|------------------------------|
G|------------------------------|
D|------------------------------|
A|-5--------------8----------9--|
E|-3--3-3-3-3-3-3-6--6-6-6-6-7--|
      * * * * * *    * * * * 

Riff 7  (Play 4x)
e|--------------------------------|
B|--------------------------------|
G|--------------------------------|
D|--------------------------------|
A|-10--------------8--------------|
E|--8--8-8-8-8-8-8-6--6-6-6-6-6-6-|
       * * * * * *    * * * * * * 
e|-----------------------------|
B|-----------------------------|
G|-----------------------------|
D|-----------------------------|
A|-6--------------5-------8--9-|
E|-4--4-4-4-4-4-4-3-3-3-3-6--7-|
      * * * * * *   * * *

Riff 8  (Play 2x)
e|-------------------------------|
B|-------------------------------|
G|-------------------------------|
D|-------------------------------|
A|-10-------------8--------------|
E|--8-------------6--------------|
                               Final time
e|-----------------------------|------|
B|-----------------------------|------|
G|-----------------------------|------|
D|-----------------------------|------|
A|-6--------------5-------8--9-|--10--|
E|-4--------------3-3-3-3-6--7-|---8--|
                    * * * 


Riff 8  (Play 2x)
e|-------------------------------|
B|-------------------------------|
G|-------------------------------|
D|-5--------------3--------------|
A|-3--------------1--------------|
E|-------------------------------|
 
e|-----------------------------|
B|-----------------------------|
G|-----------------------------|
D|------------------------3--4-|
A|-6--------------5-------1--2-|
E|-4--------------3-3-3-3------|
                    * * * * 


Solo #1 Rhythm                x2
e|-----------------------------|------|
B|-----------------------------|------|
G|-----------------------------|------|
D|-----------------------------|------|
A|-10----8----6----5----8----9-|--10--|
E|--8----6----4----3----6----7-|---8--|


Solo 1 (Mustaine)
e|-------------------------------------------|
B|-8----(8)^-------8----8----(8)^-------8----|
G|-8----(8)^-------8----8----(8)^-------8----|
D|-----------10~~----10-----------10~~----10-|
A|-------------------------------------------|
E|-------------------------------------------|

e|---------8--------------------------------|
B|-------8---11p8-------8---------10----8~--|
G|-10b12----------10b12---10p8----10----8~--|
D|-----------------------------10----10-----|
A|------------------------------------------|
E|------------------------------------------|

e|----------------------------------------|
B|----------------------------------------|
G|----8-10b12r10-8h10p8-7-8-7h8p7----7----|
D|-10-----------------------------10---10-|
A|----------------------------------------|
E|----------------------------------------|

e|------------------|
B|------------------|
G|------------------|
D|-8h10p8----8------|
A|--------10---10-8-|
E|------------------|

e|-------------------------------|
B|----------------------------8--|
G|----------------------------8--|  
D|----------------5-8---/8-10----|
A|-/3~--3-6-3-6-8----------------|
E|-------------------------------|

e|-------------------------------------------|
B|------8~-------10~----8-8~-------10~-------|
G|------8~-------10~----8-8~-------10~-------|
D|-8-10-----10-8------8-------10-8------8-10-|
A|-------------------------------------------|
E|-------------------------------------------|
 
                            x3
e|---------------------------|
B|--------------11b13r11p8---|
G|-10b12r10p8-------------10-|
D|-----------10--------------|
A|---------------------------|
E|---------------------------|

e|-----------------------------------------|
B|-----------------------------------------|
G|-10b12r10p8---10-11-10b12r10p8---------8-|
D|-----------10------------------10-8-10---|
A|-----------------------------------------|
E|-----------------------------------------|

e|--------------------------------|
B|-----------------------------8\-|
G|-8888888-8~~~~-[long hold]---8\-|
D|--------------------------------|
A|--------------------------------|
E|--------------------------------|


e|-------8-----------------------------------|
B|-----8---11-8----8----------------------8\-|
G|-/10----------10---10p8----10----8~-----8\-|  
D|------------------------10----10-----10----|
A|-------------------------------------------|
E|-------------------------------------------|

e|--------8--------6------------|
B|-------11b13~----9b11~----8\--|
G|--------------------------8\--|
D|-x-x-x------------------------|
A|-x-x-x------------------------|
E|------------------------------|

e|-------8-----------------------------------|
B|-----8---11-8----8----------------------8\-|
G|-/10----------10---10p8----10----8~-----8\-|
D|------------------------10----10-----10----|
A|-------------------------------------------|
E|-------------------------------------------|

e|--------8--------6--------|
B|-------11b13~----9b11~----|
G|--------------------------|
D|-x-x-x--------------------|
A|-x-x-x--------------------|
E|--------------------------|


NOTE: Tremolo pick all these unison bends in the
following section:
e|--8-------8-----8-------8-------8-----8----|
B|-11b13---11b13-11b13---11b13---11b13-11b13-|
G|-------------------------------------------|
D|-------------------------------------------|
A|-------------------------------------------|
E|-------------------------------------------|

e|-10------10----10------10------10----10----|
B|-13b15---13b15-13b15---13b15---13b15-13b15-|
G|-------------------------------------------|
D|-------------------------------------------|
A|-------------------------------------------|
E|-------------------------------------------|

e|-11------11----11------11------11----11----|
B|-14b16---14b16-14b16---14b16---14b16-14b16-|
G|-------------------------------------------|
D|-------------------------------------------|
A|-------------------------------------------|
E|-------------------------------------------|

e|-13------13----13------13------13----13----|
B|-16b18---16b18-16b18---16b18---16b18-16b18-|
G|-------------------------------------------|
D|-------------------------------------------|
A|-------------------------------------------|
E|-------------------------------------------|

e|-15-----------------------------------|
B|-18b20--[long hold and slow release]--|
G|--------------------------------------|
D|--------------------------------------|
A|--------------------------------------|
E|--------------------------------------|

e|-15--------15-------15-------15-------15-------|
B|-18b20r18--18b20r18-18b20r18-18b20r18-18b20----|
G|---------------------------------------------0-|
D|---------------------------------------------0-|
A|-----------------------------------------------|
E|-----------------------------------------------|

End solo

Solo #2 (Pitrelli)
e|-------------------------------------------------|
B|-18b20r18-16-18b20~~~----18-16-15-16-18-16b18~~~-|
G|-------------------------------------------------|
D|-------------------------------------------------|
A|-------------------------------------------------|
E|-------------------------------------------------|

e|---------------------------------|
B|---16p15-----15------------------|
G|-0------17-16--17-16-15-17b19~~--|
D|---------------------------------|
A|---------------------------------|
E|---------------------------------|

e|-11h13-10-11-10----------10----------------------|
B|----------------13-11-11----11-------------------|
G|-------------------------------12-10-13-12-10----|
D|----------------------------------------------13-|
A|-------------------------------------------------|
E|-------------------------------------------------|

e|-------------------------------------------|
B|-------------------------------------------|
G|-12----------------------------------------|
D|----15-13-12-13-12-------12----------------|
A|-------------------15-13----15-13-12-15-13-|
E|-------------------------------------------|

e|----------------------------------------|
B|-----------------15-16-15h16p15---------|
G|---------------17--------------17-16-17-|
D|-------------17-------------------------|
A|----15-17-18----------------------------|
E|-15-------------------------------------|

e|----15-16-18-18b20~~-|
B|-16------------------|
G|---------------------|
D|---------------------|
A|---------------------|
E|---------------------|

End Solo

Solo #3 (Mustaine)
e|-------------------------------------------|
B|-------------------------------------------|
G|-12tm----10tm----8tm----7tm----5tm----5~~\-|
D|-------------------------------------------|
A|-------------------------------------------|
E|-------------------------------------------|

End Solo

Solo #4 (Pitrelli)
e|-----------------------------------------|
B|-11p8--8-11p8--8-11p8--8-11p8--8-11p8--8-|
G|-----10------10------10------10------10--|
D|-----------------------------------------|
A|-----------------------------------------|
E|-----------------------------------------|

e|-----------------------------------------|
B|-11p8--8-11p8--8-11p8--8-11p8--8-11p8--8-|
G|-----10------10------10------10------10--|
D|-----------------------------------------|
A|-----------------------------------------|
E|-----------------------------------------|

e|----8-11-10-8----8h10-8----8---------8-|
B|-11-----------11--------11---11-8------|
G|----------------------------------10---|
D|---------------------------------------|
A|---------------------------------------|
E|---------------------------------------|

e|----------------------------------------|
B|--------------------------------------0-|
G|-8----8-10-11-11p10-8----8--------------|
D|---10-----------------10---10-8-10-10---|
A|----------------------------------------|
E|----------------------------------------|

e|---------------------------------------|
B|---------------------------------------|
G|-10p8----10p8----10p8----10p8-10p8-----|
D|-----10p8----10p8----10p8---------10p8-|
A|---------------------------------------|
E|---------------------------------------|

e|---------------------------|
B|---------------------------|
G|-10p8-10p8----8-10p8----8/-|
D|-----------10--------10----|
A|---------------------------|
E|---------------------------|

e|--------------------------------------|
B|-11-13-13b15-{14}-13b15r13-13p11-13~~-|
G|--------------------------------------|
D|--------------------------------------|
A|--------------------------------------|
E|--------------------------------------|

End Solo


Solo #5 (Harmony section)

Riff 1

Guitar 1
e|---------------------------------|
B|---------------------------------|
G|-11b12-----10----8----7----------|
D|---------------------------10----|
A|---------------------------------|
E|---------------------------------|

(Note: While holding last note, slide pick up E string)
e|-------------------------------------------|
B|-------------------------------------------|
G|-11b12-----10----8----7--------------------|
D|---------------------------10----10p8-10~\-|
A|-------------------------------------------|
E|-------------------------------------------|


Guitar 2                              
e|---------------------------------|
B|-10b11-----10~~~-8~~~-6~~~-------|
G|----------------------------8~~~-|
D|---------------------------------|
A|---------------------------------|
E|---------------------------------|

e|------------------------------------------|
B|-10b11-----10~~~-8~~~-6~~~----------------|
G|----------------------------8~~~-8p7--8~\-|
D|------------------------------------------|
A|------------------------------------------|
E|------------------------------------------|


Riff 2

Guitar 1
e|---------8-----------------8-----------------8----|
B|-------8---11----8-------8---11----8-------8---11-|
G|-10b12--------10---10b12--------10---10b12--------|
D|--------------------------------------------------|
A|--------------------------------------------------|
E|--------------------------------------------------|

e|---------8-----------------8----------------------|
B|-------8---11----8-------8---11----8--------------|
G|-10b12--------10---10b12--------10---11p10p8------|
D|---------------------------------------------10-8-|
A|--------------------------------------------------|
E|--------------------------------------------------|

e|---------8-----------------8-----------------8----|
B|-------8---11----8-------8---11----8-------8---11-|
G|-10b12--------10---10b12--------10---10b12--------|
D|--------------------------------------------------|
A|--------------------------------------------------|
E|--------------------------------------------------|

e|----------------------------|
B|-16~--15~--13~--11~--10~--8-|
G|----------------------------|
D|----------------------------|
A|----------------------------|
E|----------------------------|


Guitar 2
e|----------11-------------------11-------------------11----|
B|-------11----15-11-13-------11----15-11-13-------11----15-|
G|-13b15----------------13b15----------------13b15----------|
D|----------------------------------------------------------|
A|----------------------------------------------------------|
E|----------------------------------------------------------|

e|----------11-------------------11-------------------------|
B|-------11----15-11-13-------11----15-11-13----------------|
G|-13b15----------------13b15----------------14p13p11-------|
D|----------------------------------------------------13-12-|
A|----------------------------------------------------------|
E|----------------------------------------------------------|

e|----------11-------------------11-------------------11----|
B|-------11----15-11-13-------11----15-11-13-------11----15-|
G|-13b15----------------13b15----------------13b15----------|
D|----------------------------------------------------------|
A|----------------------------------------------------------|
E|----------------------------------------------------------|

e|-----------------------------|
B|-20~--18~--16~--15~--13~--11-|
G|-----------------------------|
D|-----------------------------|
A|-----------------------------|
E|-----------------------------|



Riff 3

Guitar 1                                x3
e|-11p8---10p8---11p8---13p8---11p8-10p8-|
B|------8------8------8------8-----------|
G|---------------------------------------|
D|---------------------------------------|
A|---------------------------------------|
E|---------------------------------------|

e|-11-10-8----10-8-------8--------------------|
B|---------11------11-10---11-10-8-11-10-8-/--|
G|--------------------------------------------|
D|--------------------------------------------|
A|--------------------------------------------|
E|--------------------------------------------|

Guitar 2                                x3
e|---------------------------------------|
B|---------------------------------------|
G|--8p5----7p5----8p5---10p5---8p5-7p5---|
D|------5------5------5------5-----------|
A|---------------------------------------|
E|---------------------------------------|

e|-----------------------------------|
B|-----------------------------------|
G|--8-7-5---7-5-----5----------------|
D|--------8-----8-7---8-7-5-8-7-5-/--|
A|-----------------------------------|
E|-----------------------------------|


Riff 4

Guitar 1
e|-13p10--10-13p10--10-13p10--10-13p10--10-|
B|------13--------13--------13--------13---|
G|-----------------------------------------|
D|-----------------------------------------| ----|
A|-----------------------------------------|     |
E|-----------------------------------------|     |
                                                 |--- Play 4x
e|-13p10--10-13p10--10-15p10--10-13p10--10-|     |
B|------13--------13--------13--------13---|     |
G|-----------------------------------------| ----|
D|-----------------------------------------|
A|-----------------------------------------|
E|-----------------------------------------|

e|-15p12-15p12--12-15p12-15p12--12-15p12-15p12--12-|
B|------------15--------------15--------------15---|
G|-------------------------------------------------|
D|-------------------------------------------------| --|
A|-------------------------------------------------|   |
E|-------------------------------------------------|   |
                                                       |-- Play 4x
e|-15p12-15p12--12-17p12--12-15p12--12-|               |
B|------------15--------15--------15---|               |
G|-------------------------------------|           ----|
D|-------------------------------------|
A|-------------------------------------|
E|-------------------------------------|

e|---15---|
B|--------|
G|--------|
D|--------|
A|--------|
E|--------|



Guitar 2
e|---------------------------------|
B|---------------------------------|
G|-10p7--7-10p7--7-10p7--7-10p7--7-|
D|-----10------10------10------10--| ----|
A|---------------------------------|     |
E|---------------------------------|     |
                                         |--- Play 4x
e|---------------------------------|     |
B|---------------------------------|     |
G|-10p7--7-10p7--7-12p7--7-10p7--7-| ----|
D|-----10------10------10------10--|
A|---------------------------------|
E|---------------------------------|

e|-21p17-21p17--17-21p17-21p17--17-21p17-21p17--17-|
B|------------19--------------19--------------19---|
G|-------------------------------------------------|
D|-------------------------------------------------| --|
A|-------------------------------------------------|   |
E|-------------------------------------------------|   |
                                                       |-- Play 4x
e|-21p17-21p17--17-22p17--17-21p17--17-|               |
B|------------19--------19--------19---|               |
G|-------------------------------------|           ----|
D|-------------------------------------|
A|-------------------------------------|
E|-------------------------------------|

e|---21---|
B|--------|
G|--------|
D|--------|
A|--------|
E|--------|


Solo #6 Rhythm                x2
e|-----------------------------|------|
B|-----------------------------|------|
G|-----------------------------|------|
D|-----------------------------|------|
A|-10----8----6----5----8----9-|--10--|
E|--8----6----4----3----6----7-|---8--|


Solo #6 (Mustaine)
NOTE: Tremolo pick the strings the entire time
e|-----------------------------------------|
B|-----------------------------------------|
G|-/8-8-8-8\-/8-8-8-8\-/8-8-8-8\-/8-8-8-8\-|
D|-/8-8-8-8\-/8-8-8-8\-/8-8-8-8\-/8-8-8-8\-|
A|-----------------------------------------|
E|-----------------------------------------|

e|-------------------------------------------------|
B|-/9-9-9-9\-/9-9-9-9\-/11-11-11-11\-/11-11-11-11\-|
G|-/8-8-8-8\-/8-8-8-8\-/10-10-10-10\-/10-10-10-10\-|
D|-------------------------------------------------|
A|-------------------------------------------------|
E|-------------------------------------------------|

e|------------------------------------------|
B|-/13-13\--/13-13\--/13-13\--//-\\-//-\\---|
G|-/12-12\--/12-12\--/12-12\--//-\\-//-\\---|
D|------------------------------------------|
A|---------------------------[misc. slides]-|
E|------------------------------------------|

e|------------------------------------------|
B|-/13-13\--/13-13\--/13-13\--//-\\-//-\\---|
G|-/12-12\--/12-12\--/12-12\--//-\\-//-\\---|
D|------------------------------------------|
A|---------------------------[misc. slides]-|
E|------------------------------------------|

e|-------------------------------------|
B|-/13-13-13-13-13\--/13-13-13-13-13\--|
G|-/13-13-13-13-13\--/13-13-13-13-13\--|
D|-------------------------------------|
A|-------------------------------------|
E|-------------------------------------|

e|--------------------------------------------------|
B|-/15-15-15-15-15\--/18-18-18-18-18-18-18-18-------|
G|-/15-15-15-15-15\--/15-15-15-15-15-15-15-15-17~~\-|
D|--------------------------------------------------|
A|--------------------------------------------------|
E|--------------------------------------------------|


[Drum solo]

Solo 1 (Play 2x)

Guitar 1
e|-------------------------------|
B|-------3-4-6~--4-3-4~--3-------|
G|-5~----------------------5-3~--|
D|-------------------------------|
A|-------------------------------|
E|-------------------------------|

e|-6--4-3---4-3------------------------|
B|--------6-----6-4--------------------|
G|------------------1~--------3-----1--|
D|------------------------1h3---1h3----|
A|-------------------------------------|
E|-------------------------------------|
                                    Final time
e|----------------------------------|-----|
B|----------------------------------|-----|
G|-----0----1---0-1---3~----1---3-4-|--5--|
D|-1h3----3---3-----3-----3---3-----|-----|
A|----------------------------------|-----|
E|----------------------------------|-----|

Guitar 2  (Comes in the second time)
e|------------------------------|
B|------6-8-9~--8-6-8~--6-------|
G|--8~--------------------8-7~--|
D|------------------------------|
A|------------------------------|
E|------------------------------|

e|-10--8-6---8-6-------------------------|
B|---------9-----9-8---------------------|
G|-------------------5~--------7------5--|
D|-------------------------5h6----5h6----|
A|---------------------------------------|
E|---------------------------------------|

e|-------------------------------------|
B|-------------------------------------|
G|-----4----5---4-5---7~----5---7-8--8-|
D|-5h6----6---6-----6-----6---6--------|
A|-------------------------------------|
E|-------------------------------------|


Solo 2  (Play 4x)

Guitar 1
e|------------------------------|
B|------------------------------|
G|-8-7----7-8-----8-7----7-8----|
D|-----10------8------10------6-|
A|------------------------------|
E|------------------------------|

e|-------------------------------|
B|-------------------------------|
G|-8-7----7-8-----8-7----7-8-----|
D|-----10------5------10------10-|
A|-------------------------------|
E|-------------------------------|

Guitar 2
e|-----------------------------|
B|-8-6---6-8-----8-6---6-8-----|
G|-----8------7------8------5--|
D|-----------------------------|
A|-----------------------------|
E|-----------------------------|

e|-----------------------------|
B|-8-6---6-8-----8-6---6-8-----|
G|-----8------4------8------8--|
D|-----------------------------|
A|-----------------------------|
E|-----------------------------|

Guitar 3 (only the 3rd and 4th time)
e|-8-6---6-8-----8-6---6-8-----|
B|-----8------6------8---------|
G|--------------------------8--|
D|-----------------------------|
A|-----------------------------|
E|-----------------------------|

e|-8-6---6-8-----8-6---6-8-----|
B|-----8-------------8------8--|
G|------------7----------------|
D|-----------------------------|
A|-----------------------------|
E|-----------------------------|


Solo 3  (Play 2x)
Guitar 1
e|----------------------------------------|
B|----------------------------------------|
G|-8-8-8-7h8p7---8-----8-8-8-7h8p7---8----|
D|------------10----8-------------10----6-|
A|----------------------------------------|
E|----------------------------------------|

e|----------------------------------------|
B|----------------------------------------|
G|-8-8-8-7h8p7---8-----8-8-8-7h8p7---8----|
D|------------10----5-------------10---10-|
A|----------------------------------------|
E|----------------------------------------|

Guitar 2
e|----------------------------------------|
B|-8-8-8-6h8p6---8-----8-8-8-6h8p6---8----|
G|-------------8----7--------------8----5-|
D|----------------------------------------|
A|----------------------------------------|
E|----------------------------------------|

e|----------------------------------------|
B|-8-8-8-6h8p6---8-----8-8-8-6h8p6---8----|
G|-------------8----4--------------8----8-|
D|----------------------------------------|
A|----------------------------------------|
E|----------------------------------------|






Notation:

10^        = bend a quarter step.
10b11      = bend a half step.
10b12      = bend a full step.
10b12r10   = bend and release.
[10]12     = pre-bend.
[10]12r10  = pre-bend and release.
{14}       = pick the 14th fret while holding the most 
             previous bend.
<17>       = touch the string above the 17th fret while 
             previous note(s) is(are) still ringing.

10b13*     = tremolo bar bend, from the 10th fret to the 13th fret.
7d4*       = tremolo bar dive, from the 7th fret to the 4th fret. 
12~*       = tremolo bar vibrato.

x   =  mute with fret-hand
*   =  palm mute
X\\ =  pick slide
h   =  hammer-on
p   =  pull-off
~   =  vibrato
t   =  finger tap
/   =  slide up
\   =  slide down
h.  =  natural harmonics
a   =  artificial harmonics
(9) =  ghost note
tm  =  trem picking
tr  =  trill
comments
print report bad tab
3 comments total.
0 reply
rain_grunge wrote on May 28 2011, 01:20 pm

pretty good man!

0 reply
Ibanez&Jackson wrote on July 30 2011, 01:10 am

Holy crap man i actually thought that nobody tabbed this one out but apparently you did! Outstanding work

5*

0 reply
megadek wrote on November 5 2011, 01:50 am

very good man! excellent work dude! I love this version alot man :)

I want to post or [tab]
guest
You may want to rate the tab now too:
select rating
Please do not post tabs as comments. Select "correction" instead!