Oops, an error
Loading. Please wait.

Skin O My Teeth Tab

ver2
2,880 views 1 this week
no commentswrite comment
1 2 3 4 5
accurate
x 1
Autoscroll
+/-
esc
set tempo
stop
Contributor
Difficulty
advanced
WARNING: You are trying to view
                                    content from Ultimate-Guitar.com
                                    in an unauthorized application,
                                    which is prohibited.

                                    Please use an official Ultimate
                                    Guitar Tabs application for iPhone,
                                    iPad or Android to access legitimate
                                    chords, guitar, bass, and drum tabs
                                    from Ultimate-Guitar.com database.

                                    Type "ultimate guitar tabs" in Apple
                                    App Store's or Android Market's
                                    search to find the application.
   W       +E     E E  E E  E  E E    W        +E    Q.    H
|--------|------/12p8----8---------|--------|-------15b17-12~---------|
|--8b10~-|-(8)~-------12---12-10---|-12b13~-|-(12)~-------------------|
|--------|-----------------------9-|--------|-------------------------|
|--------|-------------------------|--------|-------------------------|
|--------|-------------------------|--------|-------------------------|
|--------|-------------------------|--------|-------------------------|
    E   E    E  E  E  E  Q         E    E  S  S  S  S  E  E  E  E
|--15b17r15-14-15p14-----------|--------------------------------------|
|--------------------15-15b17~-|-(15)~-15-13h15p13p15h13----13--------|
|------------------------------|-------------------------14----14-----|
|------------------------------|--------------------------------------|
|------------------------------|--------------------------------------|
|------------------------------|--------------------------------------|
     E  E  E  E.  S    E  E  +a   E     +S   S  S  Q Q  E  E  E
|-----------------------------------|------------------------12-------|
|------13-15-15b16r15p13-15-(15)b19-|--(19)r15p13------13h14----------|
|--/14------------------------------|-------------14---|---3---|------|
|-----------------------------------|---------------------------------|
|-----------------------------------|---------------------------------|
|-----------------------------------|---------------------------------|
    +a   E  E  E  E  E  E  E  E  E  E  E  E
|--(12)h17p12-------12h15p14p12----12h14p12-|
|-------------14h15-------------15----------|
|-------|-------6-------|-|-------6-------|-|
|-------------------------------------------|
|-------------------------------------------|
|-------------------------------------------|
    E  E  E  E  E  E  E  E  E  E  E  E 
|--19p12----12-------------------------|
|--------15----15p13----13h15h16p15h13-|
|--|-------6-------|-14----------------|
|--------------------|-------6-------|-|
|--------------------------------------|
|--------------------------------------|
    E  E  E  S  S  S  S  E  E  E  S  S  S  S    W
|--------------------------------------------|-----|
|-----13-15-12h13p12----12-------------------|-----|
|--14----------------14----14-12-11h12p11----|--5~-|
|--|---3---|------------|---3---|---------14-|-----|
|--------------------------------------------|-----|
|--------------------------------------------|-----|
   E E E E E E Q     E Q   E H       E a E S E.E E E E                  
|-----------------|----------------|---------------------|             
|--7-7-7-8-8-8-10-|----------------|---------------------|              
|-----------------|----9b12r-9b12~-|-----9---8---7---5---|             
|--4-4-4-5-5-5-7--|----------------|---x---x---x---x-----|             
|-----------------|----------------|---------------------|             
|-----------------|----------------|---------------------|              
   E E     Q. S S  S S  S S
|-------------------------8-|
|----------------------10---|
|--5-5b5.5-----------9------|
|----------7~-5s7-10--------|
|---------------------------|
|---------------------------|

   H.     E  E E        Q..  S  S S E    E  S S S
|---------7---------|-----------7-----------7---------|
|-10b==12---10------|-------------10p7--------10p7-7--|
|--------------9b10-|--(9)r9b11--------9b11---|--3--|-|
|---------|----3---||---------------------------------|
|-------------------|---------------------------------|
|-------------------|---------------------------------|
   E   E E   S S  S S S S S S S S    E    H.. Q
|------------7-7------------------|--------------|
|----------------10p7---7---------|--------------|
|--9b10r9b11----------8---8p7p5---|--9b11-7~-----|
|-------------------------------7-|-----------x/-|
|---------------------------------|--------------|
|---------------------------------|--------------|
    S  S  S  S  S  S  S  S  S  S  S  S  S  S  S  S 
|--------------------------------------------------|
|--15h17p15----15h17-14h15p14----14s12----12h14p12-|
|-----------16----------------16-------14----------|
|--------------------------------------------------|
|--------------------------------------------------|
|--------------------------------------------------|
    S  S  S  S  S  S  S  S  S  Q.  E
|------------------------------------|
|-----12h14p12----12-----------------|
|--14----------14----14-13-14-----14-|
|--------|---3--|-------------16~----|
|------------------------------------|
|------------------------------------|
    E  S  E  S  E  S  S  S  S  S  S  E
|--------------------14----------------|
|--------15-14-17-15----17-15-18-16----|
|--13-16----------------------------16-|
|--------------------------------------|
|--------------------------------------|
|--------------------------------------|
    S  S  S  E. S  S  S  E  S  S  S  E
|--------------------------------------|
|--16h18p16----15h17p15----14h16p14----|
|-----------15----------14----------13-|
|--------------------------------------|
|--------------------------------------|
|--------------------------------------|
    E  E  E  E  E  E  S  S  S  S  S  S  S  S  
|--------------------------------17----------|
|-----13h14-17p14p13----13h14-17----17-14-13-|
|--14----------------14----------------------|
|--|---3--|-|---3--|-------------------------|
|--------------------------------------------|
|--------------------------------------------|
    E  E  E  S  S  S  S  Q      E  E
|---------------------------------------------------------------------|
|-----13h14-17p14-17p14-17b19~----13----------------------------------|
|--14--------------------------14-------------------------------------|
|--|---3--|-----------------------------------------------------------|
|---------------------------------------------------------------------|
|---------------------------------------------------------------------|

    +a   E  E  E  E  E  E  E  E  E  E  E  E  
|-------------------------------17-----------|
|--(13)h14h17p14p13----13h14-17----17-14p13--|
|-------|---3---|---14----|---3--|-|---3---|-|
|----------------|---3---|-------------------|
|--------------------------------------------|
|--------------------------------------------|
    E  S  S  S  S  E  Q     S    S   E
|---------------------------------------|
|--17-17-20p17-20p17-20b22-20pb22r20p17-|
|---------------------------------------|
|---------------------------------------|
|---------------------------------------|
|---------------------------------------|
    Q     Q     Q     Q     +a  S  S
|---------------------------------------------------------------------|
|--20b22-20b22-20b22-20b22-(20)r20p17---------------------------------|
|--|-------3-------|--------------------------------------------------|
|---------------------------------------------------------------------|
|---------------------------------------------------------------------|
|---------------------------------------------------------------------|
    E    S  S   E  E    Q   E  E  E
|--------------------------------17--|
|-----------------------------17-----|
|--19b20r19p17-19-17b21-17-19--------|
|--------------------------|---3---|-|
|------------------------------------|
|------------------------------------|
    E     E  E  E  E  S  S  E  a  E  E
|--20b22-20-17----------------------17-|
|--------------20p17-------17----------|
|-----------|---3--|-19h20----19h20----|
|--------------------------------------|
|--------------------------------------|
|--------------------------------------|
    E  E  E  E     E  H
|-----------------------|
|-----------------------|
|--19h20-17-19b21-17----|
|--|---3--|----------19-|
|-----------------------|
|-----------------------|
comments
We did not receive enough feedback on this tab! Please rate:
print report bad tab
1 2 3 4 5
I want to post or [tab]
guest
You may want to rate the tab now too:
select rating
Please do not post tabs as comments. Select "correction" instead!