Oops, an error
Loading. Please wait.

Sleepwalker Tab

ver2
ver2

Whole song

More versions @911Tabs.com
19,608 views 12 this week
35 commentsread comments
1 2 3 4 5
accurate
x 27
Autoscroll
+/-
esc
set tempo
stop
Contributor
Difficulty
Tabbers playing skills
intermediate
advanced
WARNING: You are trying to view
                                    content from Ultimate-Guitar.com
                                    in an unauthorized application,
                                    which is prohibited.

                                    Please use an official Ultimate
                                    Guitar Tabs application for iPhone,
                                    iPad or Android to access legitimate
                                    chords, guitar, bass, and drum tabs
                                    from Ultimate-Guitar.com database.

                                    Type "ultimate guitar tabs" in Apple
                                    App Store's or Android Market's
                                    search to find the application.
Song: Sleepwalker
Band: Megadeth
Album: United Abominations
Year: 2007
Tabbed by: Brett
Email: Godsmack2222003@hotmail.com

*****UPDATE*****
7-30-07

Whoops, I guess I typed the intro a little too fast, it was a bit out of order (Thanks 
Calum B for pointing this out). Anyways, its fixed now.

****************

Intro (clean)

E|----------0--------------------------------------------------------------|
B|-------0-----0---------------0-----------------0-------------------------|
G|----0-----------0---------0-----0-----------0-----0----------0------0----|
D|--2--------------------0-----------0-----2-----------0-----0---0--2------|
A|--------------------2-----------------3-----------------0----------------|
E|-------------------------------------------------------------------------|

E|----------0--------------------------------------------------------------|
B|-------0-----0---------------0-----------------0-------------------------|
G|----0-----------0---------0-----0-----------0-----0----------0-----------|
D|--2--------------------0-----------0-----2-----------0-----0---0---------|
A|--------------------2-----------------3-----------------0----------------|
E|------------------------------------------------------------------3-2-0--|

E|----------0--------------------------------------------------------------|
B|-------0-----0---------------0-----------------0-------------------------|
G|----0-----------0---------0-----0-----------0-----0----------0------0----|
D|--2--------------------0-----------0-----2-----------0-----0---0--2------|
A|--------------------2-----------------3-----------------0----------------|
E|-------------------------------------------------------------------------|

E|----------0-----------------0-----------------0--------------------------|
B|-------0-----0-----------0-----0-----------0-----0-----------------------|
G|----0-----------0-----0-----------0-----0-----------0--------0--------0--|
D|----------------------------------------------------------0----0---2-----|
A|-2-----------------0-----------------2-----------------0-----------------|
E|-------------------------------------------------------------------------|

FIGURE 1 (WITH DISTORTION)

*GRADUALY RELEASE THE PALM MUTE AS YOU GO*
E|---------------------------------------------------|
B|---------------------------------------------------|
G|---------------------------------------------------|
D|---------------------------------------------------|
A|-8-8-8-8-8-8-8-8-8-8-8-8-8-8-8-8-8-8-8-8-8-8-8-8---|
E|-6-6-6-6-6-6-6-6-6-6-6-6-6-6-6-6-6-6-6-6-6-6-6-6---|
Pm........................

FIGURE 2

*PLAY 2 TIMES*
E|-------------------------------------------------------------------------|
B|-------------------------------------------------------------------------|
G|-------------------------------------------------------------------------|
D|-------------------------------------------------------------------------|
A|------------------------------------------------------------------------8|
E|-0--0--0-0-0-0-0-0--0--0--0-0-0-0-0-0--0--0--0-0-0-0-0-0-0--0--0--0-0-0-6|
pm.........................................................................

FIGURE 3

GUITAR 1
*PLAY 4 Times*
E|-----------------------------------------------------------------|
B|-----------------------------------------------------------------|
G|-----------------------------------------------------------------|
D|-----------------------------------------------------------------|
A|-------------------------------------11\12-----------------------|
E|-0-0-0-0-10h12-0-0-0-0-15p12-0-0-0-0--9\10-0-0-0-0-10h12---------|
 |........       .......       .......       .......               |
 | GUITAR 2                                                        |
E|-----------------------------------------------------------------|
B|-----------------------------------------------------------------|
G|-----------------------------------------------------------------|
D|-----------------------------------------------------------------|
A|-----------------------------------------------------------8-----|
E|--0---0--0--0--0--0--0--0--0---0--0---0--0--0--0--0--0--0--6-----|

FIGURE 4 (palm muted)

e|---------------------------------------------------------------------|
B|---------------------------------------------------------------------|
G|---------------------------------------------------------------------|
D|---------------------------------------------------------------------|
A|---------------------------------------------------------------------|
E|-2--2--2-3-2-2-5-2-4--2--2--2-3-2-2-5-2-4--2--2--2-3-2-2-5-2-4--2--2-|

e|-----------------------------------------------------------------------|
B|-----------------------------------------------------------------------|
G|-----------------------------------------------------------------------|
D|--------------------------------------------------------4P2-5P2-4P2-5P2|
A|---------5-------------------------------------------------------------|
E|-2-3-2-2-3---2--2--2-3-2-2-5-2-4--2--2--2-3-2-2-5-2-4-2----------------|

e|----------------------------------|
B|----------------------------------|
G|----------------------------------|
D|-4P2-5P2-4P2-5P2-3P2-4P2-3P2-4P2--|
A|----------------------------------|
E|----------------------------------|

FIGURE 5 ("NO ONE IS SAFE")

GUITAR 1
*PLAY 4 Times*
E|-----------------------------------------------------------------|
B|-----------------------------------------------------------------|
G|-----------------------------------------------------------------|
D|-----------------------------------------------------------------|
A|-------------------------------------11\12-----------------------|
E|-0-0-0-0-10h12-0-0-0-0-15p12-0-0-0-0--9\10-0-0-0-0-10h12---------|
 |........       .......       .......       .......               |
 | GUITAR 2                                                        |
E|-----------------------------------------------------------------|
B|-----------------------------------------------------------------|
G|-----------------------------------------------------------------|
D|-----------------------------------------------------------------|
A|-----------------------------------------------------------8-----|
E|--0---0--0--0--0--0--0--0--0---0--0---0--0--0--0--0--0--0--6-----|

FIGURE 6

e|---------------------------------------------------------------------|
B|---------------------------------------------------------------------|
G|---------------------------------------------------------------------|
D|---------------------------------------------------------------------|
A|---------------------------------------------------------------------|
E|-2--2--2-3-2-2-5-2-4--2--2--2-3-2-2-5-2-4--2--2--2-3-2-2-5-2-4--2--2-|

e|-----------------------------------------------------------------------|
B|-----------------------------------------------------------------------|
G|-----------------------------------------------------------------------|
D|--------------------------------------------------------4P2-5P2-4P2-5P2|
A|---------5-------------------------------------------------------------|
E|-2-3-2-2-3---2--2--2-3-2-2-5-2-4--2--2--2-3-2-2-5-2-4-2----------------|

e|----------------------------------|
B|----------------------------------|
G|----------------------------------|
D|-4P2-5P2-4P2-5P2-3P2-4P2-3P2-4P2--|
A|----------------------------------|
E|----------------------------------|

FIGURE 7

*PLAY 4 Times*
E|-----------------------------------------------------------------|
B|-----------------------------------------------------------------|
G|-----------------------------------------------------------------|
D|-----------------------------------------------------------------|
A|-------------------------------------11\12-----------------------|
E|-0-0-0-0-10h12-0-0-0-0-15p12-0-0-0-0--9\10-0-0-0-0-10h12---------|
 |........       .......       .......       .......               |
 | GUITAR 2                                                        |
E|-----------------------------------------------------------------|
B|-----------------------------------------------------------------|
G|-----------------------------------------------------------------|
D|-----------------------------------------------------------------|
A|-----------------------------------------------------------8-----|
E|--0---0--0--0--0--0--0--0--0---0--0---0--0--0--0--0--0--0--6-----|

FIGURE 8 (PRE-CHORUS)

e|-----------------------------------------------------------------------|
B|-----------------------------------------------------------------------|
G|-----------------------------------------------------------------------|
D|-----------------------------------------------------------------------|
A|-----------------------------------------------------------------------|
E|-2--2--2-3-2-2-5-2-2-4-2--2-3-2-2-5-2-2-4-2--5--5--5-6-5-5-8-5-5-7-5-5-|

e|-------------------------------------------------------------------------|
B|-------------------------------------------------------------------------|
G|-------------------------------------------------------------------------|
D|-----------------------------------------------9P8P7-7P6P5-5P4P3-3P2P1---|
A|-------------------------------------------------------------------------|
E|-5-6-5-5-8-5-5-7-5-5--7--7--7-9-7-7-10-7-9-7-7---------------------------|

CHORUS


e|----0------------0----------0-----------0-----------0-----------|
B|------0------------0----------0-----------0-----------0---------|
G|--------0------------0----------0-----------0-----------0-------|
D|----------------------------------------------------------------|
A|-5------------3----------5-----------3-----------5--------------|
E|-3------------1----------3-----------1-----------3--------------|


e|---0-------------0---------0-----------|
B|-----0-------------0---------0---------|
G|-------0-------------0---------0-------|
D|-4-----------7----------9--------------|
A|-2-----------5----------7--------------|
E|---------------------------------------|

SOLO #1 (DROVER)

e|--------------------------------------17P15--------------------------|
B|---17~~~~~---14\17--17P15-17P15-14P13-------17P15-13-15P13-15P13-12--|
G|---------------------------------------------------------------------|
D|---------------------------------------------------------------------|
A|---------------------------------------------------------------------|
E|---------------------------------------------------------------------|


e|---------------------------------------------------------------------|
B|---------------------------------------------------------------------|
G|-15P13-15P13-11-15P13-15P13------------------------------------------|
D|-----------------------------15P13-15P13-11--------------------------|
A|---------------------------------------------12-14P12-14P12-11-11\16-|
E|---------------------------------------------------------------------|


e|---------------------------------------------------------------------|
B|------------------------------------------------15-------------------|
G|-----17P15-17P15----17P15-17P15----17P15-17P15-----16B~~-------------|
D|--16-------------16-------------16-----------------------------------|
A|---------------------------------------------------------------------|
E|---------------------------------------------------------------------|

e|----------------------------------------------15-17p15--19b-19p15-----|
B|----------------15-17p15-17p15-17-19p17-19p17---------------------15~~|
G|-15-17p15-17p15-------------------------------------------------------|
D|----------------------------------------------------------------------|
A|----------------------------------------------------------------------|
E|----------------------------------------------------------------------|

											END SOLO

FIGURE 9

E|-----------------------------------------------------------------|
B|-----------------------------------------------------------------|
G|-----------------------------------------------------------------|
D|-----------------------------------------------------------------|
A|-------------------------------------11\12-----------------------|
E|-0-0-0-0-10h12-0-0-0-0-15p12-0-0-0-0--9\10-0-0-0-0-10h12---------|
 |........       .......       .......       .......               |
 | GUITAR 2                                                        |
E|-----------------------------------------------------------------|
B|----------LET-RING-----------------------------------------------|
G|-----------------------------------------------------------------|
D|-2~~~~~~~~~~~~~~~~~~~~~~------------------------------5--2-------|
A|-2~~~~~~~~~~~~~~~~~~~~~~------------------------------5--2-------|
E|-0~~~~~~~~~~~~~~~~~~~~~~------------------------------3--0-------|

E|-----------------------------------------------------------------|
B|-----------------------------------------------------------------|
G|-----------------------------------------------------------------|
D|-----------------------------------------------------------------|
A|-------------------------------------11\12-----------------------|
E|-0-0-0-0-10h12-0-0-0-0-15p12-0-0-0-0--9\10-0-0-0-0-10h12---------|

E|-----------------------------------------------------------------|
B|-----------------------------------------------------------------|
G|-----------------------------------------------------------------|
D|-----------------------------------------------------------------|
A|-------------------------------------11\12-----------------------|
E|-0-0-0-0-10h12-0-0-0-0-15p12-0-0-0-0--9\10-0-0-0-0-10h12---------|
 |........       .......       .......       .......               |
 | GUITAR 2                                                        |
E|-----------------------------------------------------------------|
B|----------LET-RING-----------------------------------------------|
G|-----------------------------------------------------------------|
D|-2~~~~~~~~~~~~~~~~~~~~~~------------------------------5--2-------|
A|-2~~~~~~~~~~~~~~~~~~~~~~------------------------------5--2-------|
E|-0~~~~~~~~~~~~~~~~~~~~~~------------------------------3--0-------|

E|-----------------------------------------------------------------|
B|-----------------------------------------------------------------|
G|-----------------------------------------------------------------|
D|-----------------------------------------------------------------|
A|-------------------------------------11\12-----------------------|
E|-0-0-0-0-10h12-0-0-0-0-15p12-0-0-0-0--9\10-0-0-0-0-10h12---------|
 |........       .......       .......       .......               |
 | GUITAR 2                                                        |
E|-----------------------------------------------------------------|
B|-----------------------------------------------------------------|
G|-----------------------------------------------------------------|
D|--------------------------------------------------------5--------|
A|--------------------------------------------------------5--------|
E|--------------------------------------------------------3--------|

FIGURE 10

e|---------------------------------------------------------------------|
B|---------------------------------------------------------------------|
G|---------------------------------------------------------------------|
D|---------------------------------------------------------------------|
A|---------------------------------------------------------------------|
E|-2--2--2-3-2-2-5-2-4--2--2--2-3-2-2-5-2-4--2--2--2-3-2-2-5-2-4--2--2-|

e|-----------------------------------------------------------------------|
B|-----------------------------------------------------------------------|
G|-----------------------------------------------------------------------|
D|--------------------------------------------------------4P2-5P2-4P2-5P2|
A|---------5-------------------------------------------------------------|
E|-2-3-2-2-3---2--2--2-3-2-2-5-2-4--2--2--2-3-2-2-5-2-4-2----------------|

e|----------------------------------|
B|----------------------------------|
G|----------------------------------|
D|-4P2-5P2-4P2-5P2-3P2-4P2-3P2-4P2--|
A|----------------------------------|
E|----------------------------------|

FIGURE 11 ("NO ONE IS SAFE")

GUITAR 1
*PLAY 4 Times*
E|-----------------------------------------------------------------|
B|-----------------------------------------------------------------|
G|-----------------------------------------------------------------|
D|-----------------------------------------------------------------|
A|-------------------------------------11\12-----------------------|
E|-0-0-0-0-10h12-0-0-0-0-15p12-0-0-0-0--9\10-0-0-0-0-10h12---------|
 |........       .......       .......       .......               |
 | GUITAR 2                                                        |
E|-----------------------------------------------------------------|
B|-----------------------------------------------------------------|
G|-----------------------------------------------------------------|
D|-----------------------------------------------------------------|
A|-----------------------------------------------------------8-----|
E|--0---0--0--0--0--0--0--0--0---0--0---0--0--0--0--0--0--0--6-----|

FIGURE 12

e|---------------------------------------------------------------------|
B|---------------------------------------------------------------------|
G|---------------------------------------------------------------------|
D|---------------------------------------------------------------------|
A|---------------------------------------------------------------------|
E|-2--2--2-3-2-2-5-2-4--2--2--2-3-2-2-5-2-4--2--2--2-3-2-2-5-2-4--2--2-|

e|-----------------------------------------------------------------------|
B|-----------------------------------------------------------------------|
G|-----------------------------------------------------------------------|
D|--------------------------------------------------------4P2-5P2-4P2-5P2|
A|---------5-------------------------------------------------------------|
E|-2-3-2-2-3---2--2--2-3-2-2-5-2-4--2--2--2-3-2-2-5-2-4-2----------------|

e|----------------------------------|
B|----------------------------------|
G|----------------------------------|
D|-4P2-5P2-4P2-5P2-3P2-4P2-3P2-4P2--|
A|----------------------------------|
E|----------------------------------|

FIGURE 13

*PLAY 4 Times*
E|-----------------------------------------------------------------|
B|-----------------------------------------------------------------|
G|-----------------------------------------------------------------|
D|-----------------------------------------------------------------|
A|-------------------------------------11\12-----------------------|
E|-0-0-0-0-10h12-0-0-0-0-15p12-0-0-0-0--9\10-0-0-0-0-10h12---------|
 |........       .......       .......       .......               |
 | GUITAR 2                                                        |
E|-----------------------------------------------------------------|
B|-----------------------------------------------------------------|
G|-----------------------------------------------------------------|
D|-----------------------------------------------------------------|
A|-----------------------------------------------------------8-----|
E|--0---0--0--0--0--0--0--0--0---0--0---0--0--0--0--0--0--0--6-----|

FIGURE 14 (PRE-CHORUS)

e|-----------------------------------------------------------------------|
B|-----------------------------------------------------------------------|
G|-----------------------------------------------------------------------|
D|-----------------------------------------------------------------------|
A|-----------------------------------------------------------------------|
E|-2--2--2-3-2-2-5-2-2-4-2--2-3-2-2-5-2-2-4-2--5--5--5-6-5-5-8-5-5-7-5-5-|

e|-------------------------------------------------------------------------|
B|-------------------------------------------------------------------------|
G|-------------------------------------------------------------------------|
D|-----------------------------------------------9P8P7-7P6P5-5P4P3-3P2P1---|
A|-------------------------------------------------------------------------|
E|-5-6-5-5-8-5-5-7-5-5--7--7--7-9-7-7-10-7-9-7-7---------------------------|

CHORUS

e|----0------------0----------0-----------0-----------0-----------|
B|------0------------0----------0-----------0-----------0---------|
G|--------0------------0----------0-----------0-----------0-------|
D|----------------------------------------------------------------|
A|-5------------3----------5-----------3-----------5--------------|
E|-3------------1----------3-----------1-----------3--------------|


e|---0-------------0---------0-----------|
B|-----0-------------0---------0---------|
G|-------0-------------0---------0-------|
D|-4-----------7----------9--------------|
A|-2-----------5----------7--------------|
E|---------------------------------------|

FIGURE 15 (WITH REALLY FAST TREMOLO PICKING)
*PALM MUTED*

PLAY 8 TIMES

e|-------------------------------------------|
B|-------------------------------------------|
G|-------------------------------------------|
D|-------------------------------------------|
A|-------------------------------------------|
E|-5-4-3-2-1-0-2-3-0-2-0-3-0-2-0-3-5-4-3-2-1-|

SOLO #2 (MUSTAIN)

e|----------------------------------------17P16P15------------|
B|--17P16P15-16P15P14--17P16P15-18P17P16-----------18P17P16---|
G|------------------------------------------------------------|
D|------------------------------------------------------------|
A|------------------------------------------------------------|
E|------------------------------------------------------------|

e|-------------------------------------------------|
B|-17P16P15-16P15P14-17P16P15----------------------|
G|----------------------------17P16P15-------------|
D|-------------------------------------17P16P15----|
A|-------------------------------------------------|
E|-------------------------------------------------|

e|-------------------------------------------------------------------------|
B|-12P11P10P9-12P11P10P9-12P11P10P9-12P11P10P9--14B--15B-14B--15B--14------|
G|----------------------------------------------14B--15B-14B--15B--14------|
D|-------------------------------------------------------------------------|
A|-------------------------------------------------------------------------|
E|-------------------------------------------------------------------------|

e|--21B---20-19--19P17P15--------------------------------------------------|
B|------------------------19P17P15-19P17P15-19P17P15-19P17P15--------------|
G|-------------------------------------------------------------------------|
D|-------------------------------------------------------------------------|
A|-------------------------------------------------------------------------|
E|-------------------------------------------------------------------------|

e|-------------------------------------------------------------------------|
B|-14p13p12---14-13-12----------14-13-12----------14-13-12-----------------|
G|---------------------14-13-12----------14-13-12----------14-13-12--------|
D|-------------------------------------------------------------------------|
A|-------------------------------------------------------------------------|
E|-------------------------------------------------------------------------|

e|--------------------------------------------|
B|-14-13-12-----------------------------------|
G|----------14-13-12-12b-12p10--11~~~~~~~~~---|
D|--------------------------------------------|
A|--------------------------------------------|
E|--------------------------------------------|


SOLO # 3 (DROVER)
e|----------------15B--14H15-14-12H13-12-11H12-11-9-8-------------------|
B|-15B-14H15------------------------------------------8-9-7-8-----------|
G|------------------------------------------------------------7-8-6-7---|
D|----------------------------------------------------------------------|
A|----------------------------------------------------------------------|
E|----------------------------------------------------------------------|

e|-------------------------------------------------------------------------|
B|-----------------------------------------------8-9-8----------12-13-12---|
G|----------------------------5-6-8--7-8-9-8-9-8-------10-11-12------------|
D|-6-7-5-6-4-5~~--5-6-7-6-5-8----------------------------------------------|
A|-------------------------------------------------------------------------|
E|-------------------------------------------------------------------------|

e|17-17-17-17P16P15-16P15P14-15P14P13-14P13P12-11P10P9 10P9P8--7~~~~~~~~|
B|----------------------------------------------------------------------|
G|----------------------------------------------------------------------|
D|----------------------------------------------------------------------|
A|----------------------------------------------------------------------|
E|----------------------------------------------------------------------|
					END SOLO


PLAY 4 TIMES

e|-------------------------------------------|
B|-------------------------------------------|
G|-------------------------------------------|
D|-------------------------------------------|
A|-------------------------------------------|
E|-5-4-3-2-1-0-2-3-0-2-0-3-0-2-0-3-5-4-3-2-1-|

----------|
----------|
----------|
----------|
-4--------|
-2--------|

FIGURE 16

e|---------------------------------------------------------------------|
B|---------------------------------------------------------------------|
G|---------------------------------------------------------------------|
D|---------------------------------------------------------------------|
A|---------------------------------------------------------------------|
E|-2--2--2-3-2-2-5-2-4--2--2--2-3-2-2-5-2-4--2--2--2-3-2-2-5-2-4--2--2-|

e|-----------------------------------------------------------------------|
B|-----------------------------------------------------------------------|
G|-----------------------------------------------------------------------|
D|--------------------------------------------------------4P2-5P2-4P2-5P2|
A|---------5-------------------------------------------------------------|
E|-2-3-2-2-3---2--2--2-3-2-2-5-2-4--2--2--2-3-2-2-5-2-4-2----------------|

e|----------------------------------|
B|----------------------------------|
G|----------------------------------|
D|-4P2-5P2-4P2-5P2-3P2-4P2-3P2-4P2--|
A|----------------------------------|
E|----------------------------------|

FIGURE 17 ("NO ONE IS SAFE")

GUITAR 1
*PLAY 4 Times*
E|-----------------------------------------------------------------|
B|-----------------------------------------------------------------|
G|-----------------------------------------------------------------|
D|-----------------------------------------------------------------|
A|-------------------------------------11\12-----------------------|
E|-0-0-0-0-10h12-0-0-0-0-15p12-0-0-0-0--9\10-0-0-0-0-10h12---------|
 |........       .......       .......       .......               |
 | GUITAR 2                                                        |
E|-----------------------------------------------------------------|
B|-----------------------------------------------------------------|
G|-----------------------------------------------------------------|
D|-----------------------------------------------------------------|
A|-----------------------------------------------------------8-----|
E|--0---0--0--0--0--0--0--0--0---0--0---0--0--0--0--0--0--0--6-----|

FIGURE 18 (PRE-CHORUS)

e|-----------------------------------------------------------------------|
B|-----------------------------------------------------------------------|
G|-----------------------------------------------------------------------|
D|-----------------------------------------------------------------------|
A|-----------------------------------------------------------------------|
E|-2--2--2-3-2-2-5-2-2-4-2--2-3-2-2-5-2-2-4-2--5--5--5-6-5-5-8-5-5-7-5-5-|

e|-------------------------------------------------------------------------|
B|-------------------------------------------------------------------------|
G|-------------------------------------------------------------------------|
D|-----------------------------------------------9P8P7-7P6P5-5P4P3-3P2P1---|
A|-------------------------------------------------------------------------|
E|-5-6-5-5-8-5-5-7-5-5--7--7--7-9-7-7-10-7-9-7-7---------------------------|

CHORUS *PLAY 8 TIMES*

(THE FADEOUT STARTS AROUND THE 6TH REPETION)

e|----0------------0----------0-----------0-----------0-----------|
B|------0------------0----------0-----------0-----------0---------|
G|--------0------------0----------0-----------0-----------0-------|
D|----------------------------------------------------------------|
A|-5------------3----------5-----------3-----------5--------------|
E|-3------------1----------3-----------1-----------3--------------|


e|---0-------------0---------0-----------|
B|-----0-------------0---------0---------|
G|-------0-------------0---------0-------|
D|-4-----------7----------9--------------|
A|-2-----------5----------7--------------|
E|---------------------------------------|

Well, this is my sleepwalker tab, the entire thing, from start to finish (I hope its
high, this took me over a month)!
I hope you enjoy this great new song by Megadeth!!!
comments
print report bad tab
35 comments total. Showing first comments.
0 reply
aliceinchains42 wrote on July 4 2007, 12:19 pm

This tab is great, its much better than version 1! a definite 5 star tab, easily

0 reply
heavenfeather wrote on July 4 2007, 12:20 pm

I agree, its the best one. the other one's intro sucked. everyone, print this version its way bettah, dudes

0 reply
Metal Psycho wrote on July 4 2007, 03:42 pm

good tab

I want to post or [tab]
guest
You may want to rate the tab now too:
select rating
Please do not post tabs as comments. Select "correction" instead!