Oops, an error
Loading. Please wait.

Sleepwalker Tab

ver3
ver3

Whole song

More versions @911Tabs.com
27,738 views 48 this week
6 commentsread comments
1 2 3 4 5
excellent!
x 12
Autoscroll
+/-
esc
set tempo
stop
Contributor
WARNING: You are trying to view
                                    content from Ultimate-Guitar.com
                                    in an unauthorized application,
                                    which is prohibited.

                                    Please use an official Ultimate
                                    Guitar Tabs application for iPhone,
                                    iPad or Android to access legitimate
                                    chords, guitar, bass, and drum tabs
                                    from Ultimate-Guitar.com database.

                                    Type "ultimate guitar tabs" in Apple
                                    App Store's or Android Market's
                                    search to find the application.
#----------------------------------PLEASE NOTE---------------------------------#
#This file is the author's own work and represents their interpretation of the #
#song. You may only use this file for private study, scholarship, or research. #
#------------------------------------------------------------------------------#

SLEEPWALKER
As recorded by Megadeth
(From the 2007 Album UNITED ABOMINATIONS)

Transcribed by Russ Elton (webmaster@abysslord.com) & Jordan Baker
        

Words and Music by Dave Mustaine
Arranged by Megadeth

Gtr I (E A D G B E) - 'Clean Guitar'
Gtr II (E A D G B E) - 'Rhythm Guitar'
Gtr III (E A D G B E) - 'Rhythm Guitar'
Gtr IV (E A D G B E) - 'Lead Guitar'
Gtr V (E A D G B E) - 'Lead Guitar'

 Intro
  Q=120
  Em            G/B           Cmaj7         Am7     Fsus2
 3/4
  Gtr I
  E E E E E E   E E E E E E   E E E E E E   E E E E E E
|-------0-----|-------------|-------------|-------------|
|-----0---0---|-------0-----|-------0-----|-------------|
|---0-------0-|-----0---0---|-----0---0---|-----0-----0-|
|-2-----------|---0-------0-|---2-------2-|---2---2-3---|
|-------------|-2-----------|-3-----------|-0-----------|
|-------------|-------------|-------------|-------------|


  Em            G/B           Cmaj7         Am7     N.C.
  E E E E E E   E E E E E E   E E E E E E   E E E E E E
|-------0-----|-------------|-------------|-------------|
|-----0---0---|-------0-----|-------0-----|-------------|
|---0-------0-|-----0---0---|-----0---0---|-----0-------|
|-2-----------|---0-------0-|---2-------2-|---2---2-----|
|-------------|-2-----------|-3-----------|-0-----------|
|-------------|-------------|-------------|---------3-2-|


  Em            G/B           Cmaj7         Am7     Fsus2
  E E E E E E   E E E E E E   E E E E E E   E E E E E E
|-------0-----|-------------|-------------|-------------|
|---------0---|-------0-----|-------0-----|-------------|
|-----0-----0-|-----0---0---|-----0---0---|-----0-----0-|
|---2---------|---0-------0-|---2-------2-|---2---2-3---|
|-------------|-2-----------|-3-----------|-0-----------|
|-0-----------|-------------|-------------|-------------|


  Em            Emadd9/F#     C#m7b5        G/C     N.C.
  E E E E E E   E E E E E E   E E E E E E   E E E E E E
|-------0-----|-------0-----|-------0-----|-------------|
|-----0---0---|-----3---3---|-----0---0---|-----0-------|
|---0-------0-|---0-------0-|---0-------0-|---0---0-----|
|-2-----------|-4-----------|-------------|-------------|
|-------------|-------------|-4-----------|-3-----------|
|-------------|-------------|-------------|---------3-2-|


  Bb5
  Gtrs II, III
  PM--------------------------------------------------|
  E E E E E E   E E E E E E   E E E E E E   E E E E E E
|-------------|-------------|-------------|-------------||
|-------------|-------------|-------------|-------------||
|-------------|-------------|-------------|-------------||
|-3-3-3-3-3-3-|-3-3-3-3-3-3-|-3-3-3-3-3-3-|-3-3-3-3-3-3-||
|-1-1-1-1-1-1-|-1-1-1-1-1-1-|-1-1-1-1-1-1-|-1-1-1-1-1-1-||
|-------------|-------------|-------------|-------------||


   Pre-Verse
    Q.=174
    N.C.(E)
   12/8
    PM-|     PM-------------------|     PM---------------
    Q  E +E  E E E E E E E E   Q  E +E  E E E E E E E E
||---------------------------|--------------------------|
||o--------------------------|--------------------------|
||---------------------------|--------------------------|
||---------------------------|--------------------------|
||o--------------------------|--------------------------|
||--0--0-(0)-0-0-0-0-0-0-0-0-|-0--0-(0)-0-0-0-0-0-0-0-0-|


                                                Bb5
 ----|     PM-------------------|     PM------|
  Q  E +E  E E E E E E E E   Q  E +E  E E E E E Q.
|--------------------------|--------------------------||
|--------------------------|-------------------------o||
|--------------------------|--------------------------||
|--------------------------|--------------------3-----||
|--------------------------|--------------------1----o||
|-0--0-(0)-0-0-0-0-0-0-0-0-|-0--0-(0)-0-0-0-0-0-------||


    N.C.                         E5EbE5              Bb5
    Gtr III
        PM------|      PM----|          PM---|     PM
    E E E  E  E E  E E E E E E   E E E  E  E E E E E Q.
||-----------------------------|----------------------------|
||o----------------------------|----------------------------|
||-----------------------------|----------------------------|
||-----------------------------|-9s8s9----------------------|
||o-5h7-----------10p7---------|-7s6s7---------5h7---8------|
||------0--0--0-0------0-0-0-0-|--------0--0-0-----0-6------|
|
|   Gtr II
|   PM--|     PM---------------------|     PM----------------
|   Q   E +E  E E  E E E E E E   Q   E +E  E E E E E E  E E
||-----------------------------|----------------------------|
||o----------------------------|----------------------------|
||-----------------------------|----------------------------|
||-----------------------------|----------------------------|
||o----------------------------|----------------------------|
||--0---0-(0)-0-0--0-0-0-0-0-0-|-0---0-(0)-0-0-0-0-0-0--0-0-|


                               E5EbE5              Bb5
      PM------|      PM----|          PM---|     PM
  E E E  E  E E  E E E E E E   E E E  E  E E E E E Q.
|----------------------------|----------------------------||
|----------------------------|---------------------------o||
|----------------------------|----------------------------||
|----------------------------|-9s8s9----------------------||
|-5h7-----------10p7---------|-7s6s7---------5h7---8-----o||
|-----0--0--0-0------0-0-0-0-|--------0--0-0-----0-6------||
|
|-----|     PM---------------------|     PM------|
| Q   E +E  E E  E E E E E E   Q   E +E  E E E E E Q.
|----------------------------|----------------------------||
|----------------------------|---------------------------o||
|----------------------------|----------------------------||
|----------------------------|---------------------3------||
|----------------------------|---------------------1-----o||
|-0---0-(0)-0-0--0-0-0-0-0-0-|-0---0-(0)-0-0-0-0-0--------||


   Verse
    $
    $$
    N.C.
    Gtrs II, III
    PM  PM  PM----------------|   PM  PM---------------
    E E E E E E E E E E E E   E E E E E E E E E E E E
||--------------------------|-------------------------|
||o-------------------------|-------------------------|
||--------------------------|-------------------------|
||--------------------------|-------------------------|
||o-------------------------|-------------------------|
||--2---2---2-0-2-0-2-3-2-0-|-2---2---2-0-2-0-2-3-2-0-|


                                              G5
 -|   PM  PM----------------|   PM  PM------|
  E E E E E E E E E E E E   E E E E E E E E E Q.
|-------------------------|-------------------------|
|-------------------------|-------------------------|
|-------------------------|-------------------------|
|-------------------------|-------------------------|
|-------------------------|-------------------5-----|
|-2---2---2-0-2-0-2-3-2-0-|-2---2---2-0-2-0-2-3-----|


  N.C.
  Gtr III
  PM  PM  PM----------------|   PM  PM---------------
  E E E E E E E E E E E E   E E E E E E E E E E E E
|-------------------------|-------------------------|
|-------------------------|-------------------------|
|-------------------------|-------------------------|
|-------------------------|-------------------------|
|-------------------------|-------------------------|
|-2---2---2-0-2-0-2-3-2-0-|-2---2---2-0-2-0-2-3-2-0-|
|
| Gtr II
| PM  PM  PM----------------|   PM  PM---------------
| E E E E E E E E E E E E   E E E E E E E E E E E E
|-------------------------|-------------------------|
|-------------------------|-------------------------|
|-------------------------|-------------------------|
|-------------------------|-------------------------|
|-------------------------|-------------------------|
|-2---2---2-0-2-0-2-3-2-0-|-2---2---2-0-2-0-2-3-2-0-|


 -----------------------------------------------------|
  E E E  E E E E E E  E E E   E E E  E E E E E E  E E E
|---------------------------|------------------------------|
|---------------------------|------------------------------|
|---------------------------|------------------------------|
|-------11-----------12-----|-------13-----------14--------|
|-9-7-9----9-7-9-7-9----9-7-|-9-7-9----9-7-9-7-9----9-7----|
|---------------------------|------------------------------|
|
|-----------------------------------------------------|
| E E E  E E E E E E  E E E   E E E  E E E E E E  E E E
|---------------------------|------------------------------|
|---------------------------|------------------------------|
|---------------------------|------------------------------|
|---------------------------|------------------------------|
|--------4------------5-----|--------6------------7--------|
|-2-0-2----2-0-2-0-2----2-0-|-2-0-2----2-0-2-0-2----2-0----|


                             E5EbE5            Bb5
  Gtrs II, III
      PM----|      PM----|         PM--|     PM
  E E E E E E  E E E E E E   E E E E E E E E E Q.
|--------------------------|------------------------|
|--------------------------|------------------------|
|--------------------------|------------------------|
|--------------------------|-9s8s9------------------|
|-5h7---------10p7---------|-7s6s7-------5h7---8----|
|-----0-0-0-0------0-0-0-0-|-------0-0-0-----0-6----|


  N.C.                       E5EbE5            Bb5
      PM----|      PM----|         PM--|     PM
  E E E E E E  E E E E E E   E E E E E E E E E Q.
|--------------------------|-------------------------|
|--------------------------|-------------------------|
|--------------------------|-------------------------|
|--------------------------|-9s8s9-------------------|
|-5h7---------10p7---------|-7s6s7-------5h7---8-----|
|-----0-0-0-0------0-0-0-0-|-------0-0-0-----0-6-----|


  N.C.                       E5EbE5            Bb5
      PM----|      PM----|         PM--|     PM
  E E E E E E  E E E E E E   E E E E E E E E E Q.
|--------------------------|------------------------|
|--------------------------|------------------------|
|--------------------------|------------------------|
|--------------------------|-9s8s9------------------|
|-5h7---------10p7---------|-7s6s7-------5h7---8----|
|-----0-0-0-0------0-0-0-0-|-------0-0-0-----0-6----|


                                      To Dbl. Coda
  N.C.                       E5EbE5            Bb5
      PM----|      PM----|         PM--|     PM
  E E E E E E  E E E E E E   E E E E E E E E E Q.
|--------------------------|---------------------------||
|--------------------------|--------------------------o||
|--------------------------|---------------------------||
|--------------------------|-9s8s9---------------------||
|-5h7---------10p7---------|-7s6s7-------5h7---8------o||
|-----0-0-0-0------0-0-0-0-|-------0-0-0-----0-6-------||


 Pre-Chorus
  N.C.
  PM  PM  PM----------------|   PM  PM---------------
  E E E E E E E E E E E E   E E E E E E E E E E E E
|-------------------------|-------------------------|
|-------------------------|-------------------------|
|-------------------------|-------------------------|
|-------------------------|-------------------------|
|-------------------------|-------------------------|
|-2---2---2-0-2-0-2-3-2-0-|-2---2---2-0-2-0-2-3-2-0-|


 -|   PM  PM----------------|   PM  PM------------|
  E E E E E E E E E E E E   E E E E E E E E E E E E
|-------------------------|----------------------------|
|-------------------------|----------------------------|
|-------------------------|----------------------------|
|-------------------------|----------------------------|
|-------------------------|----------------------------|
|-5---5---5-3-5-3-5-6-5-3-|-5---5---5-3-5-3-5-6-5-3----|


  PM  PM  PM------------|
  E E E E E E E E E E E E   E E E E E E E E E E E E
|-------------------------|-------------------------||
|-------------------------|-------------------------||
|-------------------------|-------------------------||
|-------------------------|-2-3---2-----------------||
|-2---2---2-0-2-0-2-3-2-0-|-----5---3-5-2-3---2-----||
|-------------------------|-----------------5---3-5-||


 Chorus
  F#5                          E5
  Gtr III
  H.          Q    E +E  Q     H.          Q    E +E  Q
|-------------0--------------|-------------0--------------|
|------------------0-(0)-----|------------------0-(0)-----|
|------------------------3---|------------------------3---|
|----------------------------|----------------------------|
|-4----------(4)-------------|-2----------(2)-------------|
|-2----------(2)-------------|-0----------(0)-------------|
|
| Gtr II
|      PM------------------|        PM------------------|
| Q.   E E E  E  E E  E  E E   Q.   E E E  E  E E  E  E E
|----------------------------|----------------------------|
|----------------------------|----------------------------|
|----------------------------|----------------------------|
|----------------------------|----------------------------|
|-4--------------------------|-2--------------------------|
|-2----2-2-2--2--2-2--2--2-2-|-0----0-0-0--0--0-0--0--0-0-|


  F#5                          E5
  H.          Q    E +E  Q     H.          Q    E +E  Q
|-------------0--------------|-------------0-----------------|
|------------------0-(0)-----|------------------0-(0)--------|
|------------------------3---|------------------------3------|
|----------------------------|-------------------------------|
|-4----------(4)-------------|-2----------(2)----------------|
|-2----------(2)-------------|-0----------(0)----------------|
|
|      PM------------------|        PM------------------|
| Q.   E E E  E  E E  E  E E   Q.   E E E  E  E E  E  E E
|----------------------------|-------------------------------|
|----------------------------|-------------------------------|
|----------------------------|-------------------------------|
|----------------------------|-------------------------------|
|-4--------------------------|-2-----------------------------|
|-2----2-2-2--2--2-2--2--2-2-|-0----0-0-0--0--0-0--0--0-0----|


  F#5                          A5
  H.          Q    E +E  Q     H.          Q    E +E  Q
|-------------0--------------|-------------0--------------|
|------------------0-(0)-----|------------------0-(0)-----|
|------------------------3---|------------------------6---|
|----------------------------|----------------------------|
|-4----------(4)-------------|-7----------(7)-------------|
|-2----------(2)-------------|-5----------(5)-------------|
|
|      PM------------------|        PM------------------|
| Q.   E E E  E  E E  E  E E   Q.   E E E  E  E E  E  E E
|----------------------------|----------------------------|
|----------------------------|----------------------------|
|----------------------------|----------------------------|
|----------------------------|----------------------------|
|-4--------------------------|-7--------------------------|
|-2----2-2-2--2--2-2--2--2-2-|-5----5-5-5--5--5-5--5--5-5-|


                                                      To Coda
  B5                           D5
  H.          Q    E +E  Q      H.           Q    E +E   Q
|-------------0--------------|---------------0------------------||
|------------------0-(0)-----|--------------------0-(0)---------||
|------------------------8---|--------------------------11------||
|----------------------------|----------------------------------||
|-9----------(9)-------------|-12----------(12)-----------------||
|-7----------(7)-------------|-10----------(10)-----------------||
|
|      PM------------------|         PM--------------------|
| Q.   E E E  E  E E  E  E E    Q.   E E E   E  E E  E   E E
|----------------------------|----------------------------------||
|----------------------------|----------------------------------||
|----------------------------|----------------------------------||
|-4--------------------------|--7-------------------------------||
|-2----2-2-2--2--2-2--2--2-2-|--5----5-5-5---5--5-5--5---5-5----||
|----------------------------|----------------------------------||


 Guitar Solo (Drover)
  N.C.
  Gtr IV
   ~~~~~~~~~~~~~~~~~~~~~~
   H.               +Q.       +Q      E     E  E  E  E  E  E  E  E  E  E  E  E
|----------------------------------------|-14----14----------17----14----------|
|-17b19============(17)r-----(17)\---10/-|----17----17-14h17----17----17-14----|
|----------------------------------------|----------------------------------17-|
|----------------------------------------|-------------------------------------|
|----------------------------------------|-------------------------------------|
|----------------------------------------|-------------------------------------|
|
| Gtrs II, III
|  PM      PM  PM--------------------------|      PM    PM------------------|
|  E     E E E E E   E   E E   E   E  E     E  E  E  E  E  E  E  E  E  E  E  E
|----------------------------------------|-------------------------------------|
|----------------------------------------|-------------------------------------|
|----------------------------------------|-------------------------------------|
|----------------------------------------|-------------------------------------|
|----------------------------------------|-------------------------------------|
|--2-------2---2-0---2---0-2---3---2--0--|--2-----2-----2--0--2--0--2--3--2--0-|


                                                          F#5
                                                           ~~~
   E  E  E  E  E  E  E  E  E  E  E  E    E  E  E  E  E  E  Q.     Q   E
|-------------------------------------|---------------------------------|
|-14----14-14-------------------------|---------------------------------|
|----17-------17p14----16----14-------|-14------------------------------|
|-------------------16----16----18-16-|----16-14----------16-----11s=16-|
|-------------------------------------|----------16-15-14---------------|
|-------------------------------------|---------------------------------|
|
|  PM    PM    PM-----------------------|      PM    PM|
|  E  E  E  E  E  E  E  E  E  E  E  E    E  E  E  E  E  E  Q   E  Q.
|-------------------------------------|---------------------------------|
|-------------------------------------|---------------------------------|
|-------------------------------------|---------------------------------|
|-------------------------------------|---------------------------------|
|-------------------------------------|--------------------4------------|
|--2-----2-----2--0--2--0--2--3--2--0-|--2-----2-----2--0--2------------|


  N.C.
   E  E  E  E  E  E  E  E  E  E  E  E
|-------------------------------------|
|-14-13-14-13-------14-13-14-13-------|
|-------------14-11-------------14-11-|
|-------------------------------------|
|-------------------------------------|
|-------------------------------------|
|
|  PM    PM    PM----------------------
|  E  E  E  E  E  E  E  E  E  E  E  E
|-------------------------------------|
|-------------------------------------|
|-------------------------------------|
|-------------------------------------|
|-------------------------------------|
|--2-----2-----2--0--2--0--2--3--2--0-|


   E  E  E  E  +E      +E   +Q.          +Q      a   E
|------------------------------------------------------||
|-14-13-14-13-(13)b16r(13)-(13)b14======(13)---(13)r---||
|------------------------------------------------------||
|------------------------------------------------------||
|------------------------------------------------------||
|------------------------------------------------------||
|
|-|      PM     PM-----------------------------------|
|  E  E  E  E   E       E    E      E E   E  E       E
|------------------------------------------------------||
|------------------------------------------------------||
|------------------------------------------------------||
|------------------------------------------------------||
|------------------------------------------------------||
|--2-----2------2-------0----2------0-2---3--2-------0-||


                                                               F#5
                                                                ~~~
   E  E  E  E  E  E  E  E  E  E  E  E    E  E  E  E     +E   E  Q.     +Q.
|----------------12-14-12-14-12s14-17p|=14-19p14-19b20r(19)-17----------------||
|-13-12-13-14-16----------------------|------------------------19-----(19)\---||
|-------------------------------------|---------------------------------------||
|-------------------------------------|---------------------------------------||
|-------------------------------------|---------------------------------------||
|-------------------------------------|---------------------------------------||
|
|  PM    PM    PM-----------------------|      PM        PM-|
|  E  E  E  E  E  E  E  E  E  E  E  E    E  E  E  E      E   E  Q   E   Q.
|-------------------------------------|---------------------------------------||
|-------------------------------------|---------------------------------------||
|-------------------------------------|---------------------------------------||
|-------------------------------------|---------------------------------------||
|-------------------------------------|-------------------------4-------------||
|--2-----2-----2--0--2--0--2--3--2--0-|--2-----2---------2---0--2-------------||


 Pre-Verse
  E5                                             A#5
  Gtr III
  W.                         +H.          +Q.    E  +Q
|--------------------------|------------------------------|
|--------------------------|------------------------------|
|--------------------------|------------------------------|
|--------------------------|------------------------------|
|-2------------------------|-(2)----------(2)----8--(8)\--|
|-0------------------------|-(0)----------(0)----6--(6)\--|
|
| Gtr II
|     PM----|      PM----|          PM--|      PM
| E E E E E E  E E E E E E    E E E E E E  E E E Q.
|--------------------------|------------------------------|
|--------------------------|------------------------------|
|--------------------------|------------------------------|
|--------------------------|--9s8s9-----------------------|
|-5h7---------10p7---------|--7s6s7--------5h7---8--------|
|-----0-0-0-0------0-0-0-0-|--------0-0-0------0-6--------|


  E5           N.C.           E5EbE5            A#5
  Q   E Q.      H.            H.          Q.    E  +Q
|---------------------------|------------------------------|
|---------------------------|------------------------------|
|---------------------------|------------------------------|
|---------------------------|------------------------------|
|-2-------------------------|-------------------8--(8)\----|
|-0-------------------------|-------------------6--(6)\----|
|
|     PM-----|      PM----|         PM--|     PM
| E E E E  E E  E E E E E E   E E E E E E E E E Q.
|---------------------------|------------------------------|
|---------------------------|------------------------------|
|---------------------------|------------------------------|
|---------------------------|-9s8s9------------------------|
|-5h7----------10p7---------|-7s6s7-------5h7---8----------|
|-----0-0--0-0------0-0-0-0-|-------0-0-0-----0-6----------|


  E5
  Gtr III
  W.                         +W.
|--------------------------|-------------------------|
|--------------------------|-------------------------|
|--------------------------|-------------------------|
|--------------------------|-------------------------|
|-2------------------------|-(2)---------------------|
|-0------------------------|-(0)---------------------|
|
| Gtr II
|     PM----|      PM----|          PM--|     PM
| E E E E E E  E E E E E E    E E E E E E E E E Q.
|--------------------------|-------------------------|
|--------------------------|-------------------------|
|--------------------------|-------------------------|
|--------------------------|--9s8s9------------------|
|-5h7---------10p7---------|--7s6s7-------5h7---8----|
|-----0-0-0-0------0-0-0-0-|--------0-0-0-----0-6----|


                                       D.S. al Coda
  E5                          E5EbE5            A#5
  Q   E Q.      H.            W
|---------------------------|--------------------------||
|---------------------------|--------------------------||
|---------------------------|--------------------------||
|---------------------------|--------------------------||
|-2-------------------------|--------------------------||
|-0-------------------------|--------------------------||
|
|     PM-----|      PM----|         PM--|     PM
| E E E E  E E  E E E E E E   E E E E E E E E E Q.
|---------------------------|--------------------------||
|---------------------------|--------------------------||
|---------------------------|--------------------------||
|---------------------------|-9s8s9--------------------||
|-5h7----------10p7---------|-7s6s7-------5h7---8------||
|-----0-0--0-0------0-0-0-0-|-------0-0-0-----0-6------||


   Bridge
    Q=148
    &
    N.C.
   4/4
    Gtrs II, III
    PM--------------------------------------------------------------|
    S S S S S S S S S S S S S S S S   S S S S S S S S S S S S S S S S   4x
||----------------------------------|-----------------------------------||
||o---------------------------------|----------------------------------o||
||----------------------------------|-----------------------------------||
||----------------------------------|-----------------------------------||
||o---------------------------------|----------------------------------o||
||--4-3-2-1-0-3-2-0-3-2-1-0-5-4-3-2-|-4-3-2-1-0-3-2-0-3-2-1-0-5-4-3-2---||


 Guitar Solo (Mustaine)
  N.C.
  Gtr IV
   S  S  S  S  S  S  S  S  S  S  S  S  S  S  S  S
|----------------------------17p14----19p14-17p14-|
|-19p14----17p14----19p14----------14-------------|
|-------17-------17-------17----------------------|
|-------------------------------------------------|
|-------------------------------------------------|
|-------------------------------------------------|
|
| Gtrs II, III
|  PM----------------------------------------------
|  S  S  S  S  S  S  S  S  S  S  S  S  S  S  S  S
|-------------------------------------------------|
|-------------------------------------------------|
|-------------------------------------------------|
|-------------------------------------------------|
|-------------------------------------------------|
|--0--2--2--0--2--2--0--2--2--0--2--0--3--3--3--3-|


   S  S  S  S  S  S  S  S  S  S  S  S  S  S  S  S
|-------------------------------------------------|
|-19p14----17p14----19p14----17p14----------------|
|-------17-------17-------17-------17-17p14-16p14-|
|-------------------------------------------------|
|-------------------------------------------------|
|-------------------------------------------------|
|
|----------------------------------------------|
|  S  S  S  S  S  S  S  S  S  S  S  S  S  S  S  S
|-------------------------------------------------|
|-------------------------------------------------|
|-------------------------------------------------|
|-------------------------------------------------|
|--------------------------------------3--3--3--3-|
|--0--2--2--0--2--2--0--2--2--0--2--0-------------|


   |---3---|
   S  S    S  S  T  T  S  S  T  T  S  S  T  T  S  S  S  S  S  S
|---------------------------------------------------------------|
|---------------------------------------------------------------|
|-17p16p==14-17-17p16p14-17-17p16p14-17-17p16p14-17-17p14-16p14-|
|---------------------------------------------------------------|
|---------------------------------------------------------------|
|---------------------------------------------------------------|
|
|  PM------------------------------------------------------------
|  S    S     S  S     S  S  S     S  S  S     S  S  S  S  S  S
|---------------------------------------------------------------|
|---------------------------------------------------------------|
|---------------------------------------------------------------|
|---------------------------------------------------------------|
|---------------------------------------------------------------|
|--0----2-----2--0-----2--2--0-----2--2--0-----2--0--3--3--3--3-|


                                  G5       A5
                                            ~~
   S  +S        S  S  +S   S  E    S  E  S  Q
|-----------------------------------------------|
|-14-(14)b14.5----16-(16)----14------16---------|
|-14-(14)b14.5----16-(16)----14------16----14---|
|--------------16---------16------16----16------|
|-----------------------------------------------|
|-----------------------------------------------|
|
|-------------------------------|
|  S   S        S  S   S   S  S S  Q        Q
|-----------------------------------------------|
|-----------------------------------------------|
|-----------------------------------------------|
|-----------------------------------------------|
|----------------------------------5--------7---|
|--0---2--------2--0---2---2--0-2--3--------5---|


  N.C.
   H.                           +E     +E
|-19b21========================(19)---(19)r==|
|--------------------------------------------|
|--------------------------------------------|
|--------------------------------------------|
|--------------------------------------------|
|--------------------------------------------|
|
|  PM-----------------------------------------
|  S     S S S S S S S S S S S   S  S   S  S
|--------------------------------------------|
|--------------------------------------------|
|--------------------------------------------|
|--------------------------------------------|
|--------------------------------------------|
|--0-----2-2-0-2-2-0-2-2-0-2-0---3--3---3--3-|


   +E     E   S  E   S  a  S  S  S  S  S  S  S  S
|-(19)---19-----17-----14h17p14-------14----------|
|-------------------------------17p14----17-14h17-|
|-------------------------------------------------|
|-------------------------------------------------|
|-------------------------------------------------|
|-------------------------------------------------|
|
|----------------------------------------------|
|   S  S  S S S  S S S     S  S  S  S  S  S  S  S
|-------------------------------------------------|
|-------------------------------------------------|
|-------------------------------------------------|
|-------------------------------------------------|
|--------------------------------------3--3--3--3-|
|---0--2--2-0-2--2-0-2-----2--0--2--0-------------|


         |---3---|              |---3---|
   S  S  S  S    S  S  S  S  S  S  S    S  S  S  S  S  S  S
|-14--------------------------------------------------------|
|----17-14h17p==14-------------14h17p==14-------------------|
|------------------17p16p14-16------------17p16p14-16h17-16-|
|-----------------------------------------------------------|
|-----------------------------------------------------------|
|-----------------------------------------------------------|
|
|  PM--------------------------------------------------------
|  S  S  S    S     S  S  S  S  S    S     S  S  S  S  S  S
|-----------------------------------------------------------|
|-----------------------------------------------------------|
|-----------------------------------------------------------|
|-----------------------------------------------------------|
|-----------------------------------------------------------|
|--0--2--2----0-----2--2--0--2--2----0-----2--0--3--3--3--3-|


                                 G5                A5
               |---3---|  |---3---|
   S  S  S  S  S  S    S  S  S    S  T  T  S  S  S  S  S  S  S
|---------------------------------------------------------------||
|---------------------------------------------------------------||
|-17p16p14-16-----------------------14h16p14-------------14h16--||
|-------------16p15p==14-14h15h==16----------16-16p15p14--------||
|---------------------------------------------------------------||
|---------------------------------------------------------------||
|
|------------------------------|
|  S  S  S  S  S    S     S    S     Q              Q
|---------------------------------------------------------------||
|---------------------------------------------------------------||
|---------------------------------------------------------------||
|---------------------------------------------------------------||
|------------------------------------5--------------7-----------||
|--0--2--2--0--2----2-----0----2-----3--------------5-----------||


 Guitar Solo (Drover)
  N.C.
  Gtr V
               ~~~~~~~~~
    Q    s  s  E    +E.     S  Q
|-----------------------------17-------|
|-/18---17-18-17---(17)----------------|
|--------------------------------------|
|--------------------------------------|
|--------------------------------------|
|--------------------------------------|
|
| Gtr IV
|   >
|   ~~~
|   W
|--------------------------------------|
|--------------------------------------|
|--14----------------------------------|
|--------------------------------------|
|--------------------------------------|
|--------------------------------------|
|
| Gtrs II, III
|   PM-----------|      PM--------------
|   E E  S  E    S  +S  S S S  S S S S
|--------------------------------------|
|--------------------------------------|
|--------------------------------------|
|--------------------------------------|
|--------------------------------------|
|---5-5--5--5----5--(5)-5-5-5--6-6-6-6-|


   S  S  Q      S  S  Q         S  S  E
|-16h17p16--------------------------------|
|--------------18h21p18--------17h18p17---|
|-----------------------------------------|
|-----------------------------------------|
|-----------------------------------------|
|-----------------------------------------|
|
|  W
|-----------------------------------------|
|-----------------------------------------|
|-----------------------------------------|
|-----------------------------------------|
|-----------------------------------------|
|-----------------------------------------|
|
|---------------------------------------|
|  E     E S E     S +S  S S S  S  S  S S
|-----------------------------------------|
|-----------------------------------------|
|-----------------------------------------|
|-----------------------------------------|
|-----------------------------------------|
|--5-----5-5-5-----5-(5)-5-5-5--8--8--8-8-|


  Gtr V
                                       |----3----|
   +E   S  S  S  S  S  S  S   S  S  S  E    E    E
|----------------------------------------------------|
|-(17)-------17--------------------------------------|
|------19-18----19-18-19-18--18----------------------|
|-------------------------------19-17-20---19---19---|
|----------------------------------------------------|
|----------------------------------------------------|
|
| Gtrs II, III
|   PM------------------------------------------------
|   E   E     S  E     S +S   S  S  S  S S    S    S
|----------------------------------------------------|
|----------------------------------------------------|
|----------------------------------------------------|
|----------------------------------------------------|
|----------------------------------------------------|
|---5---5-----5--5-----5-(5)--5--5--5--6-6----6----6-|


                          A#5 C5
                           ~~
   S  S  S  S  S  S  S  S  H
|---------------------------------|
|---------------------------------|
|---------------------------------|
|---------------------------------|
|-20-20-19-17-20-19-17-19-16------|
|---------------------------------|
|
|----------------------|
|  E     E     S  S  S  S  Q   Q
|---------------------------------|
|---------------------------------|
|---------------------------------|
|---------------------------------|
|--------------------------8--10--|
|--5-----5-----5--5--5--5--6---8--|


  N.C.
   S  S  S  S  S  S  S  S  S   S  S  S  S  S  S  S
|--------------------------------------------------|
|-----------------------------------------------14-|
|-------------------14-----------------14-15-17----|
|----------14-15-17----17-15--14-15-17-------------|
|-17-16-17-----------------------------------------|
|--------------------------------------------------|
|
|  PM-----------------------------------------------
|  E     E     S  E     S +S   S  S  S  S  S  S  S
|--------------------------------------------------|
|--------------------------------------------------|
|--------------------------------------------------|
|--------------------------------------------------|
|--------------------------------------------------|
|--5-----5-----5--5-----5-(5)--5--5--5--6--6--6--6-|


                           ~~~~~~~~~~~~~~
                                             |---3---|
   S  S  S  S  S  S  S  S  Q         +S   S  S  S    S
|----------------------------------------17-17-17---17--|
|----------------14-15-17-------------------------------|
|-17-15-14-15-17----------15--------(15)----------------|
|-------------------------------------------------------|
|-------------------------------------------------------|
|-------------------------------------------------------|
|
|-------------------------------------------------|
|  E     E     S  E     S +S  S S S   S   S  S    S
|-------------------------------------------------------|
|-------------------------------------------------------|
|-------------------------------------------------------|
|-------------------------------------------------------|
|-------------------------------------------------------|
|--5-----5-----5--5-----5-(5)-5-5-5---8---8--8----8-----|


   |------6-------|  |--------6---------|  |---------6---------|  |--------6---------|
   S  S  S  S  S  S  S  S    S  S  S    S  S   S    S  S  S    S  S  S    S  S  S    S
|-17h18p17p15----17p15-----------------------------------------------------------------|
|-------------18-------18---17-15-18---17-15--18---17-15------17-15---------15---------|
|--------------------------------------------------------18---------18---16----18---16-|
|--------------------------------------------------------------------------------------|
|--------------------------------------------------------------------------------------|
|--------------------------------------------------------------------------------------|
|
|  PM-----------------------------------------------------------------------------------
|  E        E        S    E          S    +S     S     S    S     S    S     S    S
|--------------------------------------------------------------------------------------|
|--------------------------------------------------------------------------------------|
|--------------------------------------------------------------------------------------|
|--------------------------------------------------------------------------------------|
|--------------------------------------------------------------------------------------|
|--5--------5--------5----5----------5----(5)----5-----5----5-----6----6-----6----6----|


                          A5    G#5
                   ~~~~~~~~~~~~
   S  S  S  S  S  +E.      +Q.     +E
|---------------------------------------||
|----------15---------------------------||
|-15-16h18----18-(18)-----(18)----(18)\-||
|---------------------------------------||
|---------------------------------------||
|---------------------------------------||
|
|-----------------------|
|  E     E     S   S  S S   Q   Q
|---------------------------------------||
|---------------------------------------||
|---------------------------------------||
|---------------------------------------||
|---------------------------7---6-------||
|--5-----5-----5---5--5-5---5---4-------||


   Bridge
                                      1.
    N.C.
    Gtrs II, III
    PM-------------------------------------------------------------------
    S S S S S S S S S S S S S S S S   S S S S S S S S S S S S S S S S
||----------------------------------|----------------------------------||
||o---------------------------------|---------------------------------o||
||----------------------------------|----------------------------------||
||----------------------------------|----------------------------------||
||o---------------------------------|---------------------------------o||
||--4-3-2-1-0-3-2-0-3-2-1-0-5-4-3-2-|-4-3-2-1-0-3-2-0-3-2-1-0-5-4-3-2--||


  2.
                                 D.S.S. al Dbl. Coda
                                    F#5
 -------------------------------|
  S S S S S S S S S S S S S S S S   E E Q  H      W
|---------------------------------|-------------|-------||
|---------------------------------|-------------|-------||
|---------------------------------|-------------|-------||
|---------------------------------|-------------|-------||
|---------------------------------|-4-----------|-------||
|-4-3-2-1-0-3-2-0-3-2-1-0-5-4-3-0-|-2-----------|-------||


 Pre-Chorus
  Q.=174
  &&
  N.C.
 12/8
  PM  PM  PM----------------|   PM  PM---------------
  E E E E E E E E E E E E   E E E E E E E E E E E E
|-------------------------|-------------------------|
|-------------------------|-------------------------|
|-------------------------|-------------------------|
|-------------------------|-------------------------|
|-------------------------|-------------------------|
|-2---2---2-0-2-0-2-3-2-0-|-2---2---2-0-2-0-2-3-2-0-|


 -|   PM  PM----------------|   PM  PM------------|
  E E E E E E E E E E E E   E E E E E E E E E E E E
|-------------------------|--------------------------|
|-------------------------|--------------------------|
|-------------------------|--------------------------|
|-------------------------|--------------------------|
|-------------------------|--------------------------|
|-5---5---5-3-5-3-5-6-5-3-|-5---5---5-3-5-3-5-6-5-3--|


  PM  PM  PM------------|
  E E E E E E E E E E E E   E E E E E E E E E E E E
|-------------------------|-------------------------||
|-------------------------|-------------------------||
|-------------------------|-------------------------||
|-------------------------|-2-3---2-----------------||
|-2---2---2-0-2-0-2-3-2-0-|-----5---3-5-2-3---2-----||
|-------------------------|-----------------5---3-5-||


   Out-Chorus
    F#5                          E5
    Gtr III
    H.          Q    E +E  Q     H.          Q    E +E  Q
||--------------0--------------|-------------0--------------|
||o------------------0-(0)-----|------------------0-(0)-----|
||-------------------------3---|------------------------3---|
||-----------------------------|----------------------------|
||o-4----------(4)-------------|-2----------(2)-------------|
||--2----------(2)-------------|-0----------(0)-------------|
|
|   Gtr II
|        PM------------------|        PM------------------|
|   Q.   E E E  E  E E  E  E E   Q.   E E E  E  E E  E  E E
||-----------------------------|----------------------------|
||o----------------------------|----------------------------|
||-----------------------------|----------------------------|
||-----------------------------|----------------------------|
||o-4--------------------------|-2--------------------------|
||--2----2-2-2--2--2-2--2--2-2-|-0----0-0-0--0--0-0--0--0-0-|


  F#5                          E5
  H.          Q    E +E  Q     H.          Q    E +E  Q
|-------------0--------------|-------------0----------------|
|------------------0-(0)-----|------------------0-(0)-------|
|------------------------3---|------------------------3-----|
|----------------------------|------------------------------|
|-4----------(4)-------------|-2----------(2)---------------|
|-2----------(2)-------------|-0----------(0)---------------|
|
|      PM------------------|        PM------------------|
| Q.   E E E  E  E E  E  E E   Q.   E E E  E  E E  E  E E
|----------------------------|------------------------------|
|----------------------------|------------------------------|
|----------------------------|------------------------------|
|----------------------------|------------------------------|
|-4--------------------------|-2----------------------------|
|-2----2-2-2--2--2-2--2--2-2-|-0----0-0-0--0--0-0--0--0-0---|


  F#5                          A5
  H.          Q    E +E  Q     H.          Q    E +E  Q
|-------------0--------------|-------------0--------------|
|------------------0-(0)-----|------------------0-(0)-----|
|------------------------3---|------------------------6---|
|----------------------------|----------------------------|
|-4----------(4)-------------|-7----------(7)-------------|
|-2----------(2)-------------|-5----------(5)-------------|
|
|      PM------------------|        PM------------------|
| Q.   E E E  E  E E  E  E E   Q.   E E E  E  E E  E  E E
|----------------------------|----------------------------|
|----------------------------|----------------------------|
|----------------------------|----------------------------|
|----------------------------|----------------------------|
|-4--------------------------|-7--------------------------|
|-2----2-2-2--2--2-2--2--2-2-|-5----5-5-5--5--5-5--5--5-5-|


  B5                           D5
  H.          Q    E +E  Q      H.           Q    E +E   Q
|-------------0--------------|---------------0-------------------||
|------------------0-(0)-----|--------------------0-(0)---------o||
|------------------------8---|--------------------------11-------||
|----------------------------|-----------------------------------||
|-9----------(9)-------------|-12----------(12)-----------------o||
|-7----------(7)-------------|-10----------(10)------------------||
|
|      PM------------------|         PM--------------------|
| Q.   E E E  E  E E  E  E E    Q.   E E E   E  E E  E   E E
|----------------------------|-----------------------------------||
|----------------------------|----------------------------------o||
|----------------------------|-----------------------------------||
|-4--------------------------|--7--------------------------------||
|-2----2-2-2--2--2-2--2--2-2-|--5----5-5-5---5--5-5--5---5-5----o||
|----------------------------|-----------------------------------||


    F#5                            E5
    H.            Q    E +E  Q     H.            Q    E +E  Q
||----------------0--------------|---------------0--------------|
||o--------------------0-(0)-----|--------------------0-(0)-----|
||---------------------------3---|--------------------------3---|
||-------------------------------|------------------------------|
||o-4------------(4)-------------|-2------------(2)-------------|
||--2------------(2)-------------|-0------------(0)-------------|
|
|   PM---|   PM-------------------------|   PM-------------------
|   E  E E E E E  E  E E  E  E E   E  E E E E E  E  E E  E  E E
||-------------------------------|------------------------------|
||o------------------------------|------------------------------|
||-------------------------------|------------------------------|
||-------------------------------|------------------------------|
||o------------------------------|------------------------------|
||--2----2---2-2--2--2-2--2--2-2-|-0----0---0-0--0--0-0--0--0-0-|


  F#5                            E5
  H.            Q    E +E  Q     H.            Q    E +E  Q
|---------------0--------------|---------------0----------------|
|--------------------0-(0)-----|--------------------0-(0)-------|
|--------------------------3---|--------------------------3-----|
|------------------------------|--------------------------------|
|-4------------(4)-------------|-2------------(2)---------------|
|-2------------(2)-------------|-0------------(0)---------------|
|
|------|   PM-------------------------|   PM----------------|
| E  E E E E E  E  E E  E  E E   E  E E E E E  E  E E  E  E E
|------------------------------|--------------------------------|
|------------------------------|--------------------------------|
|------------------------------|--------------------------------|
|------------------------------|--------------------------------|
|------------------------------|--------------------------------|
|-2----2---2-2--2--2-2--2--2-2-|-0----0---0-0--0--0-0--0--0-0---|


  F#5                            A5
  H.            Q    E +E  Q     H.            Q    E +E  Q
|---------------0--------------|---------------0--------------|
|--------------------0-(0)-----|--------------------0-(0)-----|
|--------------------------3---|--------------------------6---|
|------------------------------|------------------------------|
|-4------------(4)-------------|-7------------(7)-------------|
|-2------------(2)-------------|-5------------(5)-------------|
|
| PM---|   PM-------------------------|   PM-------------------
| E  E E E E E  E  E E  E  E E   E  E E E E E  E  E E  E  E E
|------------------------------|------------------------------|
|------------------------------|------------------------------|
|------------------------------|------------------------------|
|------------------------------|------------------------------|
|------------------------------|------------------------------|
|-2----2---2-2--2--2-2--2--2-2-|-5----5---5-5--5--5-5--5--5-5-|


  B5                             D5
  H.            Q    E +E  Q      H.             Q    E +E   Q       6x
|---------------0--------------|-----------------0-------------------||
|--------------------0-(0)-----|----------------------0-(0)---------o||
|--------------------------8---|----------------------------11-------||
|------------------------------|-------------------------------------||
|-9------------(9)-------------|-12------------(12)-----------------o||
|-7------------(7)-------------|-10------------(10)------------------||
|
|------|   PM--------------------------|   PM------------------|
| E  E E E E E  E  E E  E  E E    E  E E E E E   E  E E  E   E E     6x
|------------------------------|-------------------------------------||
|------------------------------|------------------------------------o||
|------------------------------|-------------------------------------||
|------------------------------|-------------------------------------||
|-2----2---2-2--2--2-2--2--2-2-|--5----5---5-5---5--5-5--5---5-5----o||
|------------------------------|-------------------------------------||



Duration Legend
---------------
W - whole; H - half; Q - quarter; E - 8th; S - 16th; T - 32nd; X - 64th; a - acciaccatura
+ - note tied to previous; . - note dotted; .. - note double dotted
Uncapitalized letters represent notes that are staccato (1/2 duration)
Irregular groupings are notated above the duration line
Duration letters will always appear directly above the note/fret number it represents the
duration for.  Duration letters with no fret number below them represent rests.  Multi-
bar rests are notated in the form Wxn, where n is the number of bars to rest for.  Low
melody durations appear below the staff

Tablature Legend
----------------
 h   - hammer-on
 p   - pull-off
 b   - bend
 pb  - pre-bend
 r   - bend release (if no number after the r, then release immediately)
 /\  - slide into or out of (from/to "nowhere")
 s   - legato slide
 S   - shift slide
 - natural harmonic
[n]  - artificial harmonic
n(n) - tapped harmonic
 ~   - vibrato
 tr  - trill
 T   - tap
 TP  - trem. picking
 PM  - palm muting
\n/  - tremolo bar dip; n = amount to dip
 \n  - tremolo bar down
 n/  - tremolo bar up
/n\  - tremolo bar inverted dip
 =   - hold bend; also acts as connecting device for hammers/pulls
 <> - volume swell (louder/softer)
 x   - on rhythm slash represents muted slash
 o   - on rhythm slash represents single note slash

Misc Legend
-----------
 |  - bar
||  - double bar
||o - repeat start
o|| - repeat end
*|  - double bar (ending)
 :  - bar (freetime)
 $  - Segno
 &  - Coda
Tempo markers -  = BPM(8/16=s8/s16), where s8 = swing 8ths, s16 = swing 16ths

6 comments total. Showing first comments.
+2 reply
Ratt n' Roll wrote on October 16 2008, 01:34 pm

This tab is ****ing amazing, I think it's the best one on here, Thanks a lot man, 5 stars.

+1 reply
DIMEBAGLIVEDON wrote on December 28 2008, 12:21 pm

This tab is clearly the best one on here. Good job. 5 stars.

+1 reply
T-rig wrote on January 5 2009, 11:43 am

Dude amazing tab!!

I want to post or [tab]
guest
You may want to rate the tab now too:
select rating
Please do not post tabs as comments. Select "correction" instead!