Oops, an error
Loading. Please wait.

So Far So Good So What Bass Tab

1,693 views 1 this week
no commentswrite comment
1 2 3 4 5
excellent!
x 1
Autoscroll
+/-
esc
set tempo
stop
Contributor
Hey! There's an official Ultimate Guitar app which is ideal
for learning songs when you're away from computer. Get the app
WARNING: You are trying to view
                                    content from Ultimate-Guitar.com
                                    in an unauthorized application,
                                    which is prohibited.

                                    Please use an official Ultimate
                                    Guitar Tabs application for iPhone,
                                    iPad or Android to access legitimate
                                    chords, guitar, bass, and drum tabs
                                    from Ultimate-Guitar.com database.

                                    Type "ultimate guitar tabs" in Apple
                                    App Store's or Android Market's
                                    search to find the application.
So here is the entire bass tab for the album So Far, So Good, So What?!
Probably a little bit off in parts, especially on "Mary Jane", but it
should be relatively accurate. Enjoy.

Tuning is E standard.


Megadeth-Into The Lungs Of Hell

Rest 8 bars

Intro
|-------------|-------------|-------------|-------------|
|-------------|-------------|-------------|-------------|
|-6-----6-6-6-|-6---8---6---|-------------|-------------|
|-------------|-------------|-6-----6-6-6-|-6---5---4---|

|-------------|-------------|-------------|-------------|
|-------------|-------------|-------------|-------------|
|-4-----4-4-4-|-4---6---4---|-------------|-------------|
|-------------|-------------|-4-----4-4-4-|-4---3---2---|

|-------------|-------------|-------------|-------------|
|-------------|-------------|-------------|-------------|
|-2-----2-2-2-|-2---4---2---|-------------|-------------|
|-------------|-------------|-2-----2-2-2-|-2---1---0---|

|-------------|-------------|-------------|-------------|-------------||
|-------------|-------------|-------------|-------------|-------------||
|-0-----0-0-0-|-0---2---0---|-------------|-7---6---5---|-------------||
|-------------|-------------|-0-----0-0-0-|-------------|-5---4---3---||

Riff 1
|-------------|-------------|-------------|-------------||2x
|-------------|-------------|-------------|-------------||
|-------------|-------------|-------------|-------------||
|-0-0-0-0-0-0-|-0-0-0-0-0-0-|-0-0-0-0-0-0-|-0-0-0-0-0-0-||

Riff 1a
|-------------|-------------|-------------|-------------||3x
|-------------|-------------|-------------|-------------||
|-------------|-------------|-------------|-------------||
|-0-0-0-0-0-0-|-0-0-0-0-0-0-|-1-1-1-1-1-1-|-1-1-1-1-1-1-||

Riff 2
|-------------|-------------|-------------|-------------|
|-------------|-------------|-------------|-------------|
|-7-7-7-7-7-7-|-7-7-7-7-7-7-|-------------|-------------|
|-------------|-------------|-0-0-0-0-0-0-|-0-0-0-0-0-0-|

|-------------|-------------|-------------|-------------||12x
|-------------|-------------|-5-5-5-5-5-5-|-------------||
|-------------|-------------|-------------|-------------||
|-3-3-3-3-3-3-|-3-3-3-3-3-3-|-------------|-3---2---1---||

Riff 3
|-------------|-------------|-------------|-------------|
|-------------|-------------|-------------|-------------|
|-0-0-0-0-0-0-|-0-0-0-0-0-0-|-------------|-------------|
|-------------|-------------|-1-1-1-1-1-1-|-1-1-1-1-1-1-|

|-------------|-------------|-------------|-------------||2x
|-------------|-------------|-------------|-------------||
|-0-0-0-0-0-0-|-0-0-0-0-0-0-|-3-3-3-3-3-3-|-2-2-2-3-3-3-||
|-------------|-------------|-------------|-------------||

Riff 4
|-------------|-------------|-------------|-------------|
|-------------|-------------|-------------|-------------|
|-0-0-0-0-0-0-|-0-0-0-3-3-3-|-------------|-------3-3-3-|
|-------------|-------------|-3-3-3-3-3-3-|-3-3-3-------|

|-------------|-------------|-------------|-------------|
|-------------|-------------|-------------|-------------|
|-------------|-------3-3-3-|-5-5-5-3-3-3-|-2-2-2-3-3-3-|
|-2-2-2-2-2-2-|-2-2-2-------|-------------|-------------|

|-------------|-------------|-------------|-------------|
|-------------|-------------|-------------|-------------|
|-0-0-0-0-0-0-|-0-0-0-3-3-3-|-------------|-------3-3-3-|
|-------------|-------------|-3-3-3-3-3-3-|-3-3-3-------|

|-------------|-------------|-------------|-------------||2x
|-------------|-------------|-------------|-------------||
|-------------|-------3-3-3-|-5-5-5-5-5-5-|-7-7-7-7-7-7-||
|-2-2-2-2-2-2-|-2-2-2-------|-------------|-------------||

Riff 4a
|-------------|-------------|-------------|-------------|
|-------------|-------------|-------------|-------------|
|-2-2-2-2-2-2-|-2-2-2-5-5-5-|-0-0-0-0-0-0-|-0-0-0-5-5-5-|
|-------------|-------------|-------------|-------------|

|-------------|-------------|-------------|-------------|
|-------------|-------------|-------------|-------------|
|-------------|-------5-5-5-|-7-7-7-5-5-5-|-4-4-4-5-5-5-|
|-4-4-4-4-4-4-|-4-4-4-------|-------------|-------------|

|-------------|-------------|-------------|-------------|
|-------------|-------------|-------------|-------------|
|-2-2-2-2-2-2-|-2-2-2-5-5-5-|-0-0-0-0-0-0-|-0-0-0-5-5-5-|
|-------------|-------------|-------------|-------------|

|-------------|-------------|-------------|-------------||
|-------------|-------------|-------------|-------------||
|-------------|-------5-5-5-|-7-7-7-7-7-7-|-9-9-9-9-9-9-||
|-4-4-4-4-4-4-|-4-4-4-------|-------------|-------------||

Riff 5
|-------------|-------------|-------------|-------------|2x this row
|-------------|-------------|-------------|-------------|
|-------------|-------------|-------------|-------------|
|-3-3-3-3-3-3-|-3---3---3---|-2-2-2-2-2-2-|-2---2---2---|

|-------------|-------------|-------------|-------------|2x this row
|-------------|-------------|-------------|-------------|
|-------------|-------------|-------------|-------------|
|-6-6-6-6-6-6-|-6---6---6---|-5-5-5-5-5-5-|-5---5---5---|

|-------------|-------------|-------------|-------------|2x this row
|-------------|-------------|-------------|-------------|
|-------------|-------------|-------------|-------------|
|-9-9-9-9-9-9-|-9---9---9---|-8-8-8-8-8-8-|-8---8---8---|

|-------------|-------------|-------------|-------------|
|-------------|-------------|-------------|-------------|
|-------------|-------------|-------------|-------------|
|-9-9-9-9-9-9-|-8-8-8-8-8-8-|-9-9-9-9-9-9-|-8-8-8-8-8-8-|

|-------------|-------------|-------------|-------------||
|-------------|-------------|-------------|-------------||
|-------------|-------------|-------------|-------------||
|-9-----8-----|-9-----8-----|-9-----8-----|-9-----8-----||

End
|-------------|-------------|-------------|-------------|
|-------------|-------------|-------------|-------------|
|-------------|-------------|-------------|-------------|
|-2-----------|(2)----------|-1-----------|(1)----------|

|-------------|-------------|-------------|-------------|
|-------------|-------------|-------------|-------------|
|-------------|-------------|-6-----------|(6)----------|
|-0-----------|(0)----------|-------------|-------------|

|-------------|-------------|-------------|-------------||
|-------------|-------------|-------------|-------------||
|-5-----------|(5)----------|(5)----------|(5)----------||
|-------------|-------------|-------------|-------------||


-----------------------------------------------------------------------------


Megadeth-Set The World Afire

Rest about 16 bars

...and start.
|-------------|-------------||
|-------------|-------------||
|-------------|-5-----6-----||
|-------------|-------------||

Intro 1
|-------------|-------------|-------------|-------------|
|-------R-----|-------------|-------------|---R---R---R-|
|-7-----------|-------R-----|-------------|-8---8---8---|
|-------------|-0-----------|-------------|-------------|

|-------------|-------------|-------------|-------------||4x
|-------R-----|-------------|-------------|-------------||
|-8-7---------|-------R-----|-------------|-5-----6-----||
|-------------|-0-----------|-------------|-------------||

Rest Section
|-------------|-------------|----||
|-------R-----|-------------|-7x-||
|-7-----------|-------------|----||
|-0-----------|-------------|----||

Intro 2
|-------------|-------------|-------------|-------------|3x this row
|-R-----------|-------------|-R-----------|-------------|
|-------------|-------7---7-|-------------|-------------|
|-------------|-------0---0-|-------------|-------3---3-|

|-------------|-------------|-------------|-------------||
|-R-----------|-------------|-R-----------|-------------||
|-------------|-------7---7-|-------------|-R-----5---5-||
|-------------|-------0---0-|-------3---3-|-------------||

Intro 2a
|-------------|-------------|-------------|-------------|3x this row
|-------------|-------------|-------------|-------------|
|-------------|-------7---7-|-------------|-------------|
|-0-0-0-0-0-0-|-0-0-0-------|-0-0-0-0-0-0-|-0-0-0-3---3-|

|-------------|-------------|-------------|-------------||2x whole riff
|-------------|-------------|-------------|-------------||
|-------------|-------7---7-|-------------|-------5---5-||
|-0-0-0-0-0-0-|-0-0-0-------|-0-0-0-3---3-|-0-0-0-------||

Intro 3
|-------------|-------------|-------------|-------------|4x this row
|-------------|-------------|-------------|-------------|
|-7-----------|-------------|-------------|-------------|
|-------0-0-0-|-8-----0-0-0-|-7-----0-0-0-|-6-----0-0-0-|

|-------------|-------------|-------------||
|-------------|-------------|-------------||
|-7-----------|(7)----------|(7)----------||
|-------------|-------------|-------------||

Rest 4 bars

Pre-Verse
|-----------------|-----------------|-----------------|-----------------||
|-----------------|-----------------|-----------------|-----R---R-------||
|---R-------------|-----------------|-----------------|---2---1---0-----||
|-0---------------|-----------------|-----------------|-----------------||

Riff 1
|-----------------|-----------------|-----------------|-----------------||4x
|-----------------|-----------------|-----------------|-----R---R-------||
|-----------------|-----------------|-----------------|---2---1---0-----||
|-0-0-0-0-0-0-0-0-|-0-6-5-0-3-0-2-3-|-0-0-0-0-0-0-0-0-|-0---------------||

Riff 2
|-----------------|-----------------|-----------------|-----------------|
|-----------------|-----------------|-----------------|-----------------|
|-3-3-3-2-2-2-----|-----------------|-5-5-5-----------|---7-7-7---------|
|-------------3-3-|-3-2-2-2-2-2-2-2-|-------6-6-6-5-5-|-5-------8-8-7-7-|

|-----------------|-----------------||
|-----------------|-----------------||
|-3-3-3-2-2-2-----|-----------------||
|-------------3-3-|-3-2-2-2-2-2-0-1-||

Riff 3   [2nd time no slide]
|-----------------|-----------------|--|--|-----------------|-----------------||2x
|-----------------|-----------------|-3x--|-----------------|-----------------||
|-----------------|-------------R---|--|--|-----------------|-R---------------||
|-0-0-1-0-0-0-1-0-|-0-0-1-0-0-1---1-|--|--|-0-0-1-0-0-0-1-0-|-------------7\\\||

Riff 4
|-----------------|-----------------|-----------------|-----------------|
|-----------------|-4--3----2--0----|-----------------|-----------------|
|-2-2-2-2-5-5-5-5-|-------4-------4-|-0-0-0-0-3-3-3-3-|-2--0----0--2--3-|
|-----------------|-----------------|-----------------|-------2---------|

|-----------------|-----------------||
|-----------------|---------3--2--0-||
|-------------1---|-----0-----------||
|-3-3-3-3-3-3-----|-2---------------||

Riff 5
|-----------------|-----------------|-----------------|-----------------||2x
|-----------------|-----------------|--------------3--|-----------------||
|-2-2-2-2-2-2-23--|-2-2-2-2-0-----3-|-2-2-2-2-2-2-2---|-2-2-2-2-0-----3-||
|-----------------|------------0----|-----------------|------------0----||

Play Riff 4

Riff 5a
|-----------------|-----------------|-----------------|-----------------||
|---R-------------|---R-------------|---R-------------|---R-------------||
|-2---------------|-2---------------|-2---------------|-2-------2--1--0-||
|-----------------|-----------------|-----------------|-----------------||

Riff 6
|-----------------|-----------------|-----------------|-----------------||2x
|-----------------|-----------------|-----------------|-----------------||
|-----------------|---------0---3-2-|-----------------|---------0---3---||
|-2-2-2---3-3-3---|-2-2-2-----0-----|-2-2-2---3-3-3---|-2-2-2-----0-----||

Riff 6a
|-----------------|-----------------|-----------------|-----------------||2x
|-----------------|-----------------|-----------------|-----------------||
|-----------------|---------3---6-5-|-----------------|---------3---6---||
|-5-5-5---6-6-6---|-5-5-5-----3-----|-5-5-5---6-6-6---|-5-5-5-----3-----||

Riff 7
|-----------------|-----------------|--|--|-----------------|-----------------||
|-----------------|-----------------|-3x--|-----------------|-----------------||
|-----------------|---------0-1-2-3-|--|--|-----------------|-----------------||
|-2-2-2-2-3-3-3-3-|-2-2-2-2---------|--|--|-2-2-2-2-3-3-3-3-|-4-4-4-4-5-5-5-5-||

Pre-verse 2
|-----------------|-----------------|----|-----------------||
|-----------------|-----------------|-6x-|-----R---R-------||
|---R---R-------R-|-------R-------R-|----|---2---1---0-----||
|-0---0-------0---|-----0-------0---|----|-----------------||

Play Riff 1 – 4x

Riff 2a
|-----------------|-----------------||
|-----------------|-----------------||
|-3-3-3-2-2-2-----|-----------------||
|-------------3-3-|-3-2-2-2-2-2-0-1-||

Play Riff 3 [no slide]

Riff 3a
|-----------------|-----------------||8x
|-----------------|-----------------||
|-----------------|-------------R---||
|-0-0-1-0-0-0-1-0-|-0-0-1-0-0-1---1-||

Roff 2b
|-----------------|-----------------|-----------------|-----------------||
|-----------------|-----------------|-----------------|-----------------||
|-3-3-3-2-2-2-----|-----------------|-3-3-3-2-2-2-----|-----------------||
|-------------3-3-|-3-2-2-2-2-2-2-2-|-------------3-3-|-3-2-2-2-2-2-0-1-||

Outro
|-----------------|-----------------|-----------------|-----------------|
|-5---------------|-----------------|-5---------------|-----------------|
|-------7-----5---|---------5-7-----|-------7---5-7---|(7)--------------|
|---0-0---0-0---0-|-0-7-0-0-----0-0-|---0-0---0-------|-----------------|

|-----------------|-----------------|-----------------|-----------------|
|-----------------|-----------------|-----------------|-----------------|
|-7---------------|-7---------------|-7---------------|-7---------------|
|-0---------------|-0---------------|-0---------------|-0---------------|

|-----------------|-----------------|-----------------|-----------------||
|-----------------|-----------------|-----------------|-----------------||
|-7-7-7-7-7-7-7-7-|-7-7-7-7-7-7-7-7-|-7---------------|(7)------7-------||
|-0-0-0-0-0-0-0-0-|-0-0-0-0-0-0-0-0-|-0---------------|(0)------0-------||


-----------------------------------------------------------------------------


Megadeth-Anarchy In The U.K.

Riff 1
|-----------------|-----------------|-----------------|-----------------||
|-----------------|-----------------|-----------------|-----------------||
|-----------------|-----------------|-----------------|---------5---5---||
|-3---3-3-3-3-3-3-|-3-3-3-3-3-3-3-3-|-1---1-1-1-1-1-1-|-0-0-0-0---------||

Riff 2
|-----------------|-----------------||5x
|-----------------|---------3-2-2---||
|-3---3-3-3-3-3-3-|-3-3-3-3-------3-||
|-----------------|-----------------||

Riff 2a
|-----------------|-----------------||
|-----------------|-----------------||
|-3---3-3-3-3-3-3-|-3-3-3-3-3-3-3-3-||
|-----------------|-----------------||

Riff 1a
|-----------------|-----------------|-----------------|-----------------||
|-----------------|-----------------|-----------------|-----------------||
|-----------------|-----------------|-----------------|---------5-5-5-5-||
|-3-3-3-3-3-3-3-3-|-3-3-3-3-3-3-3-3-|-1---1-1-1-1-1-1-|-0-0-0-0---------||

Riff 2b
|-----------------|-----------------|-----------------|-----------------||
|-----------------|---------3-2-2---|-----------------|-----------------||
|-3---3-3-3-3-3-3-|-3-3-3-3-------3-|-3---3-3-3-3-3-3-|-----------------||
|-----------------|-----------------|-----------------|-3-3-3-3-3-3-3-3-||

Play Riff 2 - 3x
Play Riff 2a
Play Riff 1a
Play Riff 2
Play Riff 2a

Riff 3
|-----------------|-----------------|--|--|-----------------||
|-----------------|-----------------|-3x--|-----------------||
|-5-5-5-5-5-5-5-5-|-----------------|--|--|-5-5-5-5-5-5-5-5-||
|-----------------|-0-0-0-0-0-0-0-0-|--|--|-----------------||

End of Solo
|-----------------|-----------------|-----------------|-----------------||
|-----------------|-----------------|-----------------|-----------------||
|-----R---------R-|-----R---------R-|-----R---------R-|-----------------||
|-3-----3---------|-3-----3---------|-3-----3---------|-3-3-3-3-3-3-3-3-||

Play Riff 2 - 3x
Play Riff 2a
Play Riff 1a
Play Riff 2
Play Riff 2a

Riff 4
|-----------------|----|/7777777777777777||
|-0000000000000000|-7x-|-----------------||
|-----------------|----|-----------------||
|-----------------|----|-----------------||

Play Riff 2 - 3x
Play Riff 2a

Play Riff 1a  ---|
Play Riff 2   ---| 3x
Play Riff 2a  ---|

Play Riff 1a
Play Riff 2

End
|-----------------|-----------------|-----------------|-----------------||
|-----------------|-----------------|-----------------|-----------------||
|-3-3-3-3-3-3-3-3-|-3---------------|(3)--------------|(3)--------------||
|-----------------|-----------------|-----------------|-----------------||


-----------------------------------------------------------------------------


Megadeth-Mary Jane

Intro
|-------------|-------------|-------------|-------------|
|-------------|-------------|-------------|-------------|
|-6-----6-6-6-|-6-----6-6-6-|-4-----4-4-4-|-4-----4-4-4-|
|-------------|-------------|-------------|-------------|

|-------------|-------------|-------------|-------------|
|-------------|-------------|-------------|-------------|
|-2-----2-2-2-|-2-----2-2-2-|-0-----0-0-0-|-0-----0-0-0-|
|-------------|-------------|-------------|-------------|

|-------------|-------------|-------------|-------------||
|-------------|-------------|-------------|-------------||
|-------------|-------------|-------------|-------------||
|-3-----3-3-3-|-3-----3-3-3-|-1-----------|(1)----------||

Intro 2
|-------------|-------------|-------------|-------------|
|-------------|-------------|-------------|-------------|
|-5-----------|-------------|-------------|-1-----------|
|-------------|-1-----------|-0-----------|---------3-1-|

|-------------|-------------|-------------|---------2---||
|-------------|-------------|-------------|---2-3-5---3-||
|---R---------|---R---------|---R-----3-4-|-5-----------||
|-0-------0-1-|-3-------3-5-|-6-----------|-------------||

“Mary Jane”
|-------------|-----|-------------|-------------|-------------|-------------|
|-------------|-10x-|-------------|-------------|-------------|-------------|
|-5-----5-5-5-|-----|-3-----3-3-3-|-2-----2-2-2-|-3-----3-3-3-|-4-----8-8-7-|
|-------------|-----|-------------|-------------|-------------|-------------|

|-------------|-------------|-------------|-------------|
|-------------|-------------|-------------|-----5-3-2-0-|
|-5-----5-5-5-|-3-----3-3-3-|-2-----2-2-2-|-------------|
|-------------|-------------|-------------|-3-----------|

|-------------|-------------|-------------|-------------||
|-------------|-------------|-------------|-------------||
|-3-----3-3-3-|-2-----2-2-2-|-1-----1-1-1-|-----------1-||
|-------------|-------------|-------------|-3-1-0-1-3---||

Riff 1
|-------------|-------------|-------------|-------------|
|-------------|-------------|-----2-2-----|-----2-2-----|
|-------------|-------------|-3-3-----3-3-|-3-3-----3-3-|
|-0-0-0-0-0-0-|-0-0-0-0-0-0-|-------------|-------------|

|-------------|-------------|-------------|-------------|-------------|-------------||4x
|-------------|-------------|-------------|-------------|-------------|---5---------||
|-0-0-0-0-0-0-|-0-0-0-0-0-0-|-1-1-1-1-1-1-|-1---0-------|-------5-7---|-------5-7---||
|-------------|-------------|-------------|---------3---|-0-0-0-----0-|-0---0-----6-||

Riff 2
|-------------|-------------|-------------|-------------|
|-------------|-------------|-------------|-------------|
|-------------|-------------|-------------|-------------|
|-0-0-0-0-0-0-|-0-0-0-0-0-0-|-0-0-0-0-0-0-|-0-0-0-0-0-0-|

|-------------|-------------|-------------|-------------||3x
|-------------|-------------|-------------|-------------||
|-------------|-------------|-------------|-------------||
|-0-0-0-0-0-0-|-0-0-0-0-0-0-|-0-0-0-0-0-0-|-0---0---0---||

Riff 2a
|-------------|-------------|-------------|-------------|
|-------------|-------------|-------------|-------------|
|-------------|-------------|-------------|-------------|
|-0-0-0-0-0-0-|-0-0-0-0-0-0-|-0-0-0-0-0-0-|-0-0-0-0-0-0-|

|-------------|-------------|-------------|-------------||
|-------------|-------------|-------------|-------------||
|-------------|-------------|-------------|---R---------||
|-0-0-0-0-0-0-|-0-0-0-0-0-0-|-0-0-0-0-0-0-|-6---5-------||

Pre-Riff 3
|-----------------|----|-----------------|-----------------|-----------------||
|-----------------|-3x-|-----------------|-----------------|-----------------||
|-----R-------R---|----|-----R-----------|---R-------------|-----------------||
|-0-0-----0-0-----|----|-0-0-----0-0-3-1-|-0---------------|---------565353--||

Riff 3
|-----------------|-----------------|-----------------|-----------------|2x this row
|-----------------|-----------------|-----------------|-----------------|
|---5-6-7---------|-----------------|---5-6-7---------|-----------------|
|-0---------3-3-6-|---5-5-333-111-00|-0---------3-3-6-|---5-5---565353--|

|-----------------|-----------------||
|-----R---R-------|-----------------||
|---3---4-----57--|-------R---------||
|-0---------0-----|-7-5-3---333-111-||

Pre-Riff 4
|-----------------|----|-----------------||
|-----------------|-3x-|-----------------||
|-----R-------R---|----|-----R-----------||
|-0-0-----0-0-----|----|-0-0-----0-0-3-1-||

Riff 4
|-----------------|-----------------||4x
|-----------------|-----------------||
|-------------6-8-|-----------------||
|-0-0-0-0-0-0-----|-0-0-0-0-0-0-3-1-||

Pre-Riff 3
|-----------------|-----------------||
|-----------------|-----------------||
|---R-------------|-----------------||
|-0---------------|---------565353--||

Play Riff 3 [first row 1 time]

Pre-Riff 5
|-----------------||
|-----------------||
|---R-------------||
|-0---------------||

Rest 7 bars

Riff 5
|-----------------|-----------------|-----------------|-----------------||8x
|-----------------|-----------------|-----------------|-----------------||
|-----------------|-----------------|-----------------|-----------------||
|-0-0-0-0-0-0-0-0-|-0-0-0-0-0-0-0-0-|-1-1-1-1-1-1-1-1-|-1-1-1-1-1-1-1---||

Riff 5a
|-----------------|-----------------|-----------------|-----------------||4x
|-----------------|-----------------|-----------------|-----------------||
|-----------------|-----------------|-----------------|-----------------||
|-0-0-0---0-0---0-|---0---0---0-0---|-1-1-1---1-1---1-|---1---1---1-1---||

Riff 6
|-----------------|-----------------|-----------------|-----------------||4x
|-----------------|-----------------|-----------------|-----------------||
|-----------------|-----------------|-----------------|-----------------||
|-0---0-0-0-0-0---|-0---2---3---5---|-7---7-7-7---7-7-|-7-7-7-7-7--6--5-||

Riff 6a
|-----------------|-----------------|-----------------|-----------------||2x
|-----------------|-----------------|-----------------|-----------------||
|-----------------|-----------------|-----------------|-----------------||
|-0---------------|-0---2---3---5---|-7-------7-------|(7)------7--6--5-||

End
|-----------------||
|-----------------||
|-----------------||
|-0---------------||


-----------------------------------------------------------------------------


Megadeth-502

Rest 7 bars

Intro  (spread for readability)
|-----------------------------------------||
|-----------------------------------------||
|-11p10p8p0-11p10p8p0-11p10p8p0-11p10p8p0-||
|-----------------------------------------||

Riff 1
|-----------------|-----------------|-----------------|-----------------||4x
|-----------------|-----------------|-----------------|-----------------||
|-0---000000000300|-3---000000000222|-2---000000000320|-3---320-5---320-||
|-----------------|-----------------|-----------------|-----------------||

Riff 2
|-----------------|-----------------|-----------------|-----------------|
|-4-444-5---4-----|-2---2---2---2---|-----------------|-2---2---22223344|
|-----------------|--432-432-432-432|-----------------|--432-432--------|
|-----------------|-----------------|-2-222-3---2-----|-----------------|

|-----------------|-----------------|-----------------|-----------------|
|-----------------|-----------------|-----------------|-----------------|
|-2222222222222222|-----------------|-----------------|-----------------|
|-----------------|-3333333333333333|-2222222222222222|-3333333355555555|

|-----------------|-----------------|-----------------|-----------------||
|-----------------|-----------------|-----------------|-----------------||
|-2222222222222222|-5555555555555555|-----------------|-2--1--0-2-------||
|-----------------|-----------------|-3333333333333333|------------2--3-||

Play Riff 1 - 4x
Play Riff 2

Pre-Car Crash
|-----------------||
|-----------------||
|-2--1--0-------5-||
|---------2--3----||

Car Crash Riff (fades into obscurity anyway)
|-----------------|-----------------|-----------------|-----------------|3x this
|-----------------|-----------------|-----------------|-----------------|
|-----------------|-----------------|-----------------|-----------------|
|-0000000000000000|-3333333333333333|-2222222222222222|-1111111111111111|

|-----------------|-----------------|-----------------|-----------------|---||
|-----------------|-----------------|-----------------|-----------------|-%-||
|-----------------|-----------------|-----------------|-7--6--5-7-------|-%-||
|-0000000000000000|-3333333333333333|-2222222222222222|------------5--6-|---||

Riff 3
|-----------------|-----------------|-----------------|-----------------|3x this row
|-----------------|-----------------|-----------------|-----------------|
|-0000000000000000|-2222222222222222|-3333333333333333|-555555555--4--3-|
|-----------------|-----------------|-----------------|-----------------|

|-----------------|-----------------|-----------------|-----------------|----||
|-----------------|-----------------|-----------------|-----------------|-4x-||
|-0000000000000000|-2222222222222222|-3333333333333333|-5--4--3-5-------|----||
|-----------------|-----------------|-----------------|------------4--5-|----||

Outro   [let last note ring out]
|-----------------|-----------------|-----------------|-----------------||
|-----------------|-----------------|-----------------|-----------------||
|-----------------|-----------------|-----------------|-----R-----------||
|-3-----------4-5-|-2-----------4-5-|-1-----------4-5-|-0-------0-------||


-----------------------------------------------------------------------------


Megadeth-In My Darkest Hour

Rest 4 bars

Riff 1
|-----------------|-----------------|-----------------|-----------------||2x
|-----------------|-----------------|-2-0-4-0-2-0-----|-----------0-4-0-||
|-----------------|-----------------|-------------2-0-|-------0-2-------||
|-0---------------|(0)----------0-0-|-----------------|-3-2-3-----------||

Riff 2
|-----------------|-----------------|-------------6---|-----------------|
|-----------------|-----------242---|-----------7-----|-----------------|
|---------------2-|-3-------------3-|-4-------------4-|-3-------3-2-0---|
|-0---------------|-----------------|-----------------|-------0-------3-|

|-----------------|-----------------|-----------242---|-----------------|
|-----------------|-----------242---|---------------4-|-----------------|
|---------------2-|-3-------------3-|-4---------------|-3-------3-2-0---|
|-0---------------|-----------------|-----------------|-------0-------3-|

|-----------------|-----------------|-----------------|---------5-4-----||
|-----------------|-----------------|-----------------|-------------7-5-||
|---------3-2-0---|---------3-2-0---|---------3-2-0---|-----------------||
|-0-------------3-|-1-------------3-|-0-------------3-|-1---------------||

Pre-Verse
|-------------|-------------|-------------|-------------|
|-------------|-------------|-------------|-------------|
|-------------|-------------|-------------|-------------|
|-0-----0-0-0-|-0-----0-0-0-|-0-----0-0-0-|-0-----0-0-0-|

|-------------|-------------|-------------|-------------|
|-------------|-------------|-------------|-------------|
|-------------|-------------|-7-7-7-7-7-7-|-7-777-7-5---|
|-0-----0-0-0-|-0-----0-0-0-|-------------|-----------7-|

|-------------|-------------|-------------|-------------|3x this row
|-------------|-------------|-------------|-------------|
|-------------|-------------|-------------|-------5---7-|
|-0-----0-0-0-|-3-----3-3-3-|-3-3-5---5-7-|---7-----7---|

|-------------|-------------|-9-8-7-6-5-4-|-------------||
|-------------|-------------|-------------|-8-7-6-5-4-3-||
|-------------|-------------|-------------|-------------||
|-0-----0-0-0-|-3-----3-3-3-|-------------|-------------||

Riff 3
|-------------|-------------|-------------|-------------|2x this row
|-------------|-------------|-------------|-------------|
|-------------|-----------2-|-3-----------|-3-------2---|
|-0-----0-0-0-|-0-----0-0---|-------0-0-0-|-------0---3-|

|-------------|-------------|-------------|-------------|
|-------------|-------------|-------------|---------4---|
|-------------|---------7-6-|-5-----------|-5---------5-|
|-0-----0-0-0-|-0-----0-----|-------0-0-0-|-------0-----|

|-------------|-------------|-------------|-------------||2x whole riff
|-------------|-------------|-------------|-------------||
|-2-----------|-2-----------|---------0-1-|-2-----------||
|-------0-0-0-|-------0-0-2-|-3-----0-----|-------0-3-2-||

Riff 4
|-------------|-------------|-------------|-------------|2x this row
|-------------|-------------|-------------|-5---4-2420--|
|-------------|---------0-2-|-3---------3-|---3-------4-|
|-0-----0-0-0-|-0-----0-----|-------0-0---|-------------|

|-------------|-------------|-------------|-4---2-020---|
|-------------|-------------|-------------|-----------4-|
|-0-----0-0-0-|-0-----0-3-0-|-2-----0-0-2-|---2---------|
|-------------|-------------|-------------|-------------|

|-------------|-4---2-020---|-------------|-------------|
|-------------|-----------4-|-------------|-------------|
|-0-----0-0-0-|---0---------|-5-5-5-5-5-5-|-5-5-5-5-5-5-|
|-------------|-------------|-------------|-------------|

|-------------|-------------||
|-------------|-------------||
|-5-5-5-5-5-5-|-5---1---0---||
|-------------|-------------||

Riff 3a
|-------------|-------------|-------------|-------------|
|-------------|-------------|-------------|-------------|
|-------------|-----------2-|-3-----------|-3---------3-|
|-0-----0-0-0-|-0-----0-0---|-------0-0-0-|-------0-0---|

|-------------|-------------|-------------|-------------||2x
|-------------|-------------|-------------|-------------||
|-4-----------|-4---------4-|-3-----------|-3-------2---||
|-------0-0-0-|-------0-0---|-------0-0-0-|-------0---3-||

Riff 5
|-------------|-------------|-------------|-------------||4x
|-------------|-------------|-------------|-------------||
|-------------|-5-----------|-------5-----|-------------||
|-0-000-3-5-6-|---6-5-0-000-|-3-5-6---6-5-|-6---5---3---||

Play Riff 3a - 4x

Riff 4a
|-------------|-------------|-------------|-------------| 
|-------------|-------------|-------------|-5---4-2420--|
|-------------|-----------2-|-3---------3-|---3-------4-|
|-0-----------|(0)----------|-------------|-------------|

|-------------|-------------|-------------|-------------|
|-------------|-------------|-------------|-5---4-2420--|
|-------------|-----------2-|-3-----3-3-3-|---3-------4-|
|-0-----0-0-0-|-0-0-0-0-0---|-------------|-------------|

|-------------|-------------|-------------|-------------| 
|-------------|-------------|-------------|-5---4-2420--|
|-------------|-----------2-|-3---------3-|---3-------4-|
|-0-----------|(0)----------|-------------|-------------|

|-------------|-------------|-------------|-------------|-------------|---------------||
|-------------|-------------|-------------|-------------|-------------|---------------||
|-4-4-4-4-4-4-|-4-4-4-4-4-5-|-5-5-5-5-5-5-|-5-5-5-5-5-5-|-5-5-5-5-5-5-|-5---1---0-----||
|-------------|-------------|-------------|-------------|-------------|-------------0-||

Riff 6
|-----------------|-----------------|-----------------|-----------------||2x
|-----------------|-----------------|-----------------|-----------------||
|-----R-----------|-----R-----------|-----R-----------|-----R-----------||
|---0-----------1-|---1-----------2-|---2-----------3-|---3-----------0-||

Riff 6a
|-----------------|-----------------|-----------------|-----------------||4x
|-----------------|-----------------|-----------------|-----------------||
|-----------------|-----------------|-----------------|-----------------||
|---0-0-0-0-0-0-1-|---1-1-1-1-1-1-2-|---2-2-2-2-2-2-3-|---3-3-3-3-3-3-0-||

Riff 7
|-----------------|-----------------|-----------------|-----------------|
|-----------------|-----------------|-----------------|-----------------|
|-----------2---3-|---3-3-3-3-2-1-0-|---0-0-0-0-3-0-2-|---2-2-2-3-5h6-7-|
|---0-0-0-0-------|-----------------|-----------------|-----------------|

|-----------------|-----------------|-----------------|-----------------||3x
|-----------------|-----------------|-----------------|-----------------||
|---7-7-7-7-6-5-3-|---3-3-3-3-2-1-0-|---0-0-0-0-3-0-2-|---0-2-0-2-2-0---||
|-----------------|-----------------|-----------------|---------------0-||

Riff 7a
|-----------------|-----------------|-----------------|-----------------|
|-----------------|-----------------|-----------------|-----------------|
|-----------2---3-|---3-3-3-3-2-1-0-|---0-0-0-0-3-0-2-|---2-2-2-3-5h6-7-|
|---0-0-0-0-------|-----------------|-----------------|-----------------|

|-----------------|-----------------|-----------------|-----------------||
|-----------------|-----------------|-----------------|-----------------||
|---7-7-7-7-6-5-3-|---3-3-3-3-2-1-0-|---0-0-0-0-3-0-2-|---0-2-0-2-1-0-0-||
|-----------------|-----------------|-----------------|-----------------||

Riff 8
|-----------------|-----------------|-----------------|-----------------|7x this row
|-----------------|-----------------|-----------------|-----------------|
|---0-0-0-0-0-0-1-|---0-0-0-0-0-0-3-|---0-0-0-0-0-0-8-|---0-0-7---0-0-0-|
|-----------------|-----------------|-----------------|-----------------|

|-----------------|-----------------|-----------------|-----------------||
|-----------------|-----------------|-----------------|-----------------||
|---0-0-0-0-0-0-1-|---0-0-0-0-0-0-3-|---0-0-0-0-0-0-8-|---0-0-7---0-0---||
|-----------------|-----------------|-----------------|---------------0-||

Play Riff 6a - 2x

Riff 6b
|-----------------|-----------------|-----------------|-----------------|
|-----------------|-----------------|-----------------|-----------------|
|-----------------|-----------------|-----------------|-----------------|
|---0-0-0-0-0-0-1-|---1-1-1-1-1-1-2-|---2-2-2-2-2-2-3-|---3-3-3-3-3-3-4-|

|-----------------|-----------------|-----------------|-----------------||
|-----------------|-----------------|-----------------|-----------------||
|-----------------|-----------------|-----------------|-----------------||
|---4-4-4-4-4-4-5-|---5-5-5-5-5-5-6-|---6-6-6-6-6-6-7-|---7-7-7-7-3-5-0-||

Play Riff 1 - 3x

End
|-----------------|-----------------|-----------------||
|-----------------|-----------------|-----------------||
|-----------------|-----------------|-----R-----------||
|-0---------------|(0)--------------|-0---------------||


-----------------------------------------------------------------------------


Megadeth-Liar

Rest 16 bars

Intro
|-----------------|-----------------||
|-------------R---|-R---R---R---R---||
|---------------1-|---1---1---1---1-||
|-----------------|-----------------||

Riff 1
|-----------------|-----------------|-----------------|-----------------|
|-----------------|-----------------|-----------------|-----------------|
|-0---0-0-0-0-0-1-|-------1-0---0---|-0---0-0-0-0-0-1-|-------1-0-------|
|-----------------|---3-------3-----|-----------------|---3-------------|

|-----------------|-----------------|-----------------|-----------------|
|-----------------|-----------------|-----------------|-R---R---R---R---|
|-0---0-0-0-0-0-1-|-------1-0---0---|-0---0-0-0-0-0-7-|---6---5---4---3-|
|-----------------|---3-------3-----|-----------------|-----------------|

|-----------------||
|-R---R---R-------||
|---2---1-------1-||
|-----------3-3---||

Riff 2
|-----------------|-----------------|-----------------|-----------------|7x this row
|-----------------|-----------------|-----------------|-----------------|
|-----------------|-----------------|-----------------|-----------------|
|-3-5-5-5-5-5-5-8-|---7---6---3-3-6-|-3-5-5-5-5-5-5-8-|---7---6---------|

|-----------------|-----------------|-----------------|-----------------| 
|-----------------|-----------------|-----------------|-R---R---R---R---|
|-----------------|-----------------|---------------7-|---6---5---4---3-|
|-3-5-5-5-5-5-5-8-|---7---6---3-3-6-|-3-5-5-5-5-5-5---|-----------------|

|-----------------||
|---R---R---R---R-||
|-2---1---1---1---||
|-----------------||

Riff 1a
|-----------------|-----------------|-----------------|-----------------|
|-----------------|-----------------|-----------------|-----------------|
|-0---0-0-0-0-0-1-|-------1-0---0---|-0---0-0-0-0-0-1-|-------1-0-------|
|-----------------|---3-------3-----|-----------------|---3-------------|

|-----------------|-----------------|-----------------|-----------------||
|-----------------|-----------------|-----------------|-R---R---R---R---||
|-0---0-0-0-0-0-1-|-------1-0---0---|-0---0-0-0-0-0-1-|---1---1---1---1-||
|-----------------|---3-------3-----|-----------------|-----------------||

Play First Row of Riff 2 - 4x

Riff 3
|-----------------|-----------------|-----------------|-----------------|3x this row 
|-----------------|-----------------|-----------------|-----------------|
|-----------------|-----------------|---------------5-|-------5-4tr5----|
|-5-5-5-5-5-5-5-6-|---3---6-5-3-5---|-5-5-5-5-5-5-5---|---6-------------|

|-----------------|-----------------|-----------------|-----------------| 
|-----------------|-----------------|-----------------|-R---R---R---R---|
|-----------------|-----------------|---------------7-|---6---5---4---3-|
|-5-5-5-5-5-5-5-6-|---3---6-5-3-5---|-5-5-5-5-5-5-5---|-----------------|

|-----------------||
|---R---R---R---R-||
|-2---1---1---1---||
|-----------------||

Riff 4
|-----------------|-----------------|-----------------|-----------------||12x
|-----------------|-----------------|-0-2-------------|-----------------||
|-----------------|-----------------|-----------------|---------7-6-5---||
|-3-5-5-5-5-5-2-3-|-2-2-2-2-0-1-1-1-|-----0-0-3-0-0-1-|---0-0-0---------||

Re-Intro
|-----------------|-----------------|-----------------|-----------------|
|-----------------|-----------------|-----------------|-----------------|
|-----R-----------|-----------------|-----------------|-----------------|
|-5---------------|-----------------|-----------------|-----------------|

|-----------------|-----------------|-----------------|-----------------||
|-----------------|-----------------|-----------------|-R---R---R---R---||
|-----------------|-----------------|---------------1-|---1---1---1---1-||
|-----------------|-----------------|-----------------|-----------------||

Outro
|-----------------|-----------------|-----------------|-----------------|
|-----------------|-----------------|-----------------|-----------------|
|-0---0-0-0-0-0-1-|-------1-0---0---|-0---0-0-0-0-0-1-|-------1-0-------|
|-----------------|---3-------3-----|-----------------|---3-------------|

|-----------------|-----------------|-----------------|-----------------|
|-----------------|-----------------|-----------------|-R---R---R---R---|
|-0---0-0-0-0-0-1-|-------1-0---0---|-0---0-0-0-0-0-7-|---6---5---4---3-|
|-----------------|---3-------3-----|-----------------|-----------------|

|-----------------|-----------------|-----------------||
|-R---R---R---R---|-R---R---R---R---|---R-------------||
|---2---1---1---1-|---1---1---1---1-|-0---------------||
|-----------------|-----------------|-----------------||


-----------------------------------------------------------------------------


Megadeth-Hook In Mouth

Riff 1
|-----------------|-----------------||
|-----------------|-----------------||
|-R-------R-------|-R-------R-------||
|---6-3-5---6-5-3-|---6-3-5---6-5-3-||

Riff 2
|-----------------|-----------------|-----------------|-----------------||4x
|-----------------|-----------------|-----------------|-----------------||
|-----------------|-----------------|-----------------|-----------------||
|-5600003500000023|-000-000-000-000-|-000-000-000-000-|-000-000-000-000-||

Riff 2a
|-----------------|-----------------|--|--|-----------------|-----------------||
|-----------------|-----------------|-3x--|-----------------|-----------------||
|-----------------|-----------------|--|--|-----------------|---------R-------||
|-5600003500000023|-000-000-000-000-|--|--|-5600003500000023|-0-6-3-5---6-5-3-||

Riff 3
|-----------------|-----------------|-----------------|-----------------||4x
|-----------------|-----------------|-----------------|-----------------||
|-----------------|-----------------|-----------------|-----------------||
|-560-0-350-0-0-23|-0-0-0-0-0-0-0-0-|-560-0-350-0-0-23|-0-6-3-5-0-6-5-3-||

Riff 1a
|-----------------|-----------------||2x
|-----------------|-----------------||
|-----------------|-----------------||
|-0-6-3-5-0-6-5-3-|-0-6-3-5-0-6-5-3-||

Riff 4
|-----------------|-----------------|-----------------|-----------------|3x this row
|-----------------|-----------------|-----------------|-----------------|
|-----------------|-----------------|-----------------|-----------------|
|-5600006700000000|-7800008900000000|-000-000-000-000-|-0-6-3-5-0-6-5-3-|

|-----------------|-----------------||
|-----------------|-----------------||
|-----------------|-----------------||
|-5600006700000000|-7800008900000000||

Riff 5   [it's a long one]                    |[spread for readability]
|-----------------|---------|-----------------|---------------------|
|-----R---R-------|---------|-----------------|-353-202-------------|
|-7-7---7-----R---|-R---R---|-----------------|---------5353-2121---|
|-----------8---7-|---3---00|-1---------------|-------------------32|

|-----------------|-----------------|--|--|-----------------|-----------------|--|--|
|-----------------|-----------------|-4x--|-----------------|-----------------|-4x--|
|-----------------|-----------------|--|--|-----------------|-----------------|--|--|
|-000-000-000-000-|-000-000-000-01--|--|--|-000000000000001-|-000000000000001-|--|--|

|-----------------|-----------------|-----------------|-----------------|
|-----------------|-----------------|-----------------|-----------------|
|-----------------|-----------------|-----------------|-----------------|
|-333-333-333-333-|-111-111-111-111-|-000-000-000-000-|-000-000-000-000-|

|-----------------|-----------------|-----------------|-----------------|
|-----------------|-----------------|-----------------|-----------------|
|-----------------|-----------------|-----------------|-7---R---R---R---|
|-333-333-333-333-|-111-111-333-111-|-000-000-000-000-|---8---7---3---0-|

|-----------------|-----------------|-----------------|-----------------|
|-----------------|-----------------|-----------------|-----------------|
|-----------------|-----------------|-----------------|-----------------|
|-333-333-333-333-|-111-111-111-111-|-000-000-000-000-|-000-000-000-000-|

|-----------------|-----------------||2x
|-----------------|-----------------||
|-----------------|-----------------||
|-333-333-333-333-|-111-111-333-111-||

Riff 5a
|-----------------|-----------------|-----------------|-----------------|
|-----R---R-------|-----------------|-----------------|-----------------|
|-7-7---7-----R---|-R---R-----------|-----------------|-----------------|
|-----------8---7-|---3---001----\\\|-333-333-333-333-|-111-111-111-111-|

|-----------------|-----------------|-----------------|-----------------|
|-----------------|-----------------|-----------------|-----------------|
|-----------------|-----------------|-----------------|-----------------|
|-000-000-000-000-|-000-000-000-000-|-333-333-333-333-|-111-111-333-111-|

|-----------------|-----------------|-----------------|-----------------|
|-----------------|-----------------|-----------------|-----------------|
|-----------------|-7---R---R---R---|-----------------|-----------------|
|-000-000-000-000-|---8---7---3---0-|-333-333-333-333-|-111-111-111-111-|

|-----------------|-----------------|-----------------|-----------------||
|-----------------|-----------------|-----------------|-----------------||
|-----------------|-----------------|-----------------|-----------------||
|-000-000-000-000-|-000-000-000-000-|-333-333-333-333-|-111-111-333-111-||

Riff 5a                                       |[spread for readability]
|-----------------|---------|-----------------|---------------------||
|-----R---R-------|---------|-----------------|-353-202-------------||
|-7-7---7-----R---|-R-------|-----------------|---------5353-2121---||
|-----------8---7-|---3---00|-1---------------|-------------------23||

Play Riff 2a
Play Riff 3 – 4x
Play Riff 1a – 2x

End
|-----------------|-----||
|-----------------|-----||
|-----------------|-----||
|-0-6-3-5-0-6-5-3-|-0---||



Gotta love all those gallops.
comments
We did not receive enough feedback on this tab! Please rate:
print report bad tab
1 2 3 4 5
I want to post or [tab]
guest
You may want to rate the tab now too:
select rating
Please do not post tabs as comments. Select "correction" instead!