Oops, an error
Loading. Please wait.

So Far So Good So What Tab

13,575 views 47 this week
no commentswrite comment
1 2 3 4 5
excellent!
x 5
add to favorites launch autoscroll
font size
0
reset
Autoscroll
+/-
esc
set tempo
stop
Contributor
WARNING: You are trying to view
                                    content from Ultimate-Guitar.com
                                    in an unauthorized application,
                                    which is prohibited.

                                    Please use an official Ultimate
                                    Guitar Tabs application for iPhone,
                                    iPad or Android to access legitimate
                                    chords, guitar, bass, and drum tabs
                                    from Ultimate-Guitar.com database.

                                    Type "ultimate guitar tabs" in Apple
                                    App Store's or Android Market's
                                    search to find the application.
Band- Megadeth
Album- So Far,So Good...So What!

1.INTO THE LUNGS OF HELL

Tuning: Standard


Riff 1
Guitar 1 (12-string Acoustic)
e|---------------------------|
B|-2------2------------------|
G|-2--------2---1------1-----|
D|-2----2-----2-2--------2---|
A|-0------------2----2-----2-|
E|--------------0------------|

e|-------------------------------|
B|-------------------------------|
G|-------------------------------|
D|-1------1----------------------|
A|-2--------2---1------1---1---1-|
E|-2----2-----2-2--222-2-2-2-2-2-|
                   ***   *   *
e|---------------------------|
B|-5------5------------------|
G|-5--------5----------4-----|
D|-5----5-----5-5--------5---|
A|-3------------5----5-----5-|
E|--------------3------------|

e|-------------------------------|
B|-------------------------------|
G|-------------------------------|
D|-4------4----------------------|
A|-5--------5---4------4---4---4-|
E|-5----5-----5-5--555-5-5-5-5-5-|
                   ***   *   *



Guitar 2 (Distortion)
e|-----------------------|
B|-----------------------|
G|-----------------------|
D|-2---------------------|
A|-0----x-x-x-2----x-x-x-|
E|------x-x-x-0----x-x-x-|

e|-----------------------------|
B|-----------------------------|
G|-----------------------------|
D|-----------------------------|
A|-2----x-x-x-1--xxx-1-x-1-x-1-|
E|-2----x-x-x-2--xxx-2-x-2-x-2-|
                     *   *   *
e|-----------------------|
B|-----------------------|
G|-----------------------|
D|-5---------------------|
A|-3----x-x-x-5----x-x-x-|
E|------x-x-x-3----x-x-x-|

e|-----------------------------|
B|-----------------------------|
G|-----------------------------|
D|-----------------------------|
A|-5----x-x-x-4--xxx-4-x-4-x-4-|
E|-5----x-x-x-5--xxx-5-x-5-x-5-|
                     *   *   *


Riff 2 (Distortion, flange)
e|---------------------------------|
B|---------------------------------|
G|---------------------------------|
D|-8--------8-10-8-----------------|
A|-6--6-6-6-6--8-6--8--------8-7-6-|
E|------------------6--6-6-6-6-5-4-|
      * * *            * * *
e|--------------------------------|
B|--------------------------------|
G|--------------------------------|
D|-6--------6-8-6-----------------|
A|-4--4-4-4-4-6-4--6--------6-5-4-|
E|-----------------4--4-4-4-4-3-2-|
      * * *           * * *
e|--------------------------------|
B|--------------------------------|
G|--------------------------------|
D|-4--------4-6-4-----------------|
A|-2--2-2-2-2-4-2--4--------4-3-2-|
E|-----------------2--2-2-2-2-1-0-|
      * * *           * * *
e|---------------------------------------|
B|---------------------------------------|
G|---------------------------------------|
D|-2--------2-4-2-----------2-1-0--------|
A|-0--0-0-0-0-2-0--2--------2-1-0--7-6-5-|
E|-----------------0--0-0-0--------5-4-3-|
      * * *           * * *


Riff 3 (Solo Rhythm)       x3
e|--------------------------|
B|--------------------------|
G|--------------------------|
D|--------------------------|
A|--------------------------|
E|-000000000000000000000000-|
   ************************
e|--------------------------|
B|--------------------------|
G|--------------------------|
D|--------------------------|
A|--------------------------|
E|-111111111111111111111111-|
   ************************
e|--------------------------|
B|--------------------------|
G|--------------------------|
D|--------------------------|
A|--------------------------|
E|-000000000000000000000000-|
   ************************
e|--------------------------|
B|--------------------------|
G|--------------------------|
D|--------------------------|
A|--------------------------|
E|-111111111111111111111111-|
   ************************
e|--------------------------|
B|--------------------------|
G|--------------------------|
D|--------------------------|
A|--------------------------|
E|-000000000000000000000000-|
   ************************
e|--------------------------|
B|--------------------------|
G|--------------------------|
D|--------------------------|
A|--------------------------|
E|-111111111111111111111111-|
   ************************


Solo (Mustaine)
e|-------------------------------------|
B|-------------------------------------|
G|-------------------------------------|
D|-------------------------------------|
A|----------12----------------12-------|
E|-12-16-12----16-13-12-16-12----16-13-|

e|----------------------------------|
B|----------------------------------|
G|----------------------------------|
D|----------------------------------|
A|----------12----------------12----|
E|-12-16-12----16-13-12-16-12----16-|

e|-------------------------------------|
B|-------------------------------------|
G|-------------------------------------|
D|-------------------------------------|
A|-14-12-15-14-17-15-14-12-15-14-17-15-|
E|-------------------------------------|

e|-------------------------------------|
B|-------------------------------------|
G|-------------------------------------|
D|-------------------------------------|
A|-14-12-15-14-17-15-14-12-15-14-17-15-|
E|-------------------------------------|

e|-------------------------------------|
B|-------------------------------------|
G|-------------13----14-13-16-14-17-16-|
D|-14-12-15-14----15-------------------|
A|-------------------------------------|
E|-------------------------------------|

e|-------------------------17-16-19-17-19b21-19b21~-|
B|-15-13-17-15-18-13-15-18--------------------------|
G|--------------------------------------------------|
D|--------------------------------------------------|
A|--------------------------------------------------|
E|--------------------------------------------------|

e|-20-20p19p17-19p17\13p12p10--------------------------|
B|---------------------------13p12p10\-----------------|
G|-------------------------------------10p9p7-------9~-|
D|-------------------------------------------10p9p7----|
A|-----------------------------------------------------|
E|-----------------------------------------------------|

e|-----------------------------------------|
B|--------9-10-12-10-9---------------------|
G|-7-9-10--------------10-7-9-10-7-9-10-10-|
D|-----------------------------------------|
A|-----------------------------------------|
E|-----------------------------------------|

e|--------------------------------------|
B|--------------------------------------|
G|--------------------------------------|
D|-------6-7-6---6-7-9-7-6-----6--------|
A|-5-7-8-------8-----------8-7---8-5-7--|
E|--------------------------------------|

e|----------------------------|
B|----------------------------|
G|----------------------------|
D|----------------------------|
A|----------------------------|
E|-7-8--8-7-5-7-5--4--5--7--8-|

e|---------------------------------------|
B|---------------------------------------|
G|---------------------------------------|
D|-6-7-8-7-6-----------------------------|
A|-----------8-7-----------2-------------|
E|---------------5-4-7-5-4-0-[long hold]-|

End Solo


Riff 4
e|--------------------3----------|
B|--------------------3----------|
G|--------------------0----------|
D|-9-----------------------------|
A|-7----2----5-------------5-4-3-|
E|------0----3----333------3-2-1-|
                  ***      * * *

Play Riff 4   Solo Rhythm

Solo (Mustaine, starts with a pick slide)

(Remix/Remaster edition solo)
                              x2
e|-24p0---24p0---24p0---24p0---|
B|------0------0------0------0-|
G|-----------------------------|
D|-----------------------------|
A|-----------------------------|
E|-----------------------------|
                              x2
e|-22p0---22p0---22p0---22p0---|
B|------0------0------0------0-|
G|-----------------------------|
D|-----------------------------|
A|-----------------------------|
E|-----------------------------|

e|-20p0---19p0---17p0---20p0---|
B|------0------0------0------0-|
G|-----------------------------|
D|-----------------------------|
A|-----------------------------|
E|-----------------------------|

e|-19p0---17p0---15p0---14p0---|
B|------0------0------0------0-|
G|-----------------------------|
D|-----------------------------|
A|-----------------------------|
E|-----------------------------|
                              x2
e|-12p0---12p0---12p0---12p0---|
B|------0------0------0------0-|
G|-----------------------------|
D|-----------------------------|
A|-----------------------------|
E|-----------------------------|


(Original studio CD solo)
                                  x2
e|-24t12p7-24t12p7-24t12p7-24t12p7-|
B|---------------------------------|
G|---------------------------------|
D|---------------------------------|
A|---------------------------------|
E|---------------------------------|
                                  x2
e|-22t12p7-22t12p7-22t12p7-22t12p7-|
B|---------------------------------|
G|---------------------------------|
D|---------------------------------|
A|---------------------------------|
E|---------------------------------|

e|-20t12p7-19t12p7-17t12p7-20t12p7-|
B|---------------------------------|
G|---------------------------------|
D|---------------------------------|
A|---------------------------------|
E|---------------------------------|

e|-19t12p7-17t12p7---------------|
B|-----------------20t5p0-19t5p0-|
G|-------------------------------|
D|-------------------------------|
A|-------------------------------|
E|-------------------------------|
                              x2
e|-----------------------------|
B|-17t5p0-17t5p0-17t5p0-17t5p0-|
G|-----------------------------|
D|-----------------------------|
A|-----------------------------|
E|-----------------------------|


End Solo


Riff 5
Guitar 1                  x2
e|-------------------------|
B|-------------------------|
G|-------------------------|
D|----------------5----4-5-|
A|-7----3----7----3----2-3-|
E|-5----1----5-------------|

e|------------------------------|
B|------------------------------|
G|------------------------------|
D|------5------5------5-7-5-4-5-| --|
A|-7----3-5----3-4----3-5-3-2-3-|   |
E|-5------3------2--------------|   |
                                    |
e|----------------------------|     |--> Play 2x
B|----------------------------|     |
G|----------------------------|     |
D|------5------5------5-7--9--| ----|
A|-7----3-5----3-4----3-5--7--|
E|-5------3------2------5--7--|

Guitar 2                  x2
e|-------------------------|
B|-------------------------|
G|----------------5----4-5-|
D|-7---------7-------------|
A|------8------------------|
E|-------------------------|

e|------------------------------|
B|------------------------------|
G|------5------5------5-7-5-4-5-|
D|-7------5------4--------------| --|
A|------------------------------|   |
E|------------------------------|   |
                                    |
e|----------------------------|     |--> Play 2x
B|----------------------------|     |
G|------5------5------5-------|     |
D|-7------5------4------0--2--| ----|
A|----------------------------|
E|----------------------------|


Guitar 3                                         x12
e|-8t5p0-7t5p0-8t5p0-7t5p0-8t5p0-7t5p0-8t5p0-7t5p0-|
B|-------------------------------------------------|
G|-------------------------------------------------|
D|-------------------------------------------------|
A|-------------------------------------------------|
E|-------------------------------------------------|



Riff 5a
Guitar 1
e|------------------------------|
B|------------------------------|
G|------------------------------|
D|------7------7------7-9-7-6-7-|
A|-9----5-7----5-6----5-7-5-4-5-|
E|-7------5------4--------------|
e|-----------------------------|
B|-----------------------------|
G|-----------------------------|
D|------7------7------7-9--11--|
A|-9----5-7----5-6----5-7---9--|
E|-7------5------4------7---9--|

Guitar 2
e|------------------------------|
B|------------------------------|
G|------7------7------7-9-7-6-7-|
D|-9------7------6--------------|
A|------------------------------|
E|------------------------------|

e|-----------------------------|
B|-----------------------------|
G|------7------7------7--------|
D|-9------7------6-------------|
A|----------------------7---9--|
E|-----------------------------|

Guitar 3                                              x4
e|-10t7p0-9t7p0-10t7p0-9t7p0-10t7p0-9t7p0-10t7p0-9t7p0-|
B|-----------------------------------------------------|
G|-----------------------------------------------------|
D|-----------------------------------------------------|
A|-----------------------------------------------------|
E|-----------------------------------------------------|

End Solo


Riff 6
Guitar 1
e|-------------------------------|
B|-------------------------------|
G|-------------------------------|
D|-12------11------12------11----|
A|-10-------9------10-------9----|
E|-------------------------------|

e|-------------------------------|
B|-------------------------------|
G|-------------------------------|
D|-------------------------------|
A|-8--------7-------8-------7----|
E|-6--------5-------6-------6----|

e|-------------------------------|
B|-------------------------------|
G|-------------------------------|
D|-------------------------------|
A|-11------10------11------10----|
E|--9-------8-------9-------8----|

e|-------------------------------------------------|
B|-------------------------------------------------|
G|-------------------------------------------------|
D|-------------------------------------------------|
A|-11----10----11----10----11-10-11-10-11-10-11-10-|
E|--9-----8-----9-----8-----9--8--9--8--9--8--9--8-|


Guitar 2
e|--------------------------------------|
B|--------------------------------------|
G|-12------11------12------14--12-11----|
D|--------------------------------------|
A|--------------------------------------|
E|--------------------------------------|

e|--------------------------------------|
B|--------------------------------------|
G|-15------14------15------17--15-14----|
D|--------------------------------------|
A|--------------------------------------|
E|--------------------------------------|

e|-------------------------------|
B|-14------13------14------13----|
G|-------------------------------|
D|-------------------------------|
A|-------------------------------|
E|-------------------------------|

e|-------------------------------------------------|
B|-14----13----14----13----14-13-14-13-14-13-14-13-|
G|-------------------------------------------------|
D|-------------------------------------------------|
A|-------------------------------------------------|
E|-------------------------------------------------|


Guitar 3 (Original studio version only)
                              x4
e|-12t9p6-12t9p6-12t9p6-12t9p6-|
B|-----------------------------|
G|-----------------------------|
D|-----------------------------|
A|-----------------------------|
E|-----------------------------|
                                  x4
e|-15t12p9-15t12p9-15t12p9-15t12p9-|
B|---------------------------------|
G|---------------------------------|
D|---------------------------------|
A|---------------------------------|
E|---------------------------------|
                                      x8
e|-18t15p12-18t15p12-18t15p12-18t15p12-|
B|-------------------------------------|
G|-------------------------------------|
D|-------------------------------------|
A|-------------------------------------|
E|-------------------------------------|

Guitar 4 (Remix/Remaster edition only)
                                  x4
e|-15t12p0-15t12p0-15t12p0-15t12p0-|
B|---------------------------------|
G|---------------------------------|
D|---------------------------------|
A|---------------------------------|
E|---------------------------------|
                                  x4
e|-18t15p0-18t15p0-18t15p0-18t15p0-|
B|---------------------------------|
G|---------------------------------|
D|---------------------------------|
A|---------------------------------|
E|---------------------------------|
                                  x8
e|-21t18p0-21t18p0-21t18p0-21t18p0-|
B|---------------------------------|
G|---------------------------------|
D|---------------------------------|
A|---------------------------------|
E|---------------------------------|



Ending
e|------------------------|
B|------------------------|
G|------------------------|
D|----------------8----7--|
A|-4----3----2----6----5--|
E|-2----1----0----6----5--|

2.SET THE WORLD AFIRE

Tuning: Standard


Riff 1
Guitar 1                               x3
e|--------------------------------------|
B|--------------------------------------|
G|--------------------------------------|
D|--------------------10\9-10\9-10-10\9-|
A|---------------------8\7--8\7--8--8\7-|
E|-0-0-0-0-0-0-0-0-...------------------|
   * * * * * * * *
e|-------------------------|
B|-------------------------|
G|-------------------------|
D|---------------------7-8-|
A|---------------------5-6-|
E|-0-0-0-0-0-0-0-0-...-----|
   * * * * * * * *

Guitar 2               x3
e|----------------------|
B|----------------------|
G|----------------------|
D|----------------------|
A|----------------------|
E|-0-0-0-0-0-0-0-0-...--|
   * * * * * * * *
e|-------------------------|
B|-------------------------|
G|-------------------------|
D|---------------------7-8-|
A|---------------------5-6-|
E|-0-0-0-0-0-0-0-0-...-----|
   * * * * * * * *


Riff 2
e|---------------------------------|
B|---------------------------------|
G|---------------------------------|
D|-9------------------10\9-10\9-10-|
A|-7------2------------8\7--8\7--8-|
E|---0000-0-000000000--------------|
     ****   *********
e|----------------------------|
B|----------------------------|
G|----------------------------|
D|-10\9-------------------7-8-|
A|--8\7------2------------5-6-|
E|------0000-0-0000000000-----|
        ****   **********


Riff 3                                           x3
e|------------------------------------------------|
B|------------------------------------------------|
G|------------------------------------------------|
D|-------------------9-9--------------------12-12-|
A|-------------------7-7--------------------10-10-|
E|-0-0-0-5-6-7-0-0-0------0-0-0-5-6-7-0-0-0-------|
   * * * * * * * * *      * * * * * * * * *
e|-----------------------------------------------|
B|-----------------------------------------------|
G|-----------------------------------------------|
D|-------------------9-9--------12-12--------7-7-|
A|-------------------7-7--------10-10--------5-5-|
E|-0-0-0-5-6-7-0-0-0------0-0-0--------0-0-0-----|
   * * * * * * * * *      * * *        * * *

Final time
e|---------------------------------------------|
B|---------------------------------------------|
G|---------------------------------------------|
D|-------------------9-9--------12-12--------7-|
A|-------------------7-7--------10-10--------5-|
E|-0-0-0-5-6-7-0-0-0------0-0-0--------0-0-0---|
   * * * * * * * * *      * * *        * * *


Riff 4                         x3
e|------------------------------|
B|------------------------------|
G|------------------------------|
D|-9----------------------------|
A|-7------10------9------8------|
E|----000--8--000-7--000-6--000-|
      ***     ***    ***    ***
e|--------------------------|
B|--------------------------|
G|--------------------------|
D|-9---------------------9--|
A|-7------10------9------7--|
E|----000--8--000-7--000----|
      ***     ***    ***

Riff 5
e|------------------------------------|
B|------------------------------------|
G|-7-----------------10-9---7---------|
D|-5-----9-----7------8-7---5---2p0---|
A|-------7-----5--------------------0-|
E|---0-0---0-0---0-0------0---0-------|
     * *   * *   * *      *   *     *
e|----------------------------|
B|----------------------------|
G|-7--------------------------|
D|-5-----9-----7-----4--3--2--|
A|-------7-----5-----2--1--0--|
E|---0-0---0-0---0-0----------|
     * *   * *   * *

Play Riff 5  "Red flash..."


Riff 6
e|---------------------------------|
B|---------------------------------|
G|---------------------------------|
D|-5-5-5-4-4-4---------------------|
A|-3-3-3-2-2-2-5-5-5-4-4-4-4-4-4-4-|
E|-------------3-3-3-2-2-2-2-2-2-2-|
   * * * * * * * * * * * * * * * *
e|---------------------------------|
B|---------------------------------|
G|---------------------------------|
D|-7-7-7-------------9-9-9-5-5-4-4-|
A|-5-5-5-8-8-8-7-7-7-7-7-7-3-3-2-2-|
E|-------6-6-6-5-5-5---------------|
   * * * * * * * * * * * * * * * *
e|--------------------------------|
B|--------------------------------|
G|--------------------------------|
D|-5-5-5-4-4-4--------------------|
A|-3-3-3-2-2-2-5-5-5-4-4-4-4-4-4\-|
E|-------------3-3-3-2-2-2-2-2-2\-|
   * * * * * * * * * * * * * *


Riff 7                          x3
e|-------------------------------|
B|-------------------------------|
G|-------------------------------|
D|-----3-----2h3-2-----3-----3-3-|
A|-----3-----2h3-2-----3-----3-3-|
E|-0-0---0-0-------0-0---0-0-----|
   * *   * *       * *   * *
   "Distored figures..."
e|-----------------|
B|-----------------|
G|-----------------|
D|-----3-----2h3-2-|
A|-----3-----2h3-2-|
E|-0-0---0-0-------|
   * *   * *
   "...have grown to vines..."
e|--------------12-16-12--------------|
B|------------12--------12------------|
G|----------13------------13----------|
D|--------14----------------14--------|
A|------14--------------------14------|
E|-12-16------------------------16-12-|
                                x3
e|-------------------------------|
B|-------------------------------|
G|-------------------------------|
D|-----3-----2h3-2-----3-----3-3-|
A|-----3-----2h3-2-----3-----3-3-|
E|-0-0---0-0-------0-0---0-0-----|
   * *   * *       * *   * *
   "Bodies melted..."
e|----------------------|
B|----------------------|
G|----------------------|
D|-----3-----2h3-2------|
A|-----3-----2h3-2------|
E|-0-0---0-0--------X\\-|
   * *   * *
   "...it's too late..."


Riff 8
e|---------------------------------|
B|---------------------------------|
G|--------------------6-5----------|
D|--------------------4-3-6--9-7-6-|
A|-22222222-55555555------4--7-5-4-|
E|---------------------------------|
   ******** ********
   "The arsenal of megadeath..."
e|---------------------------------|
B|---------------------------------|
G|---------------------------------|
D|--------------------4-2----2-4-5-|
A|-00000000-33333333--2-0-4--0-2-3-|
E|------------------------2--------|
   ******** ********
   "...if it comes the living..."
e|-------------------------------|
B|-------------------------------|
G|-------------------------------|
D|-------------------------3-2-0-|
A|--------------5/8--4--7--3-2-0-|
E|-333333333333-3/6--2--5--------|
   ************
   "Racing for power..."


Riff 9
e|-------------------------------------|
B|-------------------------------------|
G|-------------------------------------|
D|-4----4p2----4-----5--4--------2---5-|
A|-2-22----5p2-2-222-3--2-222222-0-2-3-|
E|---------------------------------0---|
     **          ***      ******
   "...last..."
e|-------------------------------------|
B|-------------------------------------|
G|-------------------5-----------------|
D|-4----4p2----4-----3--4--------2---5-|
A|-2-22----5p2-2-222-3--2-222222-0-2-3-|
E|---------------------------------0---|
     **          ***      ******
   "...first stone cast..."


Play Riff 8   "No one will be left..."


Interlude:
Guitar 1
e|----------------------------------------|
B|----------------------------------------|
G|----------------------------------------|
D|--4--------4--------4--------4----4-3-2-|
A|--2--------2--------2--------2----2-1-0-|
E|----------------------------------------|

Guitar 2
e|--------------------------|
B|-[5]6r5-5p3---3-----------|
G|------------4---4p2---2-4-|
D|--------------------4-----|
A|--------------------------|
E|--------------------------|

e|-------------------------------------------|
B|-------------------------------------------|
G|-2h4p2-------------------------------------|
D|-------4-3-2-0------------------4----4-3-2-|
A|---------------2-5-2-1-0--------2----2-1-0-|
E|-------------------------3^-0-3------------|



Riff 10
e|---------------------------------|
B|---------------------------------|
G|---------------------------------|
D|-------------------------2---5-4-|
A|------4-------5-------4--0-2-3-2-|
E|-2222-2--3333-3--2222-2----0-----|
   ****    ****    ****
   "Too bad we couldn't..."
e|--------------------------------|
B|--------------------------------|
G|--------------------------------|
D|-------------------------2---5--|
A|------4-------5-------4--0-2-3--|
E|-2222-2--3333-3--2222-2----0----|
   ****    ****    ****
   "This lethal..."



Riff 11 (Solo Rhythm)
e|---------------------------------|
B|---------------------------------|
G|---------------------------------|
D|-------------------------5---8-7-|
A|------7-------8-------7--3-5-6-5-|
E|-5555-5--6666-6--5555-5----3-----|
   ****    ****    ****
e|--------------------------------|
B|--------------------------------|
G|--------------------------------|
D|-------------------------5---8--|
A|------7-------8-------7--3-5-6--|
E|-5555-5--6666-6--5555-5----3----|
   ****    ****    ****


Riff 12 (Solo Rhythm)                    x3
e|----------------------------------------|
B|----------------------------------------|
G|----------------------------------------|
D|----------------------------------------|
A|----------------------------00-11-22-33-|
E|-22222222-33333333-22222222-------------|
   ******** ******** ******** ** ** ** **
e|-------------------------------------|
B|-------------------------------------|
G|-------------------------------------|
D|-------------------------------------|
A|-------------------------------------|
E|-22222222-33333333-44444444-55555555-|
   ******** ******** ******** ********


Play Riff 5   Solo Rhythm


Solo (Mustaine)
e|-------------------------------------|
B|-------------------------------------|
G|-------------------------------------|
D|-------------------------------------|
A|-------------------------------------|
E|-------------------------------------|

e|-------------------------------------|
B|-------------------------------------|
G|-------------------------------------|
D|-------------------------------------|
A|-------------------------------------|
E|-------------------------------------|

e|-------------------------------------|
B|-------------------------------------|
G|-------------------------------------|
D|-------------------------------------|
A|-------------------------------------|
E|-------------------------------------|

e|-------------------------------------|
B|-------------------------------------|
G|-------------------------------------|
D|-------------------------------------|
A|-------------------------------------|
E|-------------------------------------|

End Solo


Play Riff 5   "Dig deep..."

Riff 6a
e|--------------------------------|
B|--------------------------------|
G|--------------------------------|
D|-5-5-5-4-4-4--------------------|
A|-3-3-3-2-2-2-5-5-5-4-4-4-4-4-4\-|
E|-------------3-3-3-2-2-2-2-2-2\-|
   * * * * * * * * * * * * * *
               "No survivors..."


Riff 7a (Solo Rhythm)           x3
e|-------------------------------|
B|-------------------------------|
G|-------------------------------|
D|-----3-----2h3-2-----3-----3-3-|
A|-----3-----2h3-2-----3-----3-3-|
E|-0-0---0-0-------0-0---0-0-----|
   * *   * *       * *   * *
e|------------------|
B|------------------|
G|------------------|
D|-----3-----2h3-2--|
A|-----3-----2h3-2--|
E|-0-0---0-0--------|
   * *   * *
                 "Set the world..."

Solo (Mustaine)
e|-------------------------------------|
B|-------------------------------------|
G|-------------------------------------|
D|-------------------------------------|
A|-------------------------------------|
E|-------------------------------------|

e|-------------------------------------|
B|-------------------------------------|
G|-------------------------------------|
D|-------------------------------------|
A|-------------------------------------|
E|-------------------------------------|

e|-------------------------------------|
B|-------------------------------------|
G|-------------------------------------|
D|-------------------------------------|
A|-------------------------------------|
E|-------------------------------------|

e|-------------------------------------|
B|-------------------------------------|
G|-------------------------------------|
D|-------------------------------------|
A|-------------------------------------|
E|-------------------------------------|

End Solo


RIff 7b (Solo Rhythm)           x8
e|-------------------------------|
B|-------------------------------|
G|-------------------------------|
D|-----3-----2h3-2-----3-----3-3-|
A|-----3-----2h3-2-----3-----3-3-|
E|-0-0---0-0-------0-0---0-0-----|
   * *   * *       * *   * *
  "...afire!"


Riff 6a (Solo Rhythm)             x2
e|---------------------------------|
B|---------------------------------|
G|---------------------------------|
D|-5-5-5-4-4-4---------------------|
A|-3-3-3-2-2-2-5-5-5-4-4-4-4-4-4-4-|
E|-------------3-3-3-2-2-2-2-2-2-2-|
   * * * * * * * * * * * * * * * *
                      "No survivors..."


Solo (Young)
e|-------------------------------------|
B|-------------------------------------|
G|-------------------------------------|
D|-------------------------------------|
A|-------------------------------------|
E|-------------------------------------|

e|-------------------------------------|
B|-------------------------------------|
G|-------------------------------------|
D|-------------------------------------|
A|-------------------------------------|
E|-------------------------------------|

e|-------------------------------------|
B|-------------------------------------|
G|-------------------------------------|
D|-------------------------------------|
A|-------------------------------------|
E|-------------------------------------|

e|-------------------------------------|
B|-------------------------------------|
G|-------------------------------------|
D|-------------------------------------|
A|-------------------------------------|
E|-------------------------------------|

End Solo


Ending:
e|---------------------------------|
B|---------------------------------|
G|-7-------------------------------|
D|-5-----9-----7-----------7/9-----|
A|-------7-----5-----9-----5/7-----|
E|---0-0---0-0---0-0-7-0-0-----0-0-|
     * *   * *   * *   * *     * *
  "...afire!"
e|-----------------------------------|
B|-----------------------------------|
G|-7---------------------------------|
D|-5-----9---7-9----9----9----9----9-|
A|-------7---5-7----7----7----7----7-|
E|---0-0---0-------------------------|
     * *   *
e|-------------------------------------|
B|-------------------------------------|
G|-------------------------------------|
D|-----------------9--------(9)----9\--|
A|-777777777777...-7--------(7)----7\--|
E|---------------------------------7\--|

3.ANARCHY IN THE UK

INTRO RIFF
|----------|----------|----------|----------|
|----------|----------|----------|----------|
|----------|----------|----------|----------|
|----------|----------|----------|------7-7-|
|-5-555555-|-55555555-|-3-333333-|-2222-5-5-|
|-3-333333-|-33333333-|-1-111111-|-0000-----|
    PM....   PM......     PM....   PM..

 VERSE RIFF
|----------|---------------|
|----------|---------------|
|----------|---------------|
|-5-555555-|-5555-10\9-9\5-|
|-3-333333-|-3333--8\7-7\3-|
|----------|---------------|
    PM....   PM..

 PRE-CHORUS RIFF
|----------|----------|
|----------|----------|
|----------|----------|
|-5-555555-|-55555555-|
|-3-333333-|-33333333-|
|----------|----------|
    PM....   PM......

 CHORUS RIFF
|----------|----------|----------|-----|
|----------|----------|----------|-----|
|----------|----------|----------|-----|
|----------|----------|----------|---7-|
|-55555555-|-555555-5-|-3-333333-|-2-5-|
|-33333333-|-333333-3-|-1-111111-|-0---|
  PM......   PM....       PM....

 POST-CHORUS RIFF 1
|----------|---------------|----------|----------|
|----------|---------------|----------|----------|
|----------|---------------|----------|----------|
|-5-555555-|-5555-10\9-9\5-|-5-555555-|----------|
|-3-333333-|-3333--8\7-7\3-|-3-333333-|-55555555-|
|----------|---------------|----------|-33333333-|
    PM....   PM..              PM....   PM......

 POST-CHORUS RIFF 2
|----------|---------------|----------|----------|
|----------|---------------|----------|----------|
|----------|---------------|----------|----------|
|-5-555555-|-5555-10\9-9\5-|-55555555-|-55555555-|
|-3-333333-|-3333--8\7-7\3-|-33333333-|-33333333-|
|----------|---------------|----------|----------|
    PM....   PM..            PM......   PM......

 SOLO 1
|------------|------------------|------------|------------------|
|------------|-10b(12)r10-------|------------|-10b(12)r10-------|
|-/11-14-11~-|------------12~-9-|-/11-14-11~-|------------12~-9-|
|------------|------------------|------------|------------------|
|------------|------------------|------------|------------------|
|------------|------------------|------------|------------------|

|------------|------------------|------------|
|------------|-10b(12)r10-------|------------|
|-/11-14-11~-|------------12~-9-|-/11-14-11~-|
|------------|------------------|------------|
|------------|------------------|------------|
|------------|------------------|------------|

|----------------------|----------------------------------|
|------20p18-----20p18-|-----20p18-----20p18b(20)r18b(20)-|
|-/17b(19)---17b(19)---|-17b(19)---17b(19)----------------|
|----------------------|----------------------------------|
|----------------------|----------------------------------|
|----------------------|----------------------------------|

|-----20------20------20------20--|-----20------20------20b(22)~-|
|-18b(20)-18b(20)-18b(20)-18b(20)-|-18b(20)-18b(20)-18b(20)------|
|---------------------------------|------------------------------|
|---------------------------------|------------------------------|
|---------------------------------|------------------------------|
|---------------------------------|------------------------------|

 SOLO 2
|-----10-10-10-10-10-10-|-10-10-10-10-10-10-10-10-|
|-----10-10-10-10-10-10-|-10-10-10-10-10-10-10-10-|
|-/11-11-11--9--9-11-11-|-12-11-11-11--9--9-11-11-|
|-----------------------|-------------------------|
|-----------------------|-------------------------|
|-----------------------|-------------------------|

|-10-10-10-10-10-10-10-10-|-10-10-10-10-10-10-10-10-|
|-10-10-10-10-10-10-10-10-|-10-10-10-10-10-10-10-10-|
|-11-11-11-11--9--9-11-11-|-12-11-11-11--9--9-11-11-|
|-------------------------|-------------------------|
|-------------------------|-------------------------|
|-------------------------|-------------------------|

|-10-10-10-10-10-10-10-10-|-10-10-10-10-10-10-10-10-|
|-10-10-10-10-10-10-10-10-|-10-10-10-10-10-10-10-10-|
|-11-11-11-11--9--9-11-11-|-12-11-11-11--9--9-11-11-|
|-------------------------|-------------------------|
|-------------------------|-------------------------|
|-------------------------|-------------------------|

|----10-10----10-10-|----10-----10-----10--|
|-8b(10)---8b(10)---|-8b(10)-8b(10)-8b(10)-|
|-------------------|----------------------|
|-------------------|----------------------|
|-------------------|----------------------|
|-------------------|----------------------|

 OUTRO RIFF
|---|-----|-----|--------|
|---|-----|-----|--------|
|---|-----|-----|--------|
|-5-|-(5)-|-(5)-|-(5)-5\-|
|-3-|-(3)-|-(3)-|-(3)-3\-|
|---|-----|-----|--------|

4.MARY JANE

Tuning: Standard

Riff 1
Guitar 1
e|-------------------------------------|
B|-------------------------------------|
G|-------------------------------------|
D|-5--------5--------3--------3--------|
A|-6--6-6-6-6--6-6-6-4--4-4-4-4--4-4-4-|
E|-------------------------------------|
      * * *    * * *    * * *    * * *
e|-------------------------------------|
B|-------------------------------------|
G|-------------------------------------|
D|-------------------------------------|
A|-6--------6--------4--------4--------|
E|-7--7-7-7-7--7-7-7-5--5-5-5-5--5-5-5-|
      * * *    * * *    * * *    * * *
e|----------------------|
B|----------------------|
G|----------------------|
D|----------------------|
A|-2--------2--------0--|
E|-3--3-3-3-3--3-3-3-1--|
      * * *    * * *

Guitar 2
e|----6-----------------|
B|------9-7-6-7---6-----|
G|-8------------8---6-8-|
D|----------------------|
A|----------------------|
E|----------------------|
    "Forgive me father..."
e|---4---------------------|
B|-----7-5-4-5---4-----4---|
G|-6-----------6---5-6---6-|
D|-------------------------|
A|-------------------------|
E|-------------------------|
    "...for I have sinned..."
e|----2-----------------|
B|------5-3-2-3---2-----|
G|-4------------4---2-4-|
D|----------------------|
A|----------------------|
E|----------------------|
    "I'm a child of the air..."
e|-------------------------|
B|---5---------------------|
G|-----7-5-4-5---4-----4---|
D|-7-----------7---6-7---7-|
A|-------------------------|
E|-------------------------|
    "I'm a witch of the wind..."
e|-------------------------|
B|----3--------------------|
G|------5-3-2-3---2--------|
D|-5------------5---3-5-3--|
A|-------------------------|
E|-------------------------|
                        "...and I'm still wide awake..."

Guitar 3
e|------------------------|
B|------------------------|
G|------------------------|
D|-13------------13b14r13-|
A|------------------------|
E|------------------------|

e|------------------------|
B|------------------------|
G|------------------------|
D|-11---------------13-11-|
A|------------------------|
E|------------------------|

e|------------------------|
B|------------------------|
G|------------------------|
D|-9-----------------11-9-|
A|------------------------|
E|------------------------|

e|------------------------|
B|------------------------|
G|------------------------|
D|-7----------------7b9r7-|
A|------------------a-----|
E|------------------------|

e|------------------------|
B|------------------------|
G|------------------------|
D|-5------------------7-5-|
A|------------------------|
E|------------------------|

e|------------------------|
B|------------------------|
G|------------------------|
D|-3----------------------|
A|-a----------------------|
E|------------------------|



Riff 1a
Guitar 1
e|------------------------------------|
B|-----------------6-8-10~--10p8p6----|
G|-9b11r9--9b11r9------------------9~-|
D|------------------------------------|
A|------------------------------------|
E|------------------------------------|

e|-----------------------------------|
B|-------15-----------18-------15----|
G|-10/12----12----/15----15-------12-|
D|-----------------------------------|
A|-----------------------------------|
E|-----------------------------------|

e|-15b17~----15-13-12----------------|
B|--------------------15-13-11-------|
G|-----------------------------14-10-|
D|-----------------------------------|
A|-----------------------------------|
E|-----------------------------------|

Guitar 2
e|----------------------|
B|----------------------|
G|----------------------|
D|----[silent]----------|
A|----------------------|
E|----------------------|

e|--------------------------|
B|--------------------------|
G|--------------------------|
D|---------------------2-3--|
A|-5-3-2----2-3-5----5-0-1--|
E|-3-1-0----0-1-3----3------|

e|-----------------|
B|-----------------|
G|-------------2---|
D|-------2-3-5---3-|
A|-3-4-5-----------|
E|-----------------|



Riff 2
Guitar 1 (Distortion)
e|----------------------------------------|
B|----------------------------------------|
G|----------------------------------------|
D|-7--------10--------10---------7--------|
A|-5--5-5-5--8--8-8-8--7--7-7-7--4--4-4-4-|
E|----------------------------------------|
      * * *     * * *     * * *     * * *
    "Mary Jane..."
e|---------------------------------------|
B|---------------------------------------|
G|---------------------------------------|
D|-10--------7---------7--------5--------|
A|--8--8-8-8-4--4-4-4--5--5-5-5-3--3-3-3-|
E|---------------------------------------|
       * * *    * * *     * * *    * * *
e|-------------------|
B|-------------------|
G|-------------------|
D|-4-----------------|
A|-2--2-2-2-5--------|
E|----------3--3-3-3-|
      * * *    * * *
e|----------------------------|
B|----------------------------|
G|----------------------------|
D|-5--------4--------5--------|
A|-3--3-3-3-2--2-2-2-3--3-3-3-|
E|----------------------------|
      * * *    * * *    * * *
e|----------------------------|
B|----------------------------|
G|----------------------------|
D|-6--------7--------5--------|
A|-4--4-4-4-5--5-5-5-3--3-3-3-|
E|----------------------------|
      * * *    * * *    * * *
e|----------------------------|
B|----------------------------|
G|----------------------------|
D|-4-----------------5--------|
A|-2--2-2-2-5--------3--3-3-3-|
E|----------3--3-3-3----------|
      * * *    * * *    * * *
e|-------------------------------|
B|-------------------------------|
G|-------------------------------|
D|-4--------3--------------------|
A|-2--2-2-2-1--1-1-1-----------0-|
E|-------------------3-1-0-1-3---|
      * * *    * * * * * * * * *

Guitar 2 (Clean)
e|-------1-----------1-----------1-----------0-----|
B|-----3---3-------3---3-------3---3-------2---2---|
G|---2-------2---2-------2---0-------0---0-------0-|
D|-0-----------3-----------2-----------2-----------|
A|-------------------------------------------------|
E|-------------------------------------------------|
   "Mary Jane..."
e|-------1-----------0-----|
B|-----3---3-------2---2---|
G|---0-------0---0-------0-|
D|-3-----------2-----------|
A|-------------------------|
E|-------------------------|

e|-------1-----------1-----------0-----------0-----|
B|-----3---3-------3---3-------3---3-------3---3---|
G|---2-------2---2-------2---0-------0---0-------0-|
D|-0-----------------------------------------------|
A|-------------3-----------2-----------------------|
E|-------------------------------------3-----------|

e|-------0-----------0-----|
B|-----3---3-------3---3---|
G|---0-------0---0-------0-|
D|-------------------------|
A|-3-----------2-----------|
E|-------------------------|

e|-------0-----------0-----------1-----------1-----|
B|-----3---3-------3---3-------3---3-------3---3---|
G|---0-------0---0-------0---2-------2---2-------2-|
D|-------------------------0-----------------------|
A|-3-----------4-----------------------3-----------|
E|-------------------------------------------------|

e|-------1-----------0-----|
B|-----3---3-------3---3---|
G|---0-------0---0-------0-|
D|-------------------------|
A|-2-----------------------|
E|-------------3-----------|

e|-------0-----------0-----------0-----1---3---1-0-|
B|-----3---3-------3---3-------2---2-----2---2-----|
G|---0-------0---0-------0---0-------0-------------|
D|-------------------------------------------------|
A|-3-----------2-----------1-----------------------|
E|-------------------------------------------------|


Guitar 3 (Distortion)
e|------------------------------------------|
B|------------------------------------------|
G|------------------------------------------|
D|-12----------------11--------12--------11-|
A|------------------------------------------|
E|------------------------------------------|

e|-----------------------------------|
B|-----------------------------------|
G|-----------------------------------|
D|-12--------10--------9--------5----|
A|-----------------------------------|
E|-----------------------------------|



Riff 3
Guitar 1
e|-------------------------|
B|-------------------------|
G|-------------------------|
D|-9-------9-9-9-------9-9-|
A|-7-------7-7-7-------7-7-|
E|---0-0-0-------0-0-0-----|
     * * *       * * *
e|-------------------------------|
B|-------------------------------|
G|-------------------------------|
D|-------------------------------|
A|-10-------10-10-10-------10-10-|
E|--8-0-0-0--8--8--8-0-0-0--8--8-|
      * * *          * * *
e|-------------------------|
B|-------------------------|
G|-------------------------|
D|-------------------------|
A|-7-------7-7-7-------7-7-|
E|-5-5-5-5-5-5-5-5-5-5-5-5-|
     * * *       * * *
e|---------------------|
B|---------------------|
G|---------------------|
D|---------------------|
A|-8-------8-8-8--7--5-|
E|-6-6-6-6-6-6-6--5--3-|
     * * *
e|-------------------------|
B|-------------------------|
G|-------------------------|
D|-------------5-----------|
A|-------5-7---------5-7---|
E|-0-000-----0---0-8-----6-|
   * *** * * * * * * * * *

Guitar 2 (w/ delay)
e|-7--------7--------8--------8-----|
B|---5--------5--------5--------5---|
G|-----4--------4--------5--------5-|
D|----------------------------------|
A|----------------------------------|
E|----------------------------------|

e|-9--------9--------------15b17r15-12-------------|
B|---8--------8------------------------15b17r15-12-|
G|-----6--------6----(6)/--------------------------|
D|-------------------------------------------------|
A|-------------------------------------------------|
E|-------------------------------------------------|

e|------------------------------------------|
B|------------------------------------------|
G|-15-14-12\9-------------------------------|
D|------------12-9--------------5-----------|
A|------------------------5-7---------5-7---|
E|------------------0-000-----0---0-8-----6-|
                    * *** * * * * * * * * *


Riff 3a
e|-------------------------|
B|-------------------------|
G|-------------------------|
D|-9-------9-9-9-------9-9-|
A|-7-------7-7-7-------7-7-|
E|---0-0-0-------0-0-0-----|
     * * *       * * *
           "From the earth..."
e|-------------------------------|
B|-------------------------------|
G|-------------------------------|
D|-------------------------------|
A|-10-------10-10-10-------10-10-|
E|--8-0-0-0--8--8--8-0-0-0--8--8-|
      * * *          * * *
  "...up through the trees..."
e|-------------------------|
B|-------------------------|
G|-------------------------|
D|-------------------------|
A|-7-------7-7-7-------7-7-|
E|-5-5-5-5-5-5-5-5-5-5-5-5-|
     * * *       * * *
        "I can hear her..."
e|---------------------|
B|---------------------|
G|---------------------|
D|---------------------|
A|-8-------8-8-8--7--5-|
E|-6-6-6-6-6-6-6--5--3-|
     * * *
   "...me..."
e|-------------------------|
B|-------------------------|
G|-------------------------|
D|-------------5-----------|
A|-------5-7---------5-7---|
E|-0-000-----0---0-8-----6-|
   * *** * * * * * * * * *



Riff 4
Guitar 1
e|-------------------------|
B|-------------------------|
G|-------------------------|
D|-------------------------|
A|-2-------2-2-2-------2-2-|
E|-0-0-0-0-0-0-0-0-0-0-0-0-|
     * * *       * * *
               "No..."
e|-------------------------|
B|-------------------------|
G|-------------------------|
D|-------------------------|
A|-3-------3-3-3-------3-3-|
E|-0-0-0-0-0-0-0-0-0-0-0-0-|
     * * *       * * *
             "...can't get away..."
e|-------------------------|
B|-------------------------|
G|-------------------------|
D|-------------------------|
A|-4-------4-4-4-------4-4-|
E|-0-0-0-0-0-0-0-0-0-0-0-0-|
     * * *       * * *
e|-----------------------|
B|-----------------------|
G|-----------------------|
D|-----------------------|
A|-5-------5-5-5--4--3-0-|
E|-0-0-0-0-0-0-0--0--0-0-|
     * * *

Guitar 2
e|-------7-----------10-7---|
B|--------------------------|
G|------------------------9-|
D|-8h9-------9-8h9----------|
A|-----7---7-------7--------|
E|--------------------------|

e|--------7-------------10-7---|
B|-----------------------------|
G|---------------------------9-|
D|-9h10-------10-9h10----------|
A|------7---7---------7--------|
E|-----------------------------|

e|---------7--------------10-7---|
B|-------------------------------|
G|-----------------------------9-|
D|-10h11-------11-10h11----------|
A|-------7---7----------7--------|
E|-------------------------------|

e|-------------------7-------------------|
B|-------12--12------h.----7-------------|
G|---------12-----7--------h.-----7------|
D|-11h12----------h.----7------7--h.--7--|
A|----------------------h.-----h.-----h.-|
E|---------------------------------------|



Riff 4a
Guitar 1
e|-------------------------|
B|-------------------------|
G|-------------------------|
D|-------------------------|
A|-2-------2-2-2-------2-2-|
E|-0-0-0-0-0-0-0-0-0-0-0-0-|
     * * *       * * *
     "If I know I'm..."
e|-------------------------|
B|-------------------------|
G|-------------------------|
D|-------------------------|
A|-3-------3-3-3-------3-3-|
E|-0-0-0-0-0-0-0-0-0-0-0-0-|
     * * *       * * *
e|-------------------------------|
B|-------------------------------|
G|-------------------------------|
D|--------------------------3--2-|
A|-4-------4-4-4-------4-4--1--0-|
E|-0-0-0-0-0-0-0-0-0-0-0-0-------|
     * * *       * * *
                      "I must not be insane..."

Guitar 2
e|-------7-----------10-7---|
B|--------------------------|
G|------------------------9-|
D|-8h9-------9-8h9----------|
A|-----7---7-------7--------|
E|--------------------------|

e|--------7-------------10-7---|
B|-----------------------------|
G|---------------------------9-|
D|-9h10-------10-9h10----------|
A|------7---7---------7--------|
E|-----------------------------|

e|---------7--------------10-7---------|
B|-------------------------------------|
G|-----------------------------9-------|
D|-10h11-------11-10h11-----------3--2-|
A|-------7---7----------7---------1--0-|
E|-------------------------------------|



Riff 5
Guitar 1
e|--------------------|
B|--------------------|
G|--------------------|
D|--------------------|
A|-----5-6-7-----8-10-|
E|-0-0-------0-0-6--8-|
   * * * *   * *
e|---------------------|
B|---------------------|
G|---------------------|
D|---------------12-10-|
A|-----5-6-7-----10--8-|
E|-0-0-------0-0-------|
   * * * *   * *

Guitar 2             x3
e|--------------------|
B|--------------------|
G|--------------------|
D|-9-9-------9-9------|
A|-7-7-------7-7------|
E|-0-0-------0-0------|

e|-----------------------|
B|-----------------------|
G|-----------------------|
D|-9-9-------9-9-12-10-9-|
A|-7-7-------7-7-10--8-7-|
E|-0-0-------0-0-------0-|


Riff 6
e|------------------------------------|
B|------------------------------------|
G|------------------------------------|
D|---7-8-9\---------------------------|
A|---5-6-7\--5-5-8--7-7---------------|
E|-0---------3-3-6--5-5--5-6-5-3-5-3^-|
   *                     * * * * *
e|-----------------------------------|
B|-----------------------------------|
G|-----------------------------------|
D|---7-8-9\--------------------------|
A|---5-6-7\--5-5-8--7-7--------------|
E|-0---------3-3-6--5-5--333-111-000-|
   *                     *** *** ***
e|----------------------------------|
B|----------------------------------|
G|----------------------------------|
D|-7-8-9\---------------------------|
A|-5-6-7\--5-5-8--7-7---------------|
E|---------3-3-6--5-5--5-6-5-3-5-3^-|
                       * * * * *
e|-----------------------------------|
B|-----------------------------------|
G|-----------------------------------|
D|---7-8-9\--------------------------|
A|---5-6-7\--5-5-8--7-7--------------|
E|-0---------3-3-6--5-5--333-111-000-|
   *                     *** *** ***
e|----------------------------------|
B|----------------------------------|
G|----------------------------------|
D|-7-8-9\---------------------------|
A|-5-6-7\--5-5-8--7-7---------------|
E|---------3-3-6--5-5--5-6-5-3-5-3^-|
                       * * * * *
e|-------------------------------------|
B|-------------------------------------|
G|-------------------------------------|
D|---5--6----7/9------5----------------|
A|---3--4----5/7------5---5-5-5--3-3-3-|
E|-0-3--4--0------7-5---0-3-3-3--1-1-1-|
   *       *      * *   *


Play Riff 5
Repeat Riff 5  "Beware my friends..."

Riff 6
e|------------------------------------|
B|------------------------------------|
G|------------------------------------|
D|---7-8-9\---------------------------|
A|---5-6-7\--5-5-8--7-7---------------|
E|-0---------3-3-6--5-5--5-6-5-3-5-3^-|
   *                     * * * * *
e|-----------------------------------|
B|-----------------------------------|
G|-----------------------------------|
D|---7-8-9\--------------------------|
A|---5-6-7\--5-5-8--7-7--------------|
E|-0---------3-3-6--5-5--333-111-000-|
   *                     *** *** ***
e|----------------------------------|
B|----------------------------------|
G|----------------------------------|
D|-7-8-9\---------------------------|
A|-5-6-7\--5-5-8--7-7---------------|
E|---------3-3-6--5-5--5-6-5-3-5-3^-|
                       * * * * *
e|-------------------------------------|
B|-------------------------------------|
G|-------------------------------------|
D|---5--6----7/9------5----------------|
A|---3--4----5/7------5---5-5-5--3-3-3-|
E|-0-3--4--0------7-5---0-3-3-3--1-1-1-|
   *       *      * *   *


Riff 7 (Guitar plays notes in () )
e|-----------------------------------|
B|-----------------------------------|
G|-----------4-----------------------|
D|-----2---------4---5---4---5-4h5p4-|
A|-----2-----------------------------|
E|-0-0---0-0---0---0---0---0---------|
   * *   * *   *   *   *   *
e|------------------------------------|
B|------------------------------------|
G|-----------4--------------(5-4h5p4)-|
D|-----2---------4---5---4---5-4h5p4--|
A|-----2------------------------------|
E|-0-0---0-0---0---0---0---0----------|
   * *   * *   *   *   *   *
e|-----------------------------------|
B|-----------------------------------|
G|-----------4-----------------------|
D|-----2---------4---5---4---5-4h5p4-|
A|-----2-----------------------------|
E|-0-0---0-0---0---0---0---0---------|
   * *   * *   *   *   *   *
e|-------------------------------|
B|-------------------------------|
G|-----------4-------------------|
D|-----2---------4---5---4--(4)\-|
A|-----2-------------------------|
E|-0-0---0-0---0---0---0---------|
   * *   * *   *   *   *


Riff 8
e|---------------------------------|
B|---------------------------------|
G|---------------------------------|
D|-----9-----7-----9-----7-----9---|
A|-----7-----5-----7-----5-----7---|
E|-0-0---0-0---0-0---0-0---0-0---0-|
   * *   * *   * *   * *   * *   *
  "Forgive me father..."
e|-------------------------------------|
B|-------------------------------------|
G|-------------------------------------|
D|-10-----10-----10------------------7-|
A|--8------8------8---10-----10------5-|
E|----0-0----0-0----0--8-0-0--8--0-0---|
      * *    * *    *    * *     * *
  "...for I have sinned..."


Solos over Riff 8:
#1
e|--------------------------------------------|
B|--------------------------------------------|
G|-----------------------9~-------------------|
D|-9b10--(10)r9--9h10h12-------6-7h9p7p6-7~~--|
A|--------------------------------------------|
E|--------------------------------------------|

e|-----------------------|
B|-----------------------|
G|-----------------------|
D|-----------------------|
A|-8h10-7/8------5-6-7~~-|
E|-------------8---------|
               * * *

#2
NOTE: Pretty much the whole solo is tremolo picked,
so just use this as a guide as the notes were too blurry
to pick out real well.

e|-12tm--12h13p12-----------------------------------|
B|---------------15-13-12-----12h13p12--------------|
G|-----------------------14-12--------14-12---------|
D|-----------------------------------------15-14-12-|
A|--------------------------------------------------|
E|--------------------------------------------------|

e|--------------------------------------------------|
B|--------------------------------------------------|
G|-14p12--------------------------------------------|
D|------15-14-12---------15-14-12-------------------|
A|--------------15-14-12---------15-14-12------12~~-|
E|---------------------------------------15-14------|
         *  *  * *  *  *  *  *  * *  *  * *  *
e|-------------------------------------|
B|-------------------------------------|
G|--------------------12-13-14-13-12---|
D|------------12-13-14--------------14-|
A|-12\10-12h14-------------------------|
E|-------------------------------------|

e|---------------12/15-15/19-19\-|
B|---------12-15-----------------|
G|-12-13-14----------------------|
D|-------------------------------|
A|-------------------------------|
E|-------------------------------|


#3
e|-12-12-12-12--------------------------|
B|--------------12-12-12-12~--13-13-13~-|
G|---------------------a--a-------a-----|
D|--------------------------------------|
A|--------------------------------------|
E|--------------------------------------|

e|------------------|
B|-10-8-6-8-6-------|
G|------------9-9~~-|
D|------------------|
A|------------------|
E|------------------|

End Solos


Riff 9
Guitar 1
e|---------------------------|
B|---------------------------|
G|----------4----------------|
D|-----2-------4-5-4-5-4h5p4-| -----|
A|-----2---------------------|      |
E|-0-0----0------------------|      |
   * *    *                         |
e|---------------------------|      |--> Play 4x
B|---------------------------|      |
G|----------5----------------|      |
D|-----3-------4-5-7-5-4h5p4-| -----|
A|-----3---------------------|
E|-0-0----0------------------|
   * *    *

Guitar 2
e|---------------------------|
B|---------------------------|
G|----------4----------------|
D|-----2-------4-5-4-5-4h5p4-| -------|
A|-----2---------------------|        |
E|-0-0----0------------------|        |
   * *    *                           |
e|---------------------------|        |
B|---------------------------|        |
G|----------5----------------|        |
D|-----3-------4-5-7-5-4h5p4-|        |
A|-----3---------------------|        |
E|-0-0----0------------------|        |
   * *    *                           |--> Play 2x
e|---------------------------|        |
B|----------5----------------|        |
G|-------------7-5-7-5-4h5p4-|        |
D|-----2---------------------|        |
A|-----2---------------------|        |
E|-0-0----0------------------|        |
   * *    *                           |
e|---------------------------|        |
B|----------5--4-5-6-5-4h5p4-|        |
G|---------------------------|        |
D|-----3---------------------| -------|
A|-----3---------------------|
E|-0-0----0------------------|
   * *    *


Riff 10
e|-----------------------------------------------|
B|-----------------------------------------------|
G|-----------------------------------------------|
D|-----------8-----------------------------------|
A|-2-x-x-x-x-6-2-4-5-7-9-x-x-9-x-x-x-x-x-x-9-8-7-|
E|-0-x-x-x-x-6-0-2-3-5-7-x-x-7-x-x-x-x-x-x-7-6-5-|
     * * * *
    "Beware my friends..."


Ending
e|---------------------------------------------|
B|---------------------------------------------|
G|---------------------------------------------|
D|-----------8---------------------------------|
A|-2---------6-2-4-5-7-9-----------------9-8-7-|
E|-0---------6-0-2-3-5-7-----------------7-6-5-|
                                         * * *
e|-----------------------------------------------|
B|-----------------------------------------------|
G|-----------------------------------------------|
D|-----------8-----------------------------------|
A|-2---------6-2-4-5-7-9-----------------9-8-7-2-|
E|-0---------6-0-2-3-5-7-----------------7-6-5-0-|
                                         * * *

5.502

Riff 1 x1
    Guitar 1
  e|-------------------------------|
  B|-------------------------------|
  G|-------------------------------|
  D|-------------------------------|
  A|--0-000-0-000-000-000-000-000--|
  E|-------------------------------|

From here on out Guitar 1 just speed picks open A

    Guitar 2
  e|----------------------|-------------------------|
  B|----------------------|-------------------------|
  G|----------------------|-------------------------|
  D|--7---6---------------|--7---6---3---5---653----|
  A|----0---000000000000--|----0---0---0---0-----0--|
  E|----------------------|-------------------------|

  e|----------------------|-------------------------|
  B|----------------------|-------------------------|
  G|----------------------|-------------------------|
  D|--7---6---------------|--7---6---3---5---653----|
  A|----0---000000000000--|----0---0---0---0-----0--|
  E|----------------------|-------------------------|

  e|-------------------------|-------------------------|
  B|-------------------------|-------------------------|
  G|-------------------------|-------------------------|
  D|--7---6---3---5---653----|--7---6---3---5---653----|
  A|----0---0---0---0-----0--|----0---0---0---0-----0--|
  E|-------------------------|-------------------------|

  e|----------------------------------------------------|
  B|----------------------------------------------------|
  G|----------------------------------------------------|
  D|--653---653---653---653----653---653---653---653----|
  A|------0-----0-----0-----0------0-----0-----0-----0--|
  E|----------------------------------------------------|

            TIME- 0:15

Fig. 1 x4
    Guitar 1
  e|-----|---------|---------|---------|---------|-------|
  B|-----|---------|---------|---------|---------|-------|
  G|--2--|------5--|------4--|------5--|------7--|-------|
  D|--2--|------5--|------4--|------5--|------7--|-------|
  A|--0--|--320-3--|--353-2--|--320-3--|--320-5--|--320--|
  E|-----|---------|---------|---------|---------|-------|

    Guitar 2
  e|------------------------------|------------------------------|
  B|------------------------------|------------------------------|
  G|---------------------------5--|---------------------------4--|
  D|---------------------------5--|---------------------------4--|
  A|--000-000-000-000-000-0000-3--|--000-000-000-000-000-0000-2--|
  E|------------------------------|------------------------------|

  e|------------------------------|-------------------------|
  B|------------------------------|-------------------------|
  G|---------------------------5--|-----------7----------4--|
  D|---------------------------5--|-----------7----------4--|
  A|--000-000-000-000-000-0000-3--|--000-0000-5-000-0000-2--|
  E|------------------------------|-------------------------|

Fig. 2 x2
e|-------------|-----------------------|
B|-------------|-----------------------|
G|-------------|-----------------------|
D|-------------|-------2---------2-----|
A|--4-4-4-5-4--|--5320--320-5320--320--|
E|--2-2-2-3-2--|-----------------------|

            TIME- 0:45

Riff 2 x7
e|--------------------------|
B|--------------------------|
G|--------------------------|
D|--------------------------|
A|--320---0235--320---0235--|
E|-----3-----------3--------|

Fig. 3A x1
e|---------------|
B|---------------|
G|---------------|
D|--4-3-2-4------|
A|--2-1-0-2-4-5--|
E|----------2-3--|

            TIME- 0:57

Fig. 1 x4
    Guitar 1
  e|-----|---------|---------|---------|---------|-------|
  B|-----|---------|---------|---------|---------|-------|
  G|--2--|------5--|------4--|------5--|------7--|-------|
  D|--2--|------5--|------4--|------5--|------7--|-------|
  A|--0--|--320-3--|--353-2--|--320-3--|--320-5--|--320--|
  E|-----|---------|---------|---------|---------|-------|

    Guitar 2
  e|------------------------------|------------------------------|
  B|------------------------------|------------------------------|
  G|---------------------------5--|---------------------------4--|
  D|---------------------------5--|---------------------------4--|
  A|--000-000-000-000-000-0000-3--|--000-000-000-000-000-0000-2--|
  E|------------------------------|------------------------------|

  e|------------------------------|-------------------------|
  B|------------------------------|-------------------------|
  G|---------------------------5--|-----------7----------4--|
  D|---------------------------5--|-----------7----------4--|
  A|--000-000-000-000-000-0000-3--|--000-0000-5-000-0000-2--|
  E|------------------------------|-------------------------|

Fig. 2 x2
e|-------------|-----------------------|
B|-------------|-----------------------|
G|-------------|-----------------------|
D|-------------|-------2---------2-----|
A|--4-4-4-5-4--|--5320--320-5320--320--|
E|--2-2-2-3-2--|-----------------------|

            TIME- 1:27

Riff 2 x7
e|--------------------------|
B|--------------------------|
G|--------------------------|
D|--------------------------|
A|--320---0235--320---0235--|
E|-----3-----------3--------|

Fig. 3B x1
e|---------------|---------------|
B|---------------|---------------|
G|---------------|---------------|
D|--4-3-2-4------|--4-3-2---7-9--|
A|--2-1-0-2-4-5--|--2-1-0-4-5-7--|
E|----------2-3--|--------2------|

            TIME- 1:41

Fig. 4 x7 (this is the riff that is playing on the car radio during the SFX)
e|-----------------|------------------|
B|-----------------|------------------|
G|-----7-----------|--10--9--7--------|
D|--9--5--9--7--9--|---8--7--5--9--7--|
A|--7-----7--5--7--|------------7--5--|
E|-----------------|------------------|

Fill 1 x1
e|--------|
B|--------|
G|-----7--|
D|--9--5--|
A|--7-----|
E|--------|

Fig. 3C x2
e|---------------|
B|---------------|
G|---------------|
D|--9-8-7-9------|
A|--7-6-5-7-8-9--|
E|----------6-7--|

            TIME- 2:07

Fig. 5A x3 (under solo)
e|-----|-----|-----|-----|---------|
B|-----|-----|-----|-----|---------|
G|--2--|--4--|--5--|--7--|---------|
D|--2--|--4--|--5--|--7--|--7-6-5--|
A|--0--|--2--|--3--|--5--|--5-4-3--|
E|-----|-----|-----|-----|---------|
                            . . .

Fig. 5B x1 (under solo)
e|-----|-----|-----|-----|
B|-----|-----|-----|-----|
G|--2--|--4--|--5--|--7--|
D|--2--|--4--|--5--|--7--|
A|--0--|--2--|--3--|--5--|
E|-----|-----|-----|-----|

Fig. 3D x4
e|---------------|
B|---------------|
G|---------------|
D|--7-6-5-7------|
A|--5-4-3-5-6-7--|
E|----------4-5--|

            TIME- 2:35

Fig. 6 x1 (Let the last chord ring)
e|-----|-----------|-----------|-----------|-----|
B|-----|-----------|-----------|-----------|-----|
G|-----|-----------|-----------|-----------|--9--|
D|-----|-----------|-----------|-----------|--9--|
A|--5--|--6--7--4--|--6--7--3--|--6--7--2--|--7--|
E|--3--|--4--5--2--|--4--5--1--|--4--5--0--|-----|

6.IN MY DARKEST HOUR

Standard tuning



Intro (guitar 1)

 the first riff is a distorted guitar
 with the volume down low with stereo chorus for f/x

e :----------------0-------------------0---
B :-------------0-----0-------------0-----0
G :----------7-----------7-------7---------
D :-------5-------------------5------------
A :----9-------------------9---------------
E :-0--------------------------------------


Intro (guitar 2)

 sustain the note

e :----------------------------------------
B :----------------------------------------
G :----------------------------------------
D :-2~~~~~~~~~~~~~~~~~~~~~~~~~~~~~~~~~~~~~~
A :-2~~~~~~~~~~~~~~~~~~~~~~~~~~~~~~~~~~~~~~
E :-0~~~~~~~~~~~~~~~~~~~~~~~~~~~~~~~~~~~~~~



Intro part 2 (guitar 1)

    PM PM PM
e :---------------------------------------
B :---------------------------------------
G :---------------------------------------
D :------------4-----------------------4--
A :-2--2--2--5---5-7-5---------------5---5
E :-0--0--0------------7-5-3-2-3-5-7------



Intro part 2 (guitar 2)

e :----------------------------------------
B :----------------------------------------
G :----------------------------------------
D :-2--2--2~~~~~~~~~~~~~~~~~~~~~~~~~~~~~~~2
A :-2--2--2~~~~~~~~~~~~~~~~~~~~~~~~~~~~~~~2
E :-0--0--0~~~~~~~~~~~~~~~~~~~~~~~~~~~~~~~0

          rpt all x2




Intro part 3 (guitar 1)


e :------------0----------------------------------9----------------
B :----------0---0------------10--------------------10-------------
G :--------7----------------7----9-7------------9------9----------7
D :------5----------------5------------------11-----------------5--
A :----9----------------9-----------------12------------------9----
E :----------------------------------------------------------------



Intro part 3 (guitar 2)


e :----------------------------------------------------------------
B :----------------------------------------------------------------
G :----------------------------------------------------------------
D :-----------------4-5~~~~~~~~~~~~~~~5-6~~~~~~~~~~~~~~~~~6-5~~~~~~
A :2-2~~~~~~~~~~~~~~2-3---------------3-4-----------------4-3~~~~~~
E :0-0~~~~~~~~~~~~~~-----------------------------------------------




Intro part 3 "a" (guitar 1)


e :-----------
B :-----------
G :-----------
D :-----------
A :-7-5-----2-
E :-----8-7-0-



Intro part 3 "a" (guitar 2)


e :---------
B :---------
G :---------
D :--------- then return to, "Intro part 3" (guitar 2)x1 bar then back to this
A :-7-5----- x1 bar
E :-----8-7-



 guitar 1 returns to "Intro part 3" (guitar 1) then back to Intro part 3 "a"
 (guitar 1) (this is a bit confusing, just listen to the original song)




Intro part 3 "b" (guitars 1+2)


e :----------------------------------------------------
B :----------------------------------------------------
G :----------------------------------------------------
D :--------------------5~~-------------------5~~-------
A :-7-5-----1~~7-5-----3~~7-5-----1~~7-5-----3~~7-5----
E :-----8-7-0~~----8-7--------8-7-0~~----8-7--------8-7



Rhythm riff 1 (guitar 1+2)


      pm-
e :------
B :------
G :------
D :------ rpt x8
A :-2-222
E :-0-000



Rhythm riff 2 (guitars 1+2)


      pm-   pm-
e :---------------------------------------------
B :---------------------------------------------
G :-------------12-11-10------------------------
D :---------------------14-13-12---------------- rpt x4
A :-2-222-5-555-----------------16-15-14--------
E :-0-000-3-333-------------------------18-17-16




Rhythm riff 2 "a" (guitars 1+2)
 (vocals start)


      pm-   pm     pm-   pm     pm-   pm     pm-   pm -   pm-
e :-------------------------------------------------------------
B :-------------------------------------------------------------
G :-------------------------------------------------------------
D :------------4-5-----5-----------------4-5-----5--------------
A :-2-222-2-22-2-3-222-3-22-5-2-222-2-22-2-3-222-3-22-5-2-222-2-
E :-0-000-0-00-----000---00-3-0-000-0-00-----000---00-3-0-000-0-



Rhythm riff 2 "a" continued (guitars 1+2)


       pm-   -       pm-   pm-   pm
e :-----------------------------------------
B :-----------------------------------------
G :-----------------------------------------
D :987-777-7---7/9-4-444-4-444--------4-4----  rpt all rhythm riff 2 "a" x2
A :765-555-5-3-5/7-2-222-2-222-5-55-7-2-2-5-4
E :----------0-----------------3-33-5-----3-2




Rhythm riff 2 "b" (guitars 1+2)


      pm-   pm     pm-
e :-------------------------------
B :-------------------------------
G :-------------------------------
D :------------4-5-555-5---4h5p4--  rpt x2
A :-2-222-2-22-2-3-333---7-------7
E :-0-000-0-00--------------------




Rhythem riff 2 "c" (guitars 1+2)


      pm- pm-   pm-               pm-            pm----------
e :----------------------------------------------------------------
B :----------------------------------------------------------------
G :-----------------4---2h4p2p0-------4---2h4p2p0------------------
D :-2-222-252-4-444---5---------2-222---5--------777777777777-7----
A :-0-000-030-2-222-------------0-000------------555555555555-5-8-7
E :-------------------------------------------------------------6-5




Rhythm riff 3 (guitars 1+2)


      pm- pm     pm-   pm-     pm-   pm-     pm-   pm-
e :---------------------------------------------------
B :---------------------------------------------------
G :---------------------------------------------------
D :----------4-5-----5-----5-7-----7-----7-5-----5----  rpt x2
A :-2-222-22-2-3-222-3-222-3-4-222-4-222-4-3-222-3-545
E :-0-000-00-----000---000-----000---000-----000---323





Rhythm riff 4 (thechnical part) (guitars 1+2)
 played in double time


    pmpmpmpmpmpm   pmpmpmpmpmpmpmpm  pmpm
e :----------------------------------------------
B :----------------------------------------------
G :----------------------------------------------
D :--------------0------------------0-----3--2---  rpt x4
A :-2-22-2---0-1---1-0-2-22-2---0-1---1-0-1--0--5
E :-0-00-0-3-----------0-00-0-3-----------------3





 back to Rhythm riff 3 rpt x4 (guitar 2)
 guitar 1 plays rhythm riff 3, x2 then plays a lead like riff



e :--------------------------------------------
B :--------------------------------------------
G :--------------------------------------------
D :-0h2-----2p0h2-----2p0h2-----2p0h2-----2p0h2 continue flow till the
A :-------------------------------------------- end of rhythm riff 3
E :----3p2p0-----3p2p0-----3p2p0-----3p2p0-----




Rhythm riff 5 (guitar 1+2) (half time feel similar riff
 to r/riff 2 "b")


                        pmpm      pm  pmpmpmpm      pmpmpm
e :------------------------------------------------------
B :------------------------------------------------------
G :------------------------------------------------------
D :-----------------4-5--5--4h5p4--------------4-5--5-5-5
A :-2-~-~-~-~-~-~-~-2-3-7-7-------7-2-22222222-2-3--3-3-3
E :-0-~-~-~-~-~-~-~-----------------0-00000000-----------



Rhythem riff 5 (continued)(guitars 1+2)


                                                       pmpmpmpmpmpm
e :----------------------------------------------------------------
B :----------------------------------------------------------------
G :----------------------------------------------------------------
D :-5--4h5p4-------------------4-5--5--4h5p4---6-~-~-~-777777777777
A :--7-------7-2-~-~-~-~-~-~-~-2-3-7-7-------7-4-~-~-~-555555555555
E :------------0-~-~-~-~-~-~-~-------------------------------------



Rhythm riff 5 (continued)



e :------
B :------
G :------
D :-7----
A :-5-8-7
E :---6-5



Faster riff 1 (guitar 2)



e :---------------------------------------------------
B :---------------------------------------------------
G :---------------------------------------------------
D :---------------------------------------------------  rpt x2
A :-2-2-------------3-3------------4-4-------------5-5
E :-0-0-------------1-1------------2-2-------------3-3



Faster riff 1(guitar 1)(twiddely part)



e :----------------------------------------------------------------
B :----------------------------------------------------------------
G :---------0h2p0----------0h2p0-----------0h2p0-----------0h2p0---
D :----0h2p0-----2p0--0h2p0-----2p0---0h2p0-----2p0---0h2p0-----2p0 rpt x2
A :----------------------------------------------------------------
E :----------------------------------------------------------------



Faster riff 2 (guitar 1+2)
(double time down stroke style picking)

      pmpm   pmpm   pmpm   pmpm
e :----------------------------
B :----------------------------
G :----------------------------
D :----------------------------  rpt x2
A :-2-2222-3-3333-4-4444-5-5555
E :-0-0000-1-1111-2-2222-3-3333


 solo comes in by guitar 2 ??? (a bizarre one by Mr Young)
 at the begining of the 3rd bar and plays till the end of the 4th
 bar.
 guitar 1 plays faster riff 2 for 2 more bar`s (x4)



Faster riff 3 (guitars 1+2)
(double time down stroke style picking)

      pm-     pmpm-  pm-   pm-     pmpm-  pmpmpmpm-
e :--------------------------------------------------------
B :--------------------------------------------------------
G :--------------------------------------------------------
D :-------4-5-55542-----54-444-7-9-99987-------------------  rpt x2
A :-2-222-2-3-333207-77732-222-5-7-7776510-101010987-7-10-9
E :-0-000----------5-555----------------8--8-8-8-765-5-8--7



Guitar 2 repeats "faster riff 3" another 2 bars

(guitar 1 mimics lyric`s)(unshure at the mo)


Guitar 1 plays "faster riff 3" for one more bar




Faster riff 4 (guitar 2)

 Solo 2 (guitar 1)comes in straight away ????
 (a bizarre one by Mr Mustaine) X5


e :--------------------------
B :--------------------------
G :--------------------------
D :-2-2222-3-2222-5-2222-10-9 rpt x8
A :-0-0000-1-0000-3-0000-8--7
E :--------------------------


 on "faster riff 4" guitar 3 comes in
 on the 6th bar
 (every note played with a artificial harmonic inc bend "ah")
  this is the basic lead,there are more notes,i`ll finish it soon

e :---------------------------
B :---------------------------
G :----------------------5/7\5
D :-765---765---765---75------  rpt x4
A :----765---765---765--7-----
E :---------------------------




 back to faster riff 2 (guitar 1+2) x2



Faster riff 5 (guitar 2)



e :------------------------------------------------------------
B :------------------------------------------------------------
G :------------------------------------------------------------
D :------------------------------------------------------------
A :-2-2222-3-3333-4-4444-5-5555-6-6666-7-7777-8-8888-9-99-9-5-7
E :-0-0000-1-1111-2-2222-3-3333-4-4444-5-5555-6-6666-7-77-7-3-5



Faster riff 5 (guitar 1)
 (sorry it`s not in time with guitar 2tab will be to long otherwise)


e :------------------------------------------------------------------
B :-9999-10101010-111111-12121212-13131313-14141414-15151515-16161616
G :-9999-10101010-111111-12121212-13131313-14141414-15151515-16161616
D :------------------------------------------------------------------
A :------------------------------------------------------------------
E :------------------------------------------------------------------



Faster riff 5 (guitar 1) continued

e :----
B :----
G :----
D :----
A :9-5-
E :7-3-



 then back to "intro", guitar 1 and guitar 2"

 then back to "intro part 1", guitar 1 and guitar 2"

 then back to "intro", guitar 1 and guitar 2

 then back to "intro part 1", guitar 1 and guitar 2 (slows
 down to the end then sustain the last note)


Exit (guitars 1+2)


e :----
B :----
G :----
D :-12\
A :-10\
E :----

7.LIAR

Tuning: Standard


Intro                                  x3
e|--------------------------------------|
B|--------------------------------------|
G|--------------------------------------|
D|-5h7---8-----5h7-8-------10p8p7-8p7p5-|
A|-0---0-0-0-0-0-----0-0-0--------------|
E|--------------------------------------|

e|---------------------------------|
B|---------------------------------|
G|---------------------------------|
D|-5h7---8-------5---3-----2-2-2-2-|
A|-0---0-0-0-0-0-0-0-0-0-0-0-0-0-0-|
E|---------------------------------|

e|-------------------------------|
B|-------------------------------|
G|-------------------------------|
D|-5h7---8-------5---3---2-2-2-2-|
A|-0---0-0-0-0-0-0-0-0-0-0-0-0-0-|
E|-------------------------------|


Riff 1
e|-----------------------------------|
B|-----------------------------------|
G|-----------------------------------|
D|-7-7-10p8p7-8p7p5---8--5--8--7-5-7-|
A|-0-0--------------0-8--5--8--7-5-7-|
E|-----------------------------------|
                    *
e|--------------------------------|
B|--------------------------------|
G|--------------------------------|
D|-7-7-10p8p7-8p7p5---8--5--8--7--|
A|-0-0--------------0-8--5--8--7--|
E|--------------------------------|
                    *
e|-----------------------------------|
B|-----------------------------------|
G|-----------------------------------|
D|-7-7-10p8p7-8p7p5---8--5--8--7-5-7-|
A|-0-0--------------0-8--5--8--7-5-7-|
E|-----------------------------------|
                    *
e|----------------------------------|
B|----------------------------------|
G|----------------------------------|
D|-7-7-10p8p7-8p7p5-----------------|
A|-0-0--------------0-8--8--8--8--8-|
E|--------------------6--6--6--6--6-|
                    *


Riff 1a
e|-----------------------------------|
B|-----------------------------------|
G|-----------------------------------|
D|-7-7-10p8p7-8p7p5---8--5--8--7-5-7-|
A|-0-0--------------0-8--5--8--7-5-7-|
E|-----------------------------------|
                    *
e|--------------------------------|
B|--------------------------------|
G|--------------------------------|
D|-7-7-10p8p7-8p7p5---8--5--8--7--|
A|-0-0--------------0-8--5--8--7--|
E|--------------------------------|
                    *
e|-----------------------------------|
B|-----------------------------------|
G|-----------------------------------|
D|-7-7-10p8p7-8p7p5---8--5--8--7-5-7-|
A|-0-0--------------0-8--5--8--7-5-7-|
E|-----------------------------------|
                    *
e|----------------------------------------------|
B|----------------------------------------------|
G|----------------------------------------------|
D|-7-7-10p8p7-8p7p5---9--8--7--6--5--4--3--3--3-|
A|-0-0--------------0-7--6--5--4--3--2--1--1--1-|
E|----------------------------------------------|
                    *


Riff 2
e|----------------------------|
B|----------------------------|
G|----------------------------|
D|----------------------------|
A|-5/7-----------10-9-8-5-----|
E|-3/5-5-5-5-5-5--8-7-6-3-3-3-|
       * * * * *          * *
  "You take great..."
e|-----------------------------|
B|-----------------------------|
G|-----------------------------|
D|-----------------------------|
A|-5/7-----------10-9-8--------|
E|-3/5-5-5-5-5-5--8-7-6----6-6-|
       * * * * *           * *
  "...anything..."


Final time:
e|----------------------------|
B|----------------------------|
G|----------------------------|
D|----------------------------|
A|-5/7-----------10-9-8-5-----|
E|-3/5-5-5-5-5-5--8-7-6-3-3-3-|
       * * * * *          * *
  "There ain't one person..."
e|-----------------------------------------|
B|-----------------------------------------|
G|-----------------------------------------|
D|---------------9--8--7--6--5--4--3--3--3-|
A|-5/7-----------7--6--5--4--3--2--1--1--1-|
E|-3/5-5-5-5-5-5---------------------------|
       * * * * *
   "...ripped off yet!"


Play Riff 1   Solo Rhythm

Solo (Mustaine)
e|-------------------------------------|
B|-------------------------------------|
G|-------------------------------------|
D|-------------------------------------|
A|-------------------------------------|
E|-------------------------------------|

e|-------------------------------------|
B|-------------------------------------|
G|-------------------------------------|
D|-------------------------------------|
A|-------------------------------------|
E|-------------------------------------|

End Solo


Riff 2a
e|----------------------------|
B|----------------------------|
G|----------------------------|
D|----------------------------|
A|-5/7-----------10-9-8-5-----|
E|-3/5-5-5-5-5-5--8-7-6-3-3-3-|
       * * * * *          * *
  "You look deep..."
e|-----------------------------|
B|-----------------------------|
G|-----------------------------|
D|-----------------------------|
A|-5/7-----------10-9-8--------|
E|-3/5-5-5-5-5-5--8-7-6----6-6-|
       * * * * *           * *
  "...into its eyes..."


Riff 3
e|-----------------------------|
B|-----------------------------|
G|-----------------------------|
D|-----------------------------|
A|-5/7-------------------------|
E|-3/5-5-5-5-5-5-6--3--6-5-3-5-|
       * * * * *
  "Make up your..."
e|----------------------------|
B|----------------------------|
G|----------------------------|
D|----------------------------|
A|-5/7-----------5-----5-4tr5-|
E|-3/5-5-5-5-5-5----6---------|
       * * * * *
  "Truth's too hard..."


Final time:
e|-----------------------------|
B|-----------------------------|
G|-----------------------------|
D|-----------------------------|
A|-5/7-------------------------|
E|-3/5-5-5-5-5-5-6--3--6-5-3-5-|
       * * * * *
  "Decadence and debauchery..."
e|-----------------------------------------|
B|-----------------------------------------|
G|-----------------------------------------|
D|---------------9--8--7--6--5--4--3--3--3-|
A|-5/7-----------7--6--5--4--3--2--1--1--1-|
E|-3/5-5-5-5-5-5---------------------------|
       * * * * *
  "...killed your memories!"


Riff 4
e|---------------------------------|
B|---------------------------------|
G|---------------------------------|
D|---------------------------------|
A|-5/7---------4/5---------2h3-----|
E|-3/5-5-5-5-5-2/3-2-2-2-2-0h1-1-1-|
       * * * *     * * * *     * *
  "...liar, liar..."
e|------------------------------|
B|------------------------------|
G|------------------------------|
D|-0h2-----5-----3--2-----9-8-7-|
A|-0h2-----5-----3--2-----7-6-5-|
E|-----0-0---0-0------0-0-------|
       * *   * *      * *
  "...everyone can see..."


Keep playing Riff 4 during "Start trouble, spread pain..."


Play Riff 4   Solo Rhythm


Solo (Young)
e|-------------------------------------|
B|-------------------------------------|
G|-------------------------------------|
D|-------------------------------------|
A|-------------------------------------|
E|-------------------------------------|

e|-------------------------------------|
B|-------------------------------------|
G|-------------------------------------|
D|-------------------------------------|
A|-------------------------------------|
E|-------------------------------------|

e|-------------------------------------|
B|-------------------------------------|
G|-------------------------------------|
D|-------------------------------------|
A|-------------------------------------|
E|-------------------------------------|

e|-------------------------------------|
B|-------------------------------------|
G|-------------------------------------|
D|-------------------------------------|
A|-------------------------------------|
E|-------------------------------------|

End Solo


Play Riff 1

Ending (Solo Rhythm)
e|-----------------------------------|
B|-----------------------------------|
G|-----------------------------------|
D|-7-7-10p8p7-8p7p5---8--5--8--7-5-7-|
A|-0-0--------------0-8--5--8--7-5-7-|
E|-----------------------------------|
                    *
e|--------------------------------|
B|--------------------------------|
G|--------------------------------|
D|-7-7-10p8p7-8p7p5---8--5--8--7--|
A|-0-0--------------0-8--5--8--7--|
E|--------------------------------|
                    *
e|-----------------------------------|
B|-----------------------------------|
G|-----------------------------------|
D|-7-7-10p8p7-8p7p5---8--5--8--7-5-7-|
A|-0-0--------------0-8--5--8--7-5-7-|
E|-----------------------------------|
                    *
e|-------------------------------------|
B|-------------------------------------|
G|-------------------------------------|
D|-7-7-10p8p7-8p7p5---9--8--7--6--5--4-|
A|-0-0--------------0-7--6--5--4--3--2-|
E|-------------------------------------|
                    *
e|-----------------------|
B|-----------------------|
G|-----------------------|
D|-3--3--3--3--3--3--3-2-|
A|-1--1--1--1--1--1--1-0-|
E|-----------------------|
                   "You're a..."
e|--------------------------|
B|--------------------------|
G|----4---5---6---7---8---9-|
D|-xx-4-x-5-x-6-x-7-x-8-x-9-|
A|-xx-2-x-3-x-4-x-5-x-6-x-7-|
E|--------------------------|
  "...liar!"
e|-----------------|
B|-----------------|
G|-------------4---|
D|-xxxxx-7-5-x-4-5-|
A|-xxxxx-7-5-x-2-5-|
E|-xxxxx-5-3-x---3-|


Ending Solo (Mustaine)
e|-------------------------------------|
B|-------------------------------------|
G|-------------------------------------|
D|-------------------------------------|
A|-------------------------------------|
E|-------------------------------------|

e|-------------------------------------|
B|-------------------------------------|
G|-------------------------------------|
D|-------------------------------------|
A|-------------------------------------|
E|-------------------------------------|

e|-------------------------------------|
B|-------------------------------------|
G|-------------------------------------|
D|-------------------------------------|
A|-------------------------------------|
E|-------------------------------------|

e|-------------------------------------|
B|-------------------------------------|
G|-------------------------------------|
D|-------------------------------------|
A|-------------------------------------|
E|-------------------------------------|

End Solo

8.HOOK IN MOUTH

Tuning: Standard


Intro
e|------------------------------------|
B|------------------------------------|
G|------------------------------------|
D|------------------------------------|
A|-8-5-7----8-7-5----8-5-7----8-7-5-2-|
E|-6-3-5----6-5-3----6-3-5----6-5-3-0-|


"Cockroach in the concrete..."


Lead into next section:
e|----------------|
B|----------------|
G|----------------|
D|----------------|
A|-8-5-7----8-7-5-|
E|-6-3-5----6-5-3-|


Riff 1
e|---------------------------------------|
B|---------------------------------------|
G|---------------------------------------|
D|---------------------------------------|
A|-7/8-----5/7-------4/5-----------------|
E|-5/6-0-0-3/5-0-0-0-2/3-0-0-0-0-0-0-0-0-|
       * *     * * *     * * * * * * * *
  "Rewrites every story..."
e|--------------------------------------|
B|--------------------------------------|
G|--------------------------------------|
D|--------------------------------------|
A|-7/8-----5/7-------4/5---8-5-7--8-7-5-|
E|-5/6-0-0-3/5-0-0-0-2/3-0-6-3-5--6-5-3-|
       * *     * * *     *
  "...poem that ever was..."


Lead into next section:
e|----------------------------------|
B|----------------------------------|
G|----------------------------------|
D|----------------------------------| --> Play 2x
A|-8-5-7----8-7-5----8-5-7----8-7-5-|
E|-6-3-5----6-5-3----6-3-5----6-5-3-|



Riff 2
e|-----------------------|
B|-----------------------|
G|-----------------------|
D|-----------------------|  --------|
A|-7/8------8/9----------|          |
E|-5/6-0000-6/7-00000000-|          |
       ****     ********            |
e|----------------------------|     |--> Play 3x
B|----------------------------|     |
G|----------------------------|     |
D|--------------------------9-| ----|
A|-9/10------10/11----------7-|
E|-7/-8-0000--8/-9-00000000---|
        ****       ********

e|-----------------------|
B|-----------------------|
G|-----------------------|
D|-----------------------|
A|-7/8------8/9----------|
E|-5/6-0000-6/7-00000000-|
       ****     ********
e|--------------------------|
B|--------------------------|
G|--------------------------|
D|--------------------------|
A|-9/10------10/11----------|
E|-7/-8-0000--8/-9-00000000-|
        ****       ********
e|-------------------------|
B|-------------------------|
G|-------------------------|
D|-9-9--9------------------|
A|-7-7--7--10--9--5-----3--|
E|----------8--7--3--00-1--|
                     **
  "As long as there's a P.M.R.C!"



Riff 3 (Solo Rhythm)
e|-----------------------------|
B|-----------------------------|
G|-----------------------------|
D|-----------------------------|
A|-----------------0h1h2-2h3-3-|
E|-0--00-3-000-0h3-------------|
   *  ** * ***
e|-------------------------|
B|-------------------------|
G|-------------------------|
D|-------------------------|
A|-----------------0h1p0-3-|
E|-0--00-3-000-0h3-------1-|
   *  ** * ***


Solo (Young, slightly palm muted)
e|---------------------------------------|
B|---------------------------------------|
G|---------------------------------------|
D|----------------------7----------------|
A|-7-9-10-9-10-9-7-9-10---10-9-10-9-7----|
E|------------------------------------10-|

e|--------------------------------------|
B|--------------------------------------|
G|-------------------7------------------|
D|-----------------9---9-10-7-9---------|
A|-7-9-10-9-10-9-7--------------10-9----|
E|-----------------------------------10-|

e|---------------------------------------|
B|---------------------------------------|
G|---------------------------------------|
D|----------------------7----------------|
A|-7-9-10-9-10-9-7-9-10---10-9-10-9-7----|
E|------------------------------------10-|

e|-------------------------------------------|
B|-----------------------10------------------|
G|---------------9-11-12----12-11-12-11-9----|
D|--------7-9-10--------------------------12-|
A|-7-9-10------------------------------------|
E|-------------------------------------------|

e|--------------------------------------------|
B|-------------------------10-----------------|
G|-9-11-12-11-12-11-9-11-12--12-11-12-11-9-11-|
D|--------------------------------------------|
A|--------------------------------------------|
E|--------------------------------------------|

e|------10---------------------------------|
B|-12-13--13-12-10-13-12-10----12-10-------|
G|--------------------------12-------12-11-|
D|-----------------------------------------|
A|-----------------------------------------|
E|-----------------------------------------|

e|-------------------------------------------------------|
B|--------------------------------------10---------------|
G|-12-11-9-11h12-12-11-12-11-9-11h12-12----12-11-12-11-9-|
D|-------------------------------------------------------|
A|-------------------------------------------------------|
E|-------------------------------------------------------|

e|-------------------------------------------------|
B|-------------------------------------------------|
G|-11h12-12-11-12-11-9-8-9-8-----------------------|
D|---------------------------9-7-9-7---------------|
A|-----------------------------------10-9-7----7~\-|
E|------------------------------------------10-----|

End Solo


Riff 3a (Solo Rhythm)
e|-------------------------|
B|-------------------------|
G|-------------------------|
D|-------------------------|
A|-----------------------3-|
E|-0--00-3-000-0-3-5-0-3-1-|
   *  ** * *** * * * * *


Solo (Mustaine)
e|-19t12p10--20t15p10--19t12p10--20t15p10--19t12p10-20t15p10-|
B|-----------------------------------------------------------|
G|-----------------------------------------------------------|
D|-----------------------------------------------------------|
A|-----------------------------------------------------------|
E|-----------------------------------------------------------|

e|-18t12p9--19t14p9--18t12p9--19t14p9--18t12p9-19t14p9-|
B|-----------------------------------------------------|
G|-----------------------------------------------------|
D|-----------------------------------------------------|
A|-----------------------------------------------------|
E|-----------------------------------------------------|

e|-17t10p8--18t13p8--17t10p8--18t13p8--17t10p8-18t13p8-|
B|-----------------------------------------------------|
G|-----------------------------------------------------|
D|-----------------------------------------------------|
A|-----------------------------------------------------|
E|-----------------------------------------------------|

e|-16t10p7--17t12p7--16t10p7--17t12p7--16t10p7-17t12p7-|
B|-----------------------------------------------------|
G|-----------------------------------------------------|
D|-----------------------------------------------------|
A|-----------------------------------------------------|
E|-----------------------------------------------------|

e|-15t8p6--16t11p6--15t8p6--16t11p6--15t8p6-16t11p6-|
B|--------------------------------------------------|
G|--------------------------------------------------|
D|--------------------------------------------------|
A|--------------------------------------------------|
E|--------------------------------------------------|

e|-14t8p5--15t10p5--14t8p5--15t10p5--14t8p5-15t10p5-|
B|--------------------------------------------------|
G|--------------------------------------------------|
D|--------------------------------------------------|
A|--------------------------------------------------|
E|--------------------------------------------------|

e|-13t6p4--14t9p4--13t6p4--14t9p4--13t6p4-14t9p4-|
B|-----------------------------------------------|
G|-----------------------------------------------|
D|-----------------------------------------------|
A|-----------------------------------------------|
E|-----------------------------------------------|

e|-12t6p3--13t8p3--12t6p3--13t8p3--12t6p3-13t8p3-|
B|-----------------------------------------------|
G|-----------------------------------------------|
D|-----------------------------------------------|
A|-----------------------------------------------|
E|-----------------------------------------------|

End Solo


Riff 4
e|-----------------------------------------------|
B|-----------------------------------------------|
G|-----------------------------------------------|
D|-12--------10--------9-------------------------|
A|-10---------8--------7-----------5h7----8p7----|
E|------------------------------00-----00-----00-|
                                **     **     **
   " 'F' is for fighting..."
e|---------------------------------------------|
B|---------------------------------------------|
G|---------------------------------------------|
D|-12--------10----5-10-9--------9-------------|
A|-10---------8----3--8-7--------7-10--9--5----|
E|----------------------------------8--7--3--0-|
                                             *
   " 'E' we elect them..."
e|-----------------------------------------------|
B|-----------------------------------------------|
G|-----------------------------------------------|
D|-12--------10--------9-------------------------|
A|-10---------8--------7-----------5h7----8p7----|
E|------------------------------00-----00-----00-|
                                **     **     **
   " 'D' for the dying..."
e|---------------------------------------------|
B|---------------------------------------------|
G|---------------------------------------------|
D|-12--------10----5-10-9-9-9------------------|
A|-10---------8----3--8-7-7-7--10--9--5-----3--|
E|------------------------------8--7--3--00-1--|
                                         **
   "This spells out freedom..."


Play Riff 3  Solo Rhythm
Play Riff 3a Solo Rhythm

Same solos are before

Play Riff 4   " 'F' is for fighting..."

Lead into next section:
e|-----|
B|-----|
G|-----|
D|-----|
A|--2--|
E|--0--|


"Draw your hand, right up my shirt..."

Lead into next section:
e|-----------------|
B|-----------------|
G|-----------------|
D|-----------------|
A|-8-5-7----8-7-5--|
E|-6-3-5----6-5-3--|
  "...hook in mouth..."


Play Riff 1  "Rewrites every story..."

Ending:
e|----------------------------------|
B|----------------------------------|
G|----------------------------------|
D|----------------------------------|
A|-8-5-7----8-7-5----8-5-7----8-7-5-|
E|-6-3-5----6-5-3----6-3-5----6-5-3-|
   "I'm not a fish..."
e|------------------------------------|
B|------------------------------------|
G|------------------------------------|
D|----------------------------------9-|
A|-8-5-7----8-7-5----8-5-7----8-7-5-7-|
E|-6-3-5----6-5-3----6-3-5----6-5-3---|
  "Hook, in, mouth!"
I want to post or [tab]
guest
You may want to rate the tab now too:
select rating
Please do not post tabs as comments. Select "correction" instead!