Oops, an error
Loading. Please wait.

Something Im Not Tab

ver1
ver1

Whole song

Interactive

More versions @911Tabs.com
1,936 views 1 this week
no commentswrite comment
1 2 3 4 5
please rate
add to favorites launch autoscroll
font size
0
reset
Autoscroll
+/-
esc
set tempo
stop
Contributor
WARNING: You are trying to view
                                    content from Ultimate-Guitar.com
                                    in an unauthorized application,
                                    which is prohibited.

                                    Please use an official Ultimate
                                    Guitar Tabs application for iPhone,
                                    iPad or Android to access legitimate
                                    chords, guitar, bass, and drum tabs
                                    from Ultimate-Guitar.com database.

                                    Type "ultimate guitar tabs" in Apple
                                    App Store's or Android Market's
                                    search to find the application.
#----------------------------------PLEASE NOTE---------------------------------#
#This file is the author's own work and represents their interpretation of the #
#song. You may only use this file for private study, scholarship, or research. #
#------------------------------------------------------------------------------#

SOMETHING I'M NOT
As recorded by Megadeth
(From the 2004 Album THE SYSTEM HAS FAILED)

Transcribed by livingzombie & abysslord (http://www.abysslord.com/)
        

Words and Music by Dave Mustaine

Gtr I (E A D G B E) - 'Dave Mustaine Rhythm'
Gtr II (E A D G B E) - 'Dave Mustaine Solo'
Gtr III (E A D G B E) - 'Chris Poland'
Gtr IV (E A D G B E) - 'Pick Slide'

   Intro Verse
    Q=103                     1.,2.,3.
    N.C.
   4/4
    Gtr I
      PM|   PM--|                PM|   PM--|
    E S S S S S S S S S S Q    E S S S S S S S S S S Q   4x
||---------------------------|---------------------------||
||o--------------------------|--------------------------o||
||---------------------------|---------------------------||
||--------4-----------4------|-------4-----------4-------||
||o--------------------------|--------------------------o||
||--2-2-2---2-x-x-0-2---2----|-2-2-2---2-x-x-0-2---2-----||


 4.
    PM|   PM--|           PM|
  E S S S S S S S S S S E S S
|------------------------------|
|------------------------------|
|------------------------------|
|-------4-----------4----------|
|------------------------------|
|-2-2-2---2-x-x-0-2---2---x-x--|


    PM|   PM--|                PM|   PM--|
  E S S S S S S S S S S Q    E S S S S S S S S S S Q
|--------------------------|--------------------------|
|--------------------------|--------------------------|
|--------------------------|--------------------------|
|-------4-----------4------|-------4-----------4------|
|--------------------------|--------------------------|
|-2-2-2---2-x-x-0-2---2----|-2-2-2---2-x-x-0-2---2----|


 Verse
    PM|   PM--|                PM|   PM--|
  E S S S S S S S S S S Q    E S S S S S S S S S S Q
|--------------------------|--------------------------|
|--------------------------|--------------------------|
|--------------------------|--------------------------|
|-------4-----------4------|-------4-----------4------|
|--------------------------|--------------------------|
|-2-2-2---2-x-x-0-2---2----|-2-2-2---2-x-x-0-2---2----|


    PM|   PM--|                PM|   PM--|           PM|
  E S S S S S S S S S S Q    E S S S S S S S S S S E S S
|--------------------------|-------------------------------|
|--------------------------|-------------------------------|
|--------------------------|-------------------------------|
|-------4-----------4------|-------4-----------4-----------|
|--------------------------|-------------------------------|
|-2-2-2---2-x-x-0-2---2----|-2-2-2---2-x-x-0-2---2---x-x---|


  Gtr I
    PM|   PM--|                PM|   PM--|
  E S S S S S S S S S S Q    E S S S S S S S S S S Q
|--------------------------|--------------------------|
|--------------------------|--------------------------|
|--------------------------|--------------------------|
|-------4-----------4------|-------4-----------4------|
|--------------------------|--------------------------|
|-2-2-2---2-x-x-0-2---2----|-2-2-2---2-x-x-0-2---2----|
|
| Gtr II
| W                          W
|--------------------------|--------------------------|
|--------------------------|--------------------------|
|--------------------------|--------------------------|
|--------------------------|--------------------------|
|--------------------------|--------------------------|
|--------------------------|--------------------------|


    PM|   PM--|                PM|   PM--|
  E S S S S S S S S S S Q    E S S S S S S S S S S Q
|--------------------------|----------------------------|
|--------------------------|----------------------------|
|--------------------------|----------------------------|
|-------4-----------4------|-------4-----------4--------|
|--------------------------|----------------------------|
|-2-2-2---2-x-x-0-2---2----|-2-2-2---2-x-x-0-2---2------|
|
|                            <
| W                          W
|--------------------------|----------------------------|
|--------------------------|----------------------------|
|--------------------------|----------------------------|
|--------------------------|-2--------------------------|
|--------------------------|----------------------------|
|--------------------------|----------------------------|


 Solo (Mustaine)
                      |-3-|
  S E S E S E S E S S S S S   S   E     S E S E   S E S S S S
|---------------------------|---------------------------------|
|---------------------------|---------------------------------|
|---------------------------|---------------------------------|
|---------------------------|---------------------------------|
|---------------------------|-------------------------3h4p3---|
|-0-2-0-2-0-2-0-2-x-x-5p2p0-|-3---5-----3-5-3-5---3-5-------5-|
|
|                                               ~
| W                           E     +E    Q     H
|---------------------------|---------------------------------|
|---------------------------|---------------------------------|
|---------------------------|-5b6---(5)---2-------------------|
|-2-------------------------|-------------------4-------------|
|---------------------------|---------------------------------|
|---------------------------|---------------------------------|


  S   E     S E S E   S E S S S S   S    E     S E S E       S   E  S S S S
|---------------------------------|-----------------------------------------|
|---------------------------------|-----------------------------------------|
|---------------------------------|-----------------------------------------|
|---------------------------------|---------------------------------5h6p5---|
|-------------------------5h6p5---|-3----5-----3-5-5-7-------5---7--------7-|
|-5---7-----5-7-5-7---5-7-------7-|-----------------------------------------|
|
|                   ~                            ~                  ~~
| E     +E    Q     H               E      +E    Q      E       +E  Q
|---------------------------------|-----------------------------------------|
|---------------------------------|-----------------------------------------|
|-7b8---(7)---5-------------------|-9b11---(9)---7-----11b13---(11)-9-------|
|-------------------7-------------|-----------------------------------------|
|---------------------------------|-----------------------------------------|
|---------------------------------|-----------------------------------------|


 Chorus
         PM    PM    PM    PM                 PM    PM    PM    PM
                             |-3-|                                |-3-|
   E S S S S S S S S S S S S S S S     E  S S S S S S S S S S S S S S S
|----------------------------------|------------------------------------|
|----------------------------------|------------------------------------|
|----------------------------------|------------------------------------|
|----4p2---4p2---4p2---4p2---4p2p0-|------4p2---4p2---4p2---4p2---4p2p0-|
|----------------------------------|---0------0-----0-----0-----0-------|
|--2-----2-----2-----2-----2-------|------------------------------------|
|
|                                      >
|  ~~~~~~~~~~~~~~~~~~~~~~~~~~~~~~~~~~~~~~~~~~~~~~~~~~~~~~~~~~~~~~~~~~~~~~
|  W                                  +W
|----------------------------------|------------------------------------|
|----------------------------------|------------------------------------|
|-11-------------------------------|-(11)-------------------------------|
|----------------------------------|------------------------------------|
|----------------------------------|------------------------------------|
|----------------------------------|------------------------------------|


         PM    PM    PM    PM              PM    PM    PM    PM
                             |-3-|                             |-3-|
   E S S S S S S S S S S S S S S S   E S S S S S S S S S S S S S S S
|----------------------------------|-----------------------------------|
|----------------------------------|-----------------------------------|
|----------------------------------|-----------------------------------|
|----4p2---4p2---4p2---4p2---4p2p0-|---4p2---4p2---4p2---4p2---4p2p0---|
|----------------------------------|-0-----0-----0-----0-----0---------|
|--2-----2-----2-----2-----2-------|-----------------------------------|
|
|~~~~
|  W                                 W
|----------------------------------|-----------------------------------|
|----------------------------------|-----------------------------------|
|-11-------------------------------|-----------------------------------|
|----------------------------------|-----------------------------------|
|----------------------------------|-----------------------------------|
|----------------------------------|-----------------------------------|


  Gtr I
        PM    PM    PM    PM
                            |-3-|
  E S S S S S S S S S S S S S S S
|---------------------------------|
|---------------------------------|
|---------------------------------|
|---4p2---4p2---4p2---4p2---4p2p0-|
|---------------------------------|
|-2-----2-----2-----2-----2-------|


        PM    PM    PM    PM              PM    PM      PM    PM
                            |-3-|
  E S S S S S S S S S S S S S S S   E S S S S S S E S S S S S S
|---------------------------------|------------------------------|
|---------------------------------|------------------------------|
|---------------------------------|------------------------------|
|---4p2---4p2---4p2---4p2---4p2p0-|---4p2---4p2-----4p2---4p2----|
|-0-----0-----0-----0-----0-------|------------------------------|
|---------------------------------|-4-----4-----4-3-----3-----3--|


    PM|   PM--|                PM|   PM--|           PM|
  E S S S S S S S S S S Q    E S S S S S S S S S S E S S
|--------------------------|-----------------------------|
|--------------------------|-----------------------------|
|--------------------------|-----------------------------|
|-------4-----------4------|-------4-----------4---------|
|--------------------------|-----------------------------|
|-2-2-2---2-x-x-0-2---2----|-2-2-2---2-x-x-0-2---2---x-x-|


 Verse
  Gtr I
     PM|   PM--|                    PM|   PM--|
   E S S S S S S S S S S Q      E   S S S S S S S S S S Q
|---------------------------|----------------------------------|
|---------------------------|----------------------------------|
|---------------------------|----------------------------------|
|--------4-----------4------|-----------4-----------4----------|
|---------------------------|----------------------------------|
|--2-2-2---2-x-x-0-2---2----|---2---2-2---2-x-x-0-2---2--------|
|
| Gtr III
|  W                           +H..                        +E
|---------------------------|----------------------------------|
|---------------------------|----------------------------------|
|-11------------------------|-(11)------------------------(11)S|
|---------------------------|----------------------------------|
|---------------------------|----------------------------------|
|---------------------------|----------------------------------|


    PM|   PM--|                   PM|   PM--|            PM-|
  E S S S S S S S S S S Q     E   S S S S S S S S S S E  S  S
|--------------------------|------------------------------------|
|--------------------------|------------------------------------|
|--------------------------|------------------------------------|
|-------4-----------4------|----------4-----------4-------------|
|--------------------------|------------------------------------|
|-2-2-2---2-x-x-0-2---2----|--2---2-2---2-x-x-0-2---2----x--x---|
|
| W                          +H..                       +E
|--------------------------|------------------------------------|
|--------------------------|------------------------------------|
|-9------------------------|-(9)------------------------(9)S====|
|--------------------------|------------------------------------|
|--------------------------|------------------------------------|
|--------------------------|------------------------------------|


    PM|   PM--|                PM|   PM--|
  E S S S S S S S S S S Q    E S S S S S S S S S S Q
|--------------------------|--------------------------|
|--------------------------|--------------------------|
|--------------------------|--------------------------|
|-------4-----------4------|-------4-----------4------|
|--------------------------|--------------------------|
|-2-2-2---2-x-x-0-2---2----|-2-2-2---2-x-x-0-2---2----|
|
| W                          W
|--------------------------|--------------------------|
|--------------------------|--------------------------|
|-8------------------------|-7------------------------|
|--------------------------|--------------------------|
|--------------------------|--------------------------|
|--------------------------|--------------------------|


    PM|   PM--|                  PM|   PM--|           PM|
  E S S S S S S S S S S Q     E  S S S S S S S S S S E S S
|--------------------------|---------------------------------|
|--------------------------|---------------------------------|
|--------------------------|---------------------------------|
|-------4-----------4------|---------4-----------4-----------|
|--------------------------|---------------------------------|
|-2-2-2---2-x-x-0-2---2----|--2--2-2---2-x-x-0-2---2---x-x---|
|
| W                          +W
|--------------------------|---------------------------------|
|--------------------------|---------------------------------|
|--------------------------|---------------------------------|
|-4------------------------|-(4)-----------------------------|
|--------------------------|---------------------------------|
|--------------------------|---------------------------------|


      PM|   PM--|                   PM|   PM--|
   E  S S S S S S S S S S Q     E   S S S S S S S S S S Q
|----------------------------|--------------------------------|
|----------------------------|--------------------------------|
|----------------------------|--------------------------------|
|---------4-----------4------|----------4-----------4---------|
|----------------------------|--------------------------------|
|--2--2-2---2-x-x-0-2---2----|--2---2-2---2-x-x-0-2---2-------|
|
| +W                           +H..                       +E
|----------------------------|--------------------------------|
|----------------------------|--------------------------------|
|----------------------------|--------------------------------|
|-(4)------------------------|-(4)------------------------(4)S|
|----------------------------|--------------------------------|
|----------------------------|--------------------------------|


    PM|   PM--|                   PM|   PM--|            PM-|
  E S S S S S S S S S S Q     E   S S S S S S S S S S E  S  S
|--------------------------|------------------------------------|
|--------------------------|------------------------------------|
|--------------------------|------------------------------------|
|-------4-----------4------|----------4-----------4-------------|
|--------------------------|------------------------------------|
|-2-2-2---2-x-x-0-2---2----|--2---2-2---2-x-x-0-2---2----x--x---|
|
| W                          +H..                       +E
|--------------------------|------------------------------------|
|--------------------------|------------------------------------|
|--------------------------|------------------------------------|
|-7------------------------|-(7)------------------------(7)S====|
|--------------------------|------------------------------------|
|--------------------------|------------------------------------|


  Gtr I
      PM|   PM--|                     PM|   PM-----|
  E   S S S S S S S S S S Q        E  S S S S   S  S  S S S S Q
|-------------------------------|--------------------------------|
|-------------------------------|--------------------------------|
|-------------------------------|--------------------------------|
|---------4-----------4---------|---------4---------------4------|
|-------------------------------|--------------------------------|
|-2---2-2---2-x-x-0-2---2-------|--2--2-2---2---x--x--0-2---2----|
|
| Gtr III
| H..                       +E     Q.          +E     H
|-------------------------------|--------------------------------|
|-------------------------------|--------------------------------|
|-------------------------------|--------------------------------|
|-9-------------------------(9)S|=10----------(10)S==11----------|
|-------------------------------|--------------------------------|
|-------------------------------|--------------------------------|
|
| Gtr II
| W                                W
|-------------------------------|--------------------------------|
|-------------------------------|--------------------------------|
|-------------------------------|--------------------------------|
|-------------------------------|--------------------------------|
|-------------------------------|--------------------------------|
|-------------------------------|--------------------------------|


     PM|   PM--|                   PM|   PM--|           PM|
   E S S S S S S S S S S Q      E  S S S S S S S S S S E S S
|---------------------------|----------------------------------|
|---------------------------|----------------------------------|
|---------------------------|----------------------------------|
|--------4-----------4------|----------4-----------4-----------|
|---------------------------|----------------------------------|
|--2-2-2---2-x-x-0-2---2----|---2--2-2---2-x-x-0-2---2---x-x---|
|
|  W                           +W
|---------------------------|----------------------------------|
|---------------------------|----------------------------------|
|-11------------------------|-(11)-----------------------------|
|---------------------------|----------------------------------|
|---------------------------|----------------------------------|
|---------------------------|----------------------------------|
|
|                               <
|  W                            W
|---------------------------|----------------------------------|
|---------------------------|----------------------------------|
|---------------------------|----------------------------------|
|---------------------------|---2------------------------------|
|---------------------------|----------------------------------|
|---------------------------|----------------------------------|


 Solo (Mustaine)
  Gtr I
                        |-3-|
   S  E S E S E S E S S S S S   S   E     S E S E   S E S S S S
|-----------------------------|---------------------------------|
|-----------------------------|---------------------------------|
|-----------------------------|---------------------------------|
|-----------------------------|---------------------------------|
|-----------------------------|-------------------------3h4p3---|
|--0--2-0-2-0-2-0-2-x-x-5p2p0-|-3---5-----3-5-3-5---3-5-------5-|
|
| Gtr II
|                                                 ~
| +W                            E     +E    Q     H
|-----------------------------|---------------------------------|
|-----------------------------|---------------------------------|
|-----------------------------|-5b6---(5)-----------------------|
|-(2)-------------------------|-------------7-----4-------------|
|-----------------------------|---------------------------------|
|-----------------------------|---------------------------------|


  S   E     S  E S E   S E S S S S    S    E      S E S E       S   E  S S S S
|----------------------------------|-------------------------------------------|
|----------------------------------|-------------------------------------------|
|----------------------------------|-------------------------------------------|
|----------------------------------|-----------------------------------5h6p5---|
|--------------------------5h6p5---|--3----5------3-5-5-7-------5---7--------7-|
|-5---7-----5--7-5-7---5-7-------7-|-------------------------------------------|
|
|                    ~                              ~                  ~~
| E     +E     Q     H                E       +E    Q      E       +E  Q
|----------------------------------|-------------------------------------------|
|----------------------------------|-------------------------------------------|
|-7b8---(7)------------------------|-10b11---(10)---7-----12b13---(12)-9-------|
|-------------10-----7-------------|-------------------------------------------|
|----------------------------------|-------------------------------------------|
|----------------------------------|-------------------------------------------|


 Chorus
         PM    PM    PM    PM                 PM    PM    PM    PM
                             |-3-|                                |-3-|
   E S S S S S S S S S S S S S S S     E  S S S S S S S S S S S S S S S
|----------------------------------|------------------------------------|
|----------------------------------|------------------------------------|
|----------------------------------|------------------------------------|
|----4p2---4p2---4p2---4p2---4p2p0-|------4p2---4p2---4p2---4p2---4p2p0-|
|----------------------------------|---0------0-----0-----0-----0-------|
|--2-----2-----2-----2-----2-------|------------------------------------|
|
|                                      >
|  ~~~~~~~~~~~~~~~~~~~~~~~~~~~~~~~~~~~~~~~~~~~~~~~~~~~~~~~~~~~~~~~~~~~~~~
|  W                                  +W
|----------------------------------|------------------------------------|
|----------------------------------|------------------------------------|
|-11-------------------------------|-(11)-------------------------------|
|----------------------------------|------------------------------------|
|----------------------------------|------------------------------------|
|----------------------------------|------------------------------------|


           PM    PM    PM    PM              PM    PM    PM    PM
                               |-3-|                             |-3-|
    E  S S S S S S S S S S S S S S S   E S S S S S S S S S S S S S S S
|------------------------------------|-----------------------------------|
|------------------------------------|-----------------------------------|
|------------------------------------|-----------------------------------|
|------4p2---4p2---4p2---4p2---4p2p0-|---4p2---4p2---4p2---4p2---4p2p0---|
|------------------------------------|-0-----0-----0-----0-----0---------|
|---2------2-----2-----2-----2-------|-----------------------------------|
|
|~~~~~~
|  +W                                  W
|------------------------------------|-----------------------------------|
|------------------------------------|-----------------------------------|
|-(11)-------------------------------|-----------------------------------|
|------------------------------------|-----------------------------------|
|------------------------------------|-----------------------------------|
|------------------------------------|-----------------------------------|


  Gtr I
        PM    PM    PM    PM
                            |-3-|
  E S S S S S S S S S S S S S S S
|---------------------------------|
|---------------------------------|
|---------------------------------|
|---4p2---4p2---4p2---4p2---4p2p0-|
|---------------------------------|
|-2-----2-----2-----2-----2-------|


        PM    PM    PM    PM              PM    PM      PM    PM
                            |-3-|
  E S S S S S S S S S S S S S S S   E S S S S S S E S S S S S S
|---------------------------------|------------------------------|
|---------------------------------|------------------------------|
|---------------------------------|------------------------------|
|---4p2---4p2---4p2---4p2---4p2p0-|---4p2---4p2-----4p2---4p2----|
|-0-----0-----0-----0-----0-------|------------------------------|
|---------------------------------|-4-----4-----4-3-----3-----3--|


  Gtr I
    PM|   PM--|                            PM    PM       PM    PM
                                                                  |-3-|
  E S S S S S S  S     S S S Q      E  S S S S S S   S  S S S S S S S S
|-------------------------------|---------------------------------------|
|-------------------------------|---------------------------------------|
|-------------------------------|---------------------------------------|
|-------4----------------4------|------4p2---4p2-----4p=2---4p2---4p2p0-|
|-------------------------------|---------------------------------------|
|-2-2-2---2-2-2--0-----2---2----|---2------2-----2--------2-----2-------|
|
| Gtr III
| H              H                 +H               +H
|-------------------------------|---------------------------------------|
|---------------12b14===========|=(12)-------------(12)-----------------|
|-------------------------------|---------------------------------------|
|-------------------------------|---------------------------------------|
|-------------------------------|---------------------------------------|
|-------------------------------|---------------------------------------|


           PM    PM    PM    PM                   PM     PM    PM    PM
                               |-3-|                                   |-3-|
    E  S S S S S S S S S S S S S S S     E  S S   S  S S S S S S S S S S S S
|------------------------------------|------------------------------------------|
|------------------------------------|------------------------------------------|
|------------------------------------|------------------------------------------|
|------4p2---4p2---4p2---4p2---4p2p0-|------4p2------4p2---4p2---4p2---4p2p0----|
|---0------0-----0-----0-----0-------|------------------------------------------|
|------------------------------------|---2--------2------2-----2-----2----------|
|
|                                                          <
|  +W                                   +Q       +Q        H
|------------------------------------|------------------------------------------|
|-(12)-------------------------------|-(12)r====(12)----------------------------|
|------------------------------------|---------------------9--------------------|
|------------------------------------|------------------------------------------|
|------------------------------------|------------------------------------------|
|------------------------------------|------------------------------------------|


          PM    PM          PM         PM                  PM    PM    PM    PM
                                           |-3--|                              |-3-|
   E  S S S S S S  S    S   S  S  S    S   S  S S    E S S S S S S S S S S S S S S S
|-------------------------------------------------|----------------------------------|
|-------------------------------------------------|----------------------------------|
|-------------------------------------------------|----------------------------------|
|-----4p2---4p2----4p===2------4p=2--------4p=2p0-|----4p2---4p2---4p2---4p2---4p2p0-|
|--0------0-----0-----------0----------0----------|----------------------------------|
|-------------------------------------------------|--2-----2-----2-----2-----2-------|
|
|                                                    >
|                                                    ~~~~~~~~~~~~~~~~~~~~~~~~~~~~~~~~~
| +H               E       +E     E       +E         W
|-------------------------------------------------|----------------------------------|
|-----------------12b13---(12)---10b11---(10)-----|----------------------------------|
|-(9)---------------------------------------------|-11-------------------------------|
|-------------------------------------------------|----------------------------------|
|-------------------------------------------------|----------------------------------|
|-------------------------------------------------|----------------------------------|


           PM    PM        PM    PM                   PM    PM          PM    PM
                                   |---3----|
    E  S S S S S S  S    S S S S S S S      S   E S S S S S S  E    S S S S S S
|---------------------------------------------|------------------------------------|
|---------------------------------------------|------------------------------------|
|---------------------------------------------|------------------------------------|
|------4p2---4p2----4p===2---4p2---4p2p=====0-|---4p2---4p2---------4p2---4p2------|
|---0------0-----0---------0-----0------------|------------------------------------|
|---------------------------------------------|-4-----4-----4--3--------3-----3----|
|
|~~~~~~
|  +H               Q..                 +S      H              H
|---------------------------------------------|------------------------------------|
|------------------12b13---------------(12)---|-9-------------12b14----------------|
|-(11)----------------------------------------|------------------------------------|
|---------------------------------------------|------------------------------------|
|---------------------------------------------|------------------------------------|
|---------------------------------------------|------------------------------------|


                                                     Bb5          N.C.
           PM---------|            PM-----|                       PM--------
           |-3--| |-3-|
   Q  Q    S  S S S S S S S S S    S  S S S  E S S S S   +E       S S  S S
|-------------------------------||-----------------------------------------|
|-------------------------------||-----------------------------------------|
|-------------------------------||-----------------------------------------|
|-------------------------------||-------------------3---(3)---------------|
|--4--2----3--3-3-3-3-3-2p0-----||-----------3-1h2h3-1---(1)---------------|
|--2--0---------------------3p0-||-3--1-3-1-----------------------1-0--1-2-|
|
|                               Gtr II               Gtr IV       Gtr II
|          >
|                                                    TPTP TPTPTPTP  ~~
|  H      +H                       E.     E.   E.    T T  T T T T S E.
|-------------------------------||-----------------------------------------|
|-12-----(12)-------------------||-----------------------------------------|
|-------------------------------||-5------4----3---------------------------|
|-------------------------------||-5------4----3------------------5--------|
|-------------------------------||----------------------------------3------|
|-------------------------------||-------------------xsxs=xsxsxsx----------|


                    Bb5          N.C.
 --------|                       PM--------|
  S  S S S  E S S S S   +E       S S     S S
|--------------------------------------------|
|--------------------------------------------|
|--------------------------------------------|
|-------------------3---(3)------------------|
|-----------3-1h2h3-1---(1)------------------|
|-3--1-3-1-----------------------1-0-----1-2-|
|
|                   Gtr IV       Gtr II
|                   TPTP TPTPTPTP
| E.     E.   E.    T T  T T T T S E.
|--------------------------------------------|
|--------------------------------------------|
|-5------4----3------------------------------|
|-5------4----3------------------------------|
|--------------------------------7-----------|
|-------------------xsxs=xsxsxsx---6b6.5-----|


                    Bb5     N.C.                            Bb5     N.C.
  PM-----|                  PM------------------|                   PM----|
  S  S S S  E S S S S +E    S S    S  S   S S S S E   S S S S +E    S S S S
|---------------------------------------|------------------------------------|
|---------------------------------------|------------------------------------|
|---------------------------------------|------------------------------------|
|-------------------3-(3)---------------|-------------------3-(3)------------|
|-----------3-1h2h3-1-(1)---------------|---------3---1h2h3-1-(1)------------|
|-3--1-3-1------------------1-0----1--2-|-3-1-3-1-------------------1-0-1-2--|
|
|                                  ~~~
| E.     E.   E.    E     S S S   +E      E   S E   S E   S E     S S S E
|---------------------------------------|------------------------------------|
|---------------------------------------|------------------------------------|
|-5------4----3-----3-------3-5b6r(5)---|-3---x-5---x-3---x-5-----x-3-x-5----|
|-5------4----3-----------5-------------|-3---x-5---x-3---x-5-----x-3-x-5----|
|---------------------------------------|------------------------------------|
|---------------------------------------|------------------------------------|


                          Bb5   N.C.
  PM--------|                   PM-----------
  S   S   S S E S   S   S S +E  S   S   S S
|-------------------------------------------|
|-------------------------------------------|
|-------------------------------------------|
|-------------------------3-(3)-------------|
|-------------3-1h==2h==3-1-(1)-------------|
|-3---1---3-1-------------------1---0---1-2-|
|
| |--3--|       |--3--|         |--3--|
| S S   S E   E S S   S E    E  S S   S S S
|-------------------------------------------|
|-------------------------------------------|
|---------3-------------5---------------3---|
|-3h4h==5-----5-3h4h==5------5--3h4h==5---5-|
|-------------------------------------------|
|-------------------------------------------|


                          Bb5   N.C.
 -----------|                   PM--------|
  S   S   S S E S   S   S S +E  S   S   S S
|-------------------------------------------|
|-------------------------------------------|
|-------------------------------------------|
|-------------------------3-(3)-------------|
|-------------3-1h==2h==3-1-(1)-------------|
|-3---1---3-1-------------------1---0---1-2-|
|
|         ~
| |--3--|       |--3--|         |--3--|
| S S   S E   E S S   S E    E  S S   S E
|-------------------------------------------|
|-------------------------------------------|
|---------3-------------5---------------3---|
|-3h4h==5-----5-3h4h==5------5--3h4h==5-----|
|-------------------------------------------|
|-------------------------------------------|


                                          Bb5           N.C.
   PM-------------|                                      PM----------------
   S  S     S     S  E        S     S  S  S     +E       S  S     S     S
|-------------------------------------------------------------------------|
|-------------------------------------------------------------------------|
|-------------------------------------------------------------------------|
|-----------------------------------------3-----(3)-----------------------|
|--------------------3--------1h====2h=3--1-----(1)-----------------------|
|--3--1-----3-----1--------------------------------------1--0-----1-----2-|
|
|  |-----3-----|     |-----3-----|     |------3------|   |-----3-----|
|  E     E     E     E     E     E     E     E       E   E     E     E
|-------------------------------------------------------------------------|
|-------------------------------------------------------------------------|
|-[5]---[3]---------[3]b4-------------------------------------------------|
|-------------[5]---------[5]---[4]---[3]-----------[3]-------------------|
|-------------------------------------------[5]---------[5]---[4]---[3]---|
|-------------------------------------------------------------------------|


                                    Bb5        N.C.
 -------------|                                PM----------|
  S   S   S   S   E     S   S   S   S   +E     S   S   S   S
|---------------------------------------------------------------|
|---------------------------------------------------------------|
|---------------------------------------------------------------|
|-----------------------------------3---(3)---------------------|
|-----------------3-----1h==2h==3---1---(1)---------------------|
|-3---1---3---1--------------------------------1---0---1---2----|
|
| |------6------| |-----6-----| |-----6------| |------6------|
| S S   S S S   S S S S S S   S S S   S  S S S S S   S S S   S
|---------------------------------------------------------------|
|---------------------------------------------------------------|
|---------------------------------------------------------------|
|---------------------------------------------------------------|
|---------------------------------------------------------------|
|-6p3p==0-6p3p==0-6p3p0-6p3p==0-6p3p==0--6p3p0-6p3p==0-6p3p==0--|


   S    S     S    S     S    S     S    S     S    S     S    S     S    S     S    S
|-----------------------------------------------------------------------------------------|
|-----------------------------------------------------------------------------------------|
|-----------------------------------------------------------------------------------------|
|-----------------------------------------------------------------------------------------|
|-----------------------------------5----4-----3----2-----3----4-----5--------------------|
|--5----2-----3----4-----5----2-------------------------------------------2-----3----4----|
|
|  |--------6---------|  |--------6---------|  |--------6---------|  |--------6---------|
|  S  S    S  S  S    S  S  S    S  S  S    S  S  S    S  S  S    S  S  S    S  S  S    S
|-22p17------20p17------------------------------------------------------------------------|
|---------17---------20-22-17h==22-20p17------22p17------20p17----------------------------|
|------------------------------------------20---------20---------19-21p20p==17-19p17------|
|--------------------------------------------------------------------------------------19-|
|-----------------------------------------------------------------------------------------|
|-----------------------------------------------------------------------------------------|


   S    S     S    S     S    S     S    S     S    S     S    S     S    S     S    S
|--------------------------------------------------------------------------------------------|
|--------------------------------------------------------------------------------------------|
|--------------------------------------------------------------------------------------------|
|--------------------------------------------------------------------------------------------|
|-----------------------------------5----4-----3----2-----3----4-----5-----------------------|
|--5----2-----3----4-----5----2-------------------------------------------2-----3----4-------|
|
|  |--------6---------|  |--------6---------|  |--------6---------|  |--------6---------|
|  S  S    S  S  S    S  S  S    S  S  S    S  S  S    S  S  S    S  S  S    S  S  S    S
|--------------------------------------------------------------------------------------------|
|--------------------------------------------------------------------------------------------|
|-20p17------19p17----------------------------19p17h==19p17h19p==17h19p17h==19p17h19p==17----|
|---------19---------19-22p20p==17-19p17-----------------------------------------------------|
|------------------------------------------19------------------------------------------------|
|--------------------------------------------------------------------------------------------|


   S    S     S    S     S    S     S    S     S    S     S    S     S    S     S    S
|--------------------------------------------------------------------------------------------|
|--------------------------------------------------------------------------------------------|
|--------------------------------------------------------------------------------------------|
|--------------------------------------------------------------------------------------------|
|-----------------------------------5----4-----3----2-----3----4-----5-----------------------|
|--5----2-----3----4-----5----2-------------------------------------------2-----3----4-------|
|
|  |--------6---------|  |--------6---------|  |--------6---------|  |----------6----------|
|  S  S    S  S  S    S  S  S    S  S  S    S  S  S    S  S  S    S  S  S    S  S  S    T  T
|--------------------------------------------------------------------------------------------|
|--------------------------------------------------------------------------------------------|
|-23p19p==17----17---19-23p19p==17----17---19-23p19p==17-24p19p==17-23p19p==17-19p17---19p17-|
|------------19--------------------19--------------------------------------------------------|
|--------------------------------------------------------------------------------------------|
|--------------------------------------------------------------------------------------------|


   S    S     S    S     S    S     S    S     S    S     S    S     S    S     S    S
|--------------------------------------------------------------------------------------------|
|--------------------------------------------------------------------------------------------|
|--------------------------------------------------------------------------------------------|
|--------------------------------------------------------------------------------------------|
|-----------------------------------5----4-----3----2-----3----4-----5-----------------------|
|--5----2-----3----4-----5----2-------------------------------------------0-----1----2-------|
|
|  |--------6---------|  |--------6---------|  |--------6---------|  |--------6---------|
|  S  S    S  S  S    S  S  S    S  S  S    S  S  S    S  S  S    S  S  S    S  S  S    S
|---------------------------------------------20p19p==17-20p19p==17-22p20p==17-22p20p==17----|
|-20p19p==17-20p19p==17-22p20p==17-22p20p==17------------------------------------------------|
|--------------------------------------------------------------------------------------------|
|--------------------------------------------------------------------------------------------|
|--------------------------------------------------------------------------------------------|
|--------------------------------------------------------------------------------------------|


   S    S     S    S     S    S     S    S     S    S     S    S     S    S     S    S
|-----------------------------------------------------------------------------------------|
|-----------------------------------------------------------------------------------------|
|-----------------------------------------------------------------------------------------|
|-----------------------------------------------------------------------------------------|
|-----------------------------------3----2-----1----0-----1----2-----3--------------------|
|--3----0-----1----2-----3----4-------------------------------------------0-----1----2----|
|
|  |--------6---------|  |--------6---------|  |--------6---------|  |--------6---------|
|  S  S    S  S  S    S  S  S    S  S  S    S  S  S    S  S  S    S  S  S    S  S  S    S
|-18p15------18p15------18p15------17p15------18p15------20p15------18p15------17p15------|
|---------15---------15---------15---------15---------15---------15---------15---------16-|
|-----------------------------------------------------------------------------------------|
|-----------------------------------------------------------------------------------------|
|-----------------------------------------------------------------------------------------|
|-----------------------------------------------------------------------------------------|


   S    S     S    S     S    S     S    S     S    S     S    S     S    S     S    S
|--------------------------------------------------------------------------------------------|
|--------------------------------------------------------------------------------------------|
|--------------------------------------------------------------------------------------------|
|--------------------------------------------------------------------------------------------|
|-----------------------------------3----2-----1----0-----1----2-----3-----------------------|
|--3----0-----1----2-----3----4-------------------------------------------0-----1----2-------|
|
|  |--------6---------|  |--------6---------|  |--------6---------|  |--------6---------|
|  S  S    S  S  S    S  S  S    S  S  S    S  S  S    S  S  S    S  S  S    S  S  S    S
|-18p15------18p15------18p15------17p15------18p15------20p15------18p15------17p15---------|
|---------16---------16---------16---------16---------16---------16---------16---------17----|
|--------------------------------------------------------------------------------------------|
|--------------------------------------------------------------------------------------------|
|--------------------------------------------------------------------------------------------|
|--------------------------------------------------------------------------------------------|


   S    S     S    S     S    S     S    S     S    S     S    S     S    S     S    S
|-----------------------------------------------------------------------------------------|
|-----------------------------------------------------------------------------------------|
|-----------------------------------------------------------------------------------------|
|-----------------------------------------------------------------------------------------|
|-----------------------------------3----2-----1----0-----1----2-----3--------------------|
|--3----0-----1----2-----3----4-------------------------------------------0-----1----2----|
|
|  |--------6---------|  |--------6---------|  |--------6---------|  |--------6---------|
|  S  S    S  S  S    S  S  S    S  S  S    S  S  S    S  S  S    S  S  S    S  S  S    S
|-18p15------18p15------18p15------17p15------18p15------20p15------18p15------17p15------|
|---------17---------17---------17---------17---------17---------17---------17---------16-|
|-----------------------------------------------------------------------------------------|
|-----------------------------------------------------------------------------------------|
|-----------------------------------------------------------------------------------------|
|-----------------------------------------------------------------------------------------|


   S    S     S    S     S    S     S    S     S    S     S    S     S    S     S    S
|---------------------------------------------------------------------------------------------|
|---------------------------------------------------------------------------------------------|
|---------------------------------------------------------------------------------------------|
|---------------------------------------------------------------------------------------------|
|-----------------------------0-----3----2-----1----0-----1----2-----3----0-------------------|
|--3----0-----1----2-----3------------------------------------------------------4----3--------|
|
|  |--------6---------|  |--------6---------|  |--------6---------|  |--------6---------|
|  S  S    S  S  S    S  S  S    S  S  S    S  S  S    S  S  S    S  S  S    S  S  S    S
|-18p15------18p15------18p15------17p15------18p15------20p15------18p15------17p15----------|
|---------16---------16---------16---------16---------16---------16---------16---------15\----|
|---------------------------------------------------------------------------------------------|
|---------------------------------------------------------------------------------------------|
|---------------------------------------------------------------------------------------------|
|---------------------------------------------------------------------------------------------|


       PM|   PM--|                     PM|   PM--|
  E    S S S S S S S S S S Q     E     S S S S S S S S S S Q
|-----------------------------|-------------------------------|
|-----------------------------|-------------------------------|
|-----------------------------|-------------------------------|
|----------4-----------4------|------------4-----------4------|
|-----------------------------|-------------------------------|
|-2----2-2---2-x-x-0-2---2----|--2-----2-2---2-x-x-0-2---2----|
|
| W                             +W
|-0tr2------------------------|-(0tr2)------------------------|
|-----------------------------|-------------------------------|
|-----------------------------|-------------------------------|
|-----------------------------|-------------------------------|
|-----------------------------|-------------------------------|
|-----------------------------|-------------------------------|


         PM|   PM--|                      PM--|       PM-------|
   E     S S S S S S S S S S Q    E       S   S   S   S   S    S S   S   S   S   Q
|-------------------------------|-------------------------------------------------------------|
|-------------------------------|-------------------------------------------------------------|
|-------------------------------|-------------------------------------------------------------|
|------------4-----------4------|-----------------4----------------------4--------------------|
|-------------------------------|-------------------------------------------------------------|
|--2-----2-2---2-x-x-0-2---2----|-2-------2---2-------2---x----x-0---2-------2----------------|
|
|                                 Gtr IV                  Gtr II Gtr IV                  Gtr II
|                                 TPTPTPTPTPTPTPTPTPTPTPTP       TPTPTPTPTPTPTPTPTPTPTPTP
| +W                              T T T T T T T T T T T T E      T T T T T T T T T T T T E
|-(0tr2)------------------------|-------------------------0tr2---------------------------0tr2-|
|-------------------------------|-------------------------------------------------------------|
|-------------------------------|-------------------------------------------------------------|
|-------------------------------|-------------------------------------------------------------|
|-------------------------------|-------------------------------------------------------------|
|-------------------------------|-xsxsxsxsxsxsxsxsxsxsxsx--------xsxsxsxsxsxsxsxsxsxsxsx------|


 Verse
  Gtr I
    PM|   PM--|                PM|   PM--|
  E S S S S S S S S S S Q    E S S S S S S S S S S Q
|--------------------------|--------------------------|
|--------------------------|--------------------------|
|--------------------------|--------------------------|
|-------4-----------4------|-------4-----------4------|
|--------------------------|--------------------------|
|-2-2-2---2-x-x-0-2---2----|-2-2-2---2-x-x-0-2---2----|
|
| Gtr III
| W                          W
|--------------------------|--------------------------|
|--------------------------|--------------------------|
|--------------------------|--------------------------|
|--------------------------|--------------------------|
|--------------------------|--------------------------|
|--------------------------|--------------------------|


    PM|   PM--|                 PM|   PM--|                PM|
  E S S S S S S S S S S Q    E  S S S S S S S S S S  E     S S
|--------------------------|-------------------------------------|
|--------------------------|-------------------------------------|
|--------------------------|-------------------------------------|
|-------4-----------4------|--------4-----------4----------------|
|--------------------------|-------------------------------------|
|-2-2-2---2-x-x-0-2---2----|-2--2-2---2-x-x-0-2---2--------x-x---|
|
| W                          H.                      Q
|--------------------------|-------------------------------------|
|--------------------------|-------------------------------------|
|--------------------------|------------------------17b18========|
|--------------------------|------------------------16b17========|
|--------------------------|-------------------------------------|
|--------------------------|-------------------------------------|


       PM|      PM--|                       PM|   PM--|
    E  S S   S  S S S S S S   S   Q      E  S S S S S S S S S S Q
|------------------------------------|-----------------------------|
|------------------------------------|-----------------------------|
|------------------------------------|-----------------------------|
|------------4------------4----------|----------4-----------4------|
|------------------------------------|-----------------------------|
|---2--2-2------2-x-x-0-2-----2------|---2--2-2---2-x-x-0-2---2----|
|
|                                 ~~~~~~~~~~
|  +Q       +Q..             +S   Q     +W
|------------------------------------|-----------------------------|
|------------------------------------|-----------------------------|
|-(17)-----(17)r============(17)-----|-----------------------------|
|-(16)-----(16)r============(16)-16--|-(16)------------------------|
|------------------------------------|-----------------------------|
|------------------------------------|-----------------------------|


    PM|   PM--|                    PM------|   PM--------|           PM|
  E S S S S S S S S S S Q     E    S       S S S       S S S S S S E S S
|--------------------------|---------------------------------------------|
|--------------------------|---------------------------------------------|
|--------------------------|---------------------------------------------|
|-------4-----------4------|-----------------4-----------------4---------|
|--------------------------|---------------------------------------------|
|-2-2-2---2-x-x-0-2---2----|--2----2-------2---2-------x-x-0-2---2---x-x-|
|
|                                                          ~
|                             |---------3---------|
| W                           Q       Q           Q        H
|--------------------------|---------------------------------------------|
|--------------------------|---------------------------------------------|
|--------------------------|---------------------------------------------|
|--------------------------|-[7]b8---[7]b8-------[7]b8r==================|
|--------------------------|-------------------------------9-------------|
|--------------------------|---------------------------------------------|


    PM|   PM--|                PM|   PM--|
  E S S S S S S S S S S Q    E S S S S S S  S    S       S    S  Q
|--------------------------|---------------------------------------------|
|--------------------------|---------------------------------------------|
|--------------------------|---------------------------------------------|
|-------4-----------4------|-------4---------------------4---------------|
|--------------------------|---------------------------------------------|
|-2-2-2---2-x-x-0-2---2----|-2-2-2---2-x-x--0----2------------2----------|
|
|                                           |-------3-------|    |--3--|
| W                          H              e       e       e    e  e  e
|--------------------------|---------------------------------------------|
|--------------------------|---------------------------------------------|
|--------------------------|---------------16b18---16b18---16---14-14-14-|
|--------------------------|---------------------------------------------|
|--------------------------|---------------------------------------------|
|--------------------------|---------------------------------------------|


     PM|    PM--|                PM|   PM--|           PM|
   E S S S  S S S S S S S Q    E S S S S S S S S S S E S S
|----------------------------|--------------------------------|
|----------------------------|--------------------------------|
|----------------------------|--------------------------------|
|--------4------------4------|-------4-----------4------------|
|----------------------------|--------------------------------|
|--2-2-2----2-x-x-0-2---2----|-2-2-2---2-x-x-0-2---2---x-x----|
|
|  ~~
|  Q     H.                    W
|----------------------------|--------------------------------|
|----------------------------|--------------------------------|
|-14-------------------------|--------------------------------|
|----------------------------|--------------------------------|
|----------------------------|--------------------------------|
|----------------------------|--------------------------------|


    PM|   PM--|                PM|   PM--|                PM|   PM--|
  E S S S S S S S S S S Q    E S S S S S S S S S S Q    E S S S S S S S S S S Q
|--------------------------|--------------------------|--------------------------|
|--------------------------|--------------------------|--------------------------|
|--------------------------|--------------------------|--------------------------|
|-------4-----------4------|-------4-----------4------|-------4-----------4------|
|--------------------------|--------------------------|--------------------------|
|-2-2-2---2-x-x-0-2---2----|-2-2-2---2-x-x-0-2---2----|-2-2-2---2-x-x-0-2---2----|
|
| W                          W                          W
|--------------------------|--------------------------|--------------------------|
|--------------------------|--------------------------|--------------------------|
|--------------------------|--------------------------|--------------------------|
|--------------------------|--------------------------|--------------------------|
|--------------------------|--------------------------|--------------------------|
|--------------------------|--------------------------|--------------------------|


           PM|        PM---|                         PM--|
   E       S  S     S S  S S S   S   S   S   E       S   S
|---------------------------------------------------------------|
|---------------------------------------------------------------|
|---------------------------------------------------------------|
|-------------------4----------------4--------------------------|
|---------------------------------------------------------------|
|--2-------2--2-------2--x-x-0---2-------2-----------x---x------|
|
|                                Gtr IV
|                            TPTPTPTPTPTPTPTPTPTPTPTPTPTPTPTP
|  S     E    S     E    E   T T T T T T T T T T T T T T T T
|-------14---------14---14--------------------------------------|
|-------14---------14---14--------------------------------------|
|-16b18------16b18----------------------------------------------|
|---------------------------------------------------------------|
|---------------------------------------------------------------|
|----------------------------xsxsxsxsxsxsxsx-xsxsxsxsxsxsxsx----|


 Solo (Mustaine)
  F#5                F5                  E5                Eb5
  Gtr I
  S  S S S   S S S S S  S S S  S S S S   S  S S S  S S S S S  S S  S  S S S S
|--------------------------------------|---------------------------------------|
|--------------------------------------|---------------------------------------|
|-----------11-------------------------|-----------9---------------------------|
|--------------------------------------|---------------------------------------|
|-9--9-9-9-----9-9-9-8--8-8-8--8-8-8-8-|-7--7-7-7----7-7-7-6--6-6--6--6-6-6-6--|
|--------------------------------------|---------------------------------------|
|
| Gtr II
|                                                      ~
| E.     E.      E   E.     E.     E     E.     E.     E   E.      E.     E
|--------------------------------------|---------------------------------------|
|--------------------------------------|---------------------------------------|
|----------------2---------------------|---------------------------------------|
|-4------------------3-----------------|-2--------------------------------9----|
|--------4------------------4------3---|--------4------3---2------/6-----------|
|--------------------------------------|---------------------------------------|


  F#5                F#5                 E5              Eb5
  S  S S S   S S S S S  S S S  S S S S   S S S S S S S S S S S S S S S S
|--------------------------------------|----------------------------------|
|--------------------------------------|----------------------------------|
|-----------11-------------------------|---------9------------------------|
|--------------------------------------|----------------------------------|
|-9--9-9-9-----9-9-9-8--8-8-8--8-8-8-8-|-7-7-7-7---7-7-7-6-6-6-6-6-6-6-6--|
|--------------------------------------|----------------------------------|
|
| E.     E.      E   E.     E.     E     S S S S S S S S S S S S S S S S
|--------------------------------------|----------------------------------|
|--------------------------------------|----------------------------------|
|----------------2-----------------2---|-4-4p2----------------------------|
|-4------------------3-----------------|-------4-4-4p3p2-4-3-2---2--------|
|--------4------------------4----------|-----------------------4---4-3-2--|
|--------------------------------------|----------------------------------|


  F#5                F5                  E5                Eb5
  S  S S S   S S S S S  S S S  S S S S   S  S S S  S S S S S  S S S  S S  S S
|--------------------------------------|---------------------------------------|
|--------------------------------------|---------------------------------------|
|-----------11-------------------------|-----------9---------------------------|
|--------------------------------------|---------------------------------------|
|-9--9-9-9-----9-9-9-8--8-8-8--8-8-8-8-|-7--7-7-7----7-7-7-6--6-6-6--6-6--6-6--|
|--------------------------------------|---------------------------------------|
|
|                    ~~
| E.     E.      E   E.     E.     E     E.     E.     E   E.     E.      E
|----------------5-----------------5---|---------------------------------------|
|-7------------------6-----------------|-5-------------------------------12----|
|--------6------------------6----------|--------6------5---4------8------------|
|--------------------------------------|---------------------------------------|
|--------------------------------------|---------------------------------------|
|--------------------------------------|---------------------------------------|


  D5                      C#5                       C5                   A5BbB5
                                                                         |-3-|
   S  S  S  S  S  S  S  S  S  S  S  S  S  S  S  S   S  S  S  S S  S  S S Q Q Q
|-------------------------------------------------|----------------------------|
|-------------------------------------------------|----------------------------|
|--------------7----------------------------------|----------------------------|
|-------------------------------------------------|----------------------2-3-4-|
|--5--5--5--5-----5--5--5--4--4--4--4--4--4--4--4-|-3--3--3--3-3--3--3-3-0-1-2-|
|-------------------------------------------------|----------------------------|
|
|                                                                        |-3-|
|  S  S  S  S  S  S  S  S  S  S  S  S  S  S  S  S   S  S  S  S S  E.     Q Q Q
|-------------------------------------------------|----------------------------|
|-15----------------------------------------------|----------------------------|
|----11----------14p11-13p10----------10-13p10-12p|=9----------9-12\-----------|
|-------12h14p12-------------11h13p11-------------|---10h12p10-----------7-8-9-|
|-------------------------------------------------|----------------------------|
|-------------------------------------------------|----------------------------|


 Chorus
  N.C.
    PM|      PM--|            PM|   PM--|
                   |-3-|                  |-3-|
  E S S  S   S S S Q Q Q    E S S S S S S Q Q Q
|-------------------------|---------------------|
|-------------------------|---------------------|
|-------------------------|---------------------|
|--------4-------------2--|-------4---------2---|
|------------------3-4----|---------------5---5-|
|-2-2-2------2-x-x--------|-2-2-2---2-x-x-------|
|
| Q     +Q         H        W
|-------------------------|---------------------|
|-------------------------|---------------------|
|-------------------------|---------------------|
|-------------------------|---------------------|
|-9-----(9)\--------------|---------------------|
|-------------------------|---------------------|


    PM|   PM--|           PM|   PM--|
                |-3-|                 |-3-|
  E S S S S S S Q Q Q   E S S S S S S Q Q Q
|---------------------|-----------------------|
|---------------------|-----------------------|
|---------------------|-----------------------|
|-------4-----------2-|-------4---------2-----|
|---------------3-4---|---------------5---5---|
|-2-2-2---2-x-x-------|-2-2-2---2-x-x---------|
|
| W                     W
|---------------------|-----------------------|
|---------------------|-----------------------|
|---------------------|-----------------------|
|---------------------|-----------------------|
|---------------------|-----------------------|
|---------------------|-----------------------|


 Solo (Mustaine)
  F#5                   F5
   S S  S  S  S  S  S S  S S  S  S S  S  S S
|--------------------------------------------|
|--------------------------------------------|
|------------11------------------------------|
|--------------------------------------------|
|--9-9--9--9-----9--9-9--8-8--8--8-8--8--8-8-|
|--------------------------------------------|
|
|  T       T        T    T       T       T
|  S S  S  S  S  S  S S  S S  S  S S  S  S S
|-17-0h14-17--0h14-17-0-17-0h13-17-0h13-17-0-|
|--------------------------------------------|
|--------------------------------------------|
|--------------------------------------------|
|--------------------------------------------|
|--------------------------------------------|


  E5                   Eb5
   S S  S  S S  S  S S  S S  S  S S  S  S S
|--------------------------------------------|
|--------------------------------------------|
|------------9-------------------------------|
|--------------------------------------------|
|--7-7--7--7----7--7-7--6-6--6--6-6--6--6-6--|
|--------------------------------------------|
|
|  T       T       T    T       T       T
|  S S  S  S S  S  S S  S S  S  S S  S  S S
|-17-0h12-17-0h12-17-0-17-0h11-17-0h11-17-0--|
|--------------------------------------------|
|--------------------------------------------|
|--------------------------------------------|
|--------------------------------------------|
|--------------------------------------------|


  F#5                   F5
   S S  S  S  S  S  S S  S S  S  S S  S  S S
|--------------------------------------------|
|--------------------------------------------|
|------------11------------------------------|
|--------------------------------------------|
|--9-9--9--9-----9--9-9--8-8--8--8-8--8--8-8-|
|--------------------------------------------|
|
|  T       T        T    T       T       T
|  S S  S  S  S  S  S S  S S  S  S S  S  S S
|-17-0h14-17--0h14-17-0-17-0h13-17-0h13-17-0-|
|--------------------------------------------|
|--------------------------------------------|
|--------------------------------------------|
|--------------------------------------------|
|--------------------------------------------|


  E5                   Eb5
   S S  S  S S  S  S S  S S  S  S S  S  S S
|--------------------------------------------|
|--------------------------------------------|
|------------9-------------------------------|
|--------------------------------------------|
|--7-7--7--7----7--7-7--6-6--6--6-6--6--6-6--|
|--------------------------------------------|
|
|  T       T       T    T       T       T
|  S S  S  S S  S  S S  S S  S  S S  S  S S
|-17-0h12-17-0h12-17-0-17-0h11-17-0h11-19-0--|
|--------------------------------------------|
|--------------------------------------------|
|--------------------------------------------|
|--------------------------------------------|
|--------------------------------------------|


  F#5                   F5
   S S  S  S  S  S  S S  S S  S  S S  S  S S
|--------------------------------------------|
|--------------------------------------------|
|------------11------------------------------|
|--------------------------------------------|
|--9-9--9--9-----9--9-9--8-8--8--8-8--8--8-8-|
|--------------------------------------------|
|
|  T       T        T    T       T       T
|  S S  S  S  S  S  S S  S S  S  S S  S  S S
|-17-0h14-17--0h14-17-0-17-0h13-17-0h13-17-0-|
|--------------------------------------------|
|--------------------------------------------|
|--------------------------------------------|
|--------------------------------------------|
|--------------------------------------------|


  E5                   Eb5
   S S  S  S S  S  S S  S S  S  S S  S  S S
|--------------------------------------------|
|--------------------------------------------|
|------------9-------------------------------|
|--------------------------------------------|
|--7-7--7--7----7--7-7--6-6--6--6-6--6--6-6--|
|--------------------------------------------|
|
|  T       T       T    T       T       T
|  S S  S  S S  S  S S  S S  S  S S  S  S S
|-17-0h12-17-0h12-17-0-17-0h11-17-0h11-17-0--|
|--------------------------------------------|
|--------------------------------------------|
|--------------------------------------------|
|--------------------------------------------|
|--------------------------------------------|


  D5                   C#5
   S S  S  S S  S  S S  S S S  S S S  S S
|-----------------------------------------|
|-----------------------------------------|
|------------7----------------------------|
|-----------------------------------------|
|--5-5--5--5----5--5-5--4-4-4--4-4-4--4-4-|
|-----------------------------------------|
|
|  T       T       T    T      T      T
|  S S  S  S S  S  S S  S S S  S S S  S S
|-14-0h10-14-0h10-14-0-13-0h9-13-0h9-13-0-|
|-----------------------------------------|
|-----------------------------------------|
|-----------------------------------------|
|-----------------------------------------|
|-----------------------------------------|


  C5                 A5    Bb5     B5
                     |------3------|
   S S S  S S S  S S Q     Q       Q
|-----------------------------------------|
|-----------------------------------------|
|-----------------------------------------|
|--------------------2-----3-------4------|
|--3-3-3--3-3-3--3-3-0-----1-------2------|
|-----------------------------------------|
|
|  T      T      T   T       T       T
|  S S S  S S S  S S S S S   S S S   S S
|-12-0h8-12-0h8-12-0-9-0h5---9-0h5---9-0--|
|-----------------------------------------|
|-----------------------------------------|
|-----------------------------------------|
|-----------------------------------------|
|-----------------------------------------|


 Chorus
  N.C.
     PM|   PM--|             PM|   PM--|
                 |-3-|                   |-3-|
   E S S S S S S Q Q Q    E  S S S S S S Q Q Q
|----------------------|-----------------------|
|----------------------|-----------------------|
|----------------------|-----------------------|
|--------4-----------2-|---------4---------2---|
|----------------3-4---|-----------------5---5-|
|--2-2-2---2-x-x-------|--2--2-2---2-x-x-------|
|
|                         >
|  ~~~~~~~~~~~~~~~~~~~~~~~~~~
|  W                     +W
|----------------------|-----------------------|
|-h7-------------------|-(7)-------------------|
|----------------------|-----------------------|
|----------------------|-----------------------|
|----------------------|-----------------------|
|----------------------|-----------------------|


    PM|   PM--|           PM|   PM--|
                |-3-|                 |-3-|
  E S S S S S S Q Q Q   E S S S S S S Q Q Q
|---------------------|---------------------|
|---------------------|---------------------|
|---------------------|---------------------|
|-------4-----------2-|-------4---------2---|
|---------------3-4---|---------------5---5-|
|-2-2-2---2-x-x-------|-2-2-2---2-x-x-------|
|
| W                     W
|---------------------|---------------------|
|---------------------|---------------------|
|---------------------|---------------------|
|---------------------|---------------------|
|---------------------|---------------------|
|---------------------|---------------------|


  Gtr I
    PM|   PM--|           PM|   PM--|
                |-3-|                 |-3-|
  E S S S S S S Q Q Q   E S S S S S S Q Q Q
|---------------------|---------------------|
|---------------------|---------------------|
|---------------------|---------------------|
|-------4-----------2-|-------4---------2---|
|---------------3-4---|---------------5---5-|
|-2-2-2---2-x-x-------|-2-2-2---2-x-x-------|


                                              F#5
    PM|   PM--|           PM|   PM--|
                |-3-|                 |-3-|
  E S S S S S S Q Q Q   E S S S S S S Q Q Q   H     H
|---------------------|---------------------|------------*|
|---------------------|---------------------|------------*|
|---------------------|---------------------|------------*|
|-------4-----------2-|-------4---------2---|------------*|
|---------------3-4---|---------------5---5-|-4\---------*|
|-2-2-2---2-x-x-------|-2-2-2---2-x-x-------|-2\---------*|



Duration Legend
---------------
W - whole; H - half; Q - quarter; E - 8th; S - 16th; T - 32nd; X - 64th; a - acciaccatura
+ - note tied to previous; . - note dotted; .. - note double dotted
Uncapitalized letters represent notes that are staccato (1/2 duration)
Irregular groupings are notated above the duration line
Duration letters will always appear directly above the note/fret number it represents the
duration for.  Duration letters with no fret number below them represent rests.  Multi-
bar rests are notated in the form Wxn, where n is the number of bars to rest for.  Low
melody durations appear below the staff

Tablature Legend
----------------
 h   - hammer-on
 p   - pull-off
 b   - bend
 pb  - pre-bend
 r   - bend release (if no number after the r, then release immediately)
 /\  - slide into or out of (from/to "nowhere")
 s   - legato slide
 S   - shift slide
<n> - natural harmonic
[n]  - artificial harmonic
n(n) - tapped harmonic
 ~   - vibrato
 tr  - trill
 T   - tap
 TP  - trem. picking
 PM  - palm muting
\n/  - tremolo bar dip; n = amount to dip
 \n  - tremolo bar down
 n/  - tremolo bar up
/n\  - tremolo bar inverted dip
 =   - hold bend; also acts as connecting device for hammers/pulls
 <> - volume swell (louder/softer)
 x   - on rhythm slash represents muted slash
 o   - on rhythm slash represents single note slash

Misc Legend
-----------
 |  - bar
||  - double bar
||o - repeat start
o|| - repeat end
*|  - double bar (ending)
 :  - bar (freetime)
 $  - Segno
 &  - Coda
Tempo markers - <E/E./Q/Q./H/H.> = BPM(8/16=s8/s16), where s8 = swing 8ths, s16 = swing 16ths

comments
We did not receive enough feedback on this tab! Please rate:
print report bad tab
1 2 3 4 5
I want to post or [tab]
guest
You may want to rate the tab now too:
select rating
Please do not post tabs as comments. Select "correction" instead!