Oops, an error
Loading. Please wait.

Sudden Death Tab

ver3
ver3

Whole song

Interactive

More versions @911Tabs.com
11,421 views 93 this week
10 commentsread comments
1 2 3 4 5
excellent!
x 5
Autoscroll
+/-
esc
set tempo
stop
Contributor
Difficulty
advanced
WARNING: You are trying to view
                                    content from Ultimate-Guitar.com
                                    in an unauthorized application,
                                    which is prohibited.

                                    Please use an official Ultimate
                                    Guitar Tabs application for iPhone,
                                    iPad or Android to access legitimate
                                    chords, guitar, bass, and drum tabs
                                    from Ultimate-Guitar.com database.

                                    Type "ultimate guitar tabs" in Apple
                                    App Store's or Android Market's
                                    search to find the application.



Artist: Megadeth
Song: Sudden Death
Album: Thirteen
Transcribed by: TheGobler

  Here it is,"Sudden Death",. This song is the album version from thirteen and there is
only some little differences between the two. This is my very first tab and I'm pretty
sure that its really accurate. Hope this helps you's
out and feel free to comment.

Intro
e|-----------------------------------------------------------|
B|-Let Ring--Let Ring----------------------------------------|
G|-----4---------3------Pick scratch up on the G string from-|
D|---2---------3--------base to the top pick up--------------|
A|-2---------1-----------------------------------------------|
E|-----------------------------------------------------------|

Intro Riff 1 over Intro solo(x3)
e|----------------------|
B|----------------------|
G|-----------3----------|
D|-2---------3----------|
A|-2---------1----------|
E|-0--------------------|

Riff 2 over solo1           ending 1 play(3x)    ending 2 play (1x)
e|---------------------------|------------------||-------------------|
B|---------------------------|------------------||-------------------|
G|---------------------------|------------------||-------------------|
D|------2---------2---------3|------------------||-------------------|
A|-2---------2---------1-----|----3-3-333-3-333-||----4-4-445-5-55552|
E|--0000-0000-0000-0000 0000-|00001-1-111-1-111-||00002-2-223-3-33330|
    **** **** **** **** ****  ***** * *** * ***   ***** * *** * *****

Solo 1   gradual fast picked bend and release
e|--------------------------------------------------------------------------|
B|--------------------------------------------------------------------------|
G|-3b4-4-4-4-4-4-4-4-4-4-4-4-4-4-4-4-4-4-4-4-4-4-4-4-4-4-4-4-4-4-4-4-4-4-4-4|
D|--------------------------------------------------------------------------|
A|--------------------------------------------------------------------------|
E|--------------------------------------------------------------------------|

e|--------------------------------------------------------------------------|
B|--------------------------------------------------------------------------|
G|-4-4-4-4-4-4br3p2p1-3b4br3p1-3b4r3p1/3-5b6br5p3\1-3b4br3p1----------------|
D|--------------------------------------------------------------------------|
A|--------------------------------------------------------------5h6h7p6p5p0-|
E|--------------------------------------------------------------------------|

e|-------------------------------19p15---------19p15----------19p15----|
B|-------------------------------------17---17-------17----17-------17-|
G|----------------------------------------16------------16-------------|
D|---------------------------------------------------------------------|
A|---------------------------------------------------------------------|
E|5h6h7p6p5p0-3h4h5p4p3p0-2h3p2p0--------------------------------------|

e|--19p15----------19p15----18p15----------18p15----------18p15---|
B|--------17----17-------17-------17----17-------17----17-------17|
G|-----------16----------------------16-------------15------------|
D|----------------------------------------------------------------|
A|----------------------------------------------------------------|
E|----------------------------------------------------------------|

e|18p15----------18p15------------------------15----------|
B|------17----17-------17------------------17-------------|
G|---------15-------------15------------15----------------|
D|--------------------------------------------------------|
A|----------------------------------10--------------------|
E|-------------------------------12-----------------------|
                                    *    *  *  *

e|--------------------------------------------------------------------------|
B|--------------------------------------------------------------------------|
G|-----------------------------------------------------12h15p12----12-15/18p|
D|-----------------------8h11p8----8-11/14p11----11-14----------14----------|
A|-7-4---4-7/10p7---7-10--------10------------13----------------------------|
E|6----6----------9---------------------------------------------------------|

e|---------------15-18----15-18----21-18-15-21-18-15-21---------------------|
B|------------17-------17-------17----------------------12h15p12----12h15p12|
G|15----15-18----------------------------------------------------15---------|
D|---17-------------------------------------------------{Riff2 starts)------|
A|--------------------------------------------------------------------------|
E|--------------------------------------------------------------------------|

e|--------------------------------------------------------------------------|
B|h15p12--12h15p12---12h15p12h15p12---12h15p12---12h15p12h15p12---12h15p12--|
G|------15---------15---------------15---------15---------------15--------15|
D|--------------------------------------------------------------------------|
A|--------------------------------------------------------------------------|
E|--------------------------------------------------------------------------|

e|------------------------------------------------------------------|
B|11h12h14p12111\10h11h13p11p10\9h10h12p10p9\8h9h11p9p8\7h8h10p8p7\6|
G|------------------------------------------------------------------|
D|------------------------------------------------------------------|
A|------------------------------------------------------------------|
E|------------------------------------------------------------------|

e|--------------------------------------------------|
B|6h7h9p7p6\5h6h8p6p5\4h5h7p5p4\3h4h6p4p3\2h3h5p3p2-|
G|--------------------------------------------------|
D|--------------------------------------------------|
A|--------------------------------------------------|
E|--------------------------------------------------|

e|--------------------------------------------------------------|
B|12h14h15p14p12-14h15p14p12-14h15p14p12-14h15p14p12-14h15p14p12|
G|--------------------------------------------------------------|
D|--------------------------------------------------------------|
A|--------------------------------------------------------------|
E|--------------------------------------------------------------|

e|-----------------------------------------------------------|
B|15h17p15p12-14h15p14p12-15h17p15p12-14h15p14p12-15h17p15p12|
G|-----------------------------------------------------------|
D|-----------------------------------------------------------|
A|-----------------------------------------------------------|
E|-----------------------------------------------------------|

e|--------------------------------------------------------------------|
B|14h15p14p12-14h15p14p12\11h12h14p12p11\10h11h13p11p10\9h10h12p10p9\8|
G|--------------------------------------------------------------------|
D|--------------------------------------------------------------------|
A|--------------------------------------------------------------------|
E|--------------------------------------------------------------------|

e|--------------------------------------------------------------------------|
B|8h9h11p9p8\7h8h10p8p7\6h7h9p7p6\5h6h8p6p5---------------------------------|
G|--------------------------------------(Pick scratch down and back up on D-|
D|-------------------------------------string-start from neck pickup down to|
A|----------------------------------------base pickup then back up)---------|
E|--------------------------------------------------------------------------|

e|------------------------------------------------------------------------|
B|17p16p15p12-17-17p16p15p12-17-17p16p15p12-17-17p16p15p12-17-17p16p15p12-|
G|------------------------------------------------------------------------|
D|------------------------------------------------------------------------|
A|------------------------------------------------------------------------|
E|------------------------------------------------------------------------|

e|---------------------------------------------17-17p16p15p12-17-17p16p15p12|
B|17-17p16p15p12-17-17p16p15p12-17-17p16p15p12------------------------------|
G|--------------------------------------------------------------------------|
D|--------------------------------------------------------------------------|
A|--------------------------------------------------------------------------|
E|--------------------------------------------------------------------------|

e|17-17p16p15p12-17-17p16p15p12-17-17p16p15p12-17-17p16p15p12-17-17p16p15p12|
B|--------------------------------------------------------------------------|
G|--------------------------------------------------------------------------|
D|--------------------------------------------------------------------------|
A|--------------------------------------------------------------------------|
E|--------------------------------------------------------------------------|

e|17-17p16p15p12----------17p15p12----------18p16p13----------19p17p14------|
B|---------------17-15-12----------18-16-13----------19-17-14---------------|
G|--------------------------------------------------------------------------|
D|--------------------------------------------------------------------------|
A|--------------------------------------------------------------------------|
E|--------------------------------------------------------------------------|

e|---------20p18p15----------21p19p16----------22p20p17----------23p21p18---|
B|20-18-15----------21-19-16----------22-20-17----------23-21-18------------|
G|--------------------------------------------------------------------------|
D|--------------------------------------------------------------------------|
A|--------------------------------------------------------------------------|
E|--------------------------------------------------------------------------|

e|----------24p22p19-24~~~~~\---|
B|-24-22-19---------------------|
G|------------------------------|
D|------------------------------|
A|------------------------------|
E|------------------------------|

Riff 3
e|---------------|
B|---------------| repeat riff 3 until end of solo 2 or just
G|---------------| repeat before and after solo 1
D|---------------|
A|---------------|
E|-00000000-0000-|
   ******** ****

solo 1
e|----------------------------------------14h18p14----------------14h18p14--|
B|----------------------16h19----------16----------16----------16---------16|
G|-------15h20-------15-------------15----------------15----15--------------|
D|----16----------16-------------16----------------------16-----------------|
A|-18----------18-------------18--------------------------------------------|
E|--------------------------------------------------------------------------|
-
e|14h18/23p18----------18h23p18----18h23~~-|
B|------------19----19----------19---------|
G|---------------20------------------------|
D|-----------------------------------------|
A|-----------------------------------------|
E|-----------------------------------------|



solo 2  Gradually bend 3 into a 4 and release with pulloffs
e|-----------------------------------------------------------------|
B|-----------------------------------------------------------------|
G|-3b4444444444444444444444444444444444444444br3p2p1p0h1p0h1p0-----|
D|-------------------------------------------------------------1/3-|
A|-----------------------------------------------------------------|
E|-----------------------------------------------------------------|


Riff 4   play(2x)                                          end with this
                                                           after 2nd time
e|---------------------------------------------------------||----------|
B|---------------------------------------------------------||----------|
G|---------------------------------------------------------||----------|
D|---------------------------------------------------------||-5--------|
A|---------------------------------------------------------||---3~-5---|
E|-1111-11111111-1111-11110000-0000-00000000-0000-00001111-||--------3~|
   **** ******** **** ******** **** ******** **** ********

Riff 5
e|-----------------------------------------------------------------|
B|-----------------------------------------------------------------|
G|---------0---------------0---------------0---------------0-------|
D|-----2-----2---2-----2-----2---2-----2-----2---2-----2-----2---2-|
A|---2---2-----2-----2---2-----2-----3---3-----3-----3---3-----3---|
E|-0---------------0---------------3---------------3---------------|
   * * * * * * * * * * * * * * * * * * * * * * * * * * * * * * * *
e|-----------------------------------------------------------------|
B|-----------------------------------------------------------------|
G|---------0---------------0---------------0---------------0-------|
D|-----2-----2---2-----2-----2---2-----4-----4---4-----4-----4---4-|
A|---4---4-----4-----4---4-----4-----5---5-----5-----5---5-----5---|
E|-4---------------4---------------5---------------5---------------|
   * * * * * * * * * * * * * * * * * * * * * * * * * * * * * * * *

e|-----------------------------------------------------------------|
B|---------1---------------1---------------1---------------1-------|
G|-----2-----2---2-----2-----2---2-----1-----1---1-----1-----1---1-|
D|---2---2-----2-----2---2-----2-----2---2-----2-----2---2-----2---|
A|-0---------------0-----------------------------------------------|
E|---------------------------------4---------------4---------------|
   * * * * * * * * * * * * * * * * * * * * * * * * * * * * * * * *

e|----------------------------------------------------------------|
B|---------1---------------1--------------------------------------|
G|-----0-----0---0-----0-----0---0-----0-------0-------0-------0--|
D|---2---2-----2-----2---2-----2-----4---4---4---4---4---4---4---4|
A|---------------------------------2-------0----------------------|
E|-3---------------3-------------------------------3-------2------|
   * * * * * * * * * * * * * * * * * * * * * * * * * * * * * * * *

Solo 3
e|-16p13-------------------13p10-----------------------------------|
B|-------15----------------------12----------------9h10h11h12p11p10|
G|----------16p13----13h16----------13p10----10h13-----------------|
D|----------------15----------------------12-----------------------|
A|-----------------------------------------------------------------|
E|-----------------------------------------------------------------|

e|--------------------------------------------10----------|
B|9h10h11h12p11p10-9h10h11h12p11p10-9h10h11h12--12p9\5~~~-|
G|--------------------------------------------------------|
D|--------------------------------------------------------|
A|--------------------------------------------------------|
E|--------------------------------------------------------|

Riff 6
e|-----------------------------------------|
B|-----------------------------------------|
G|-----------------------------------------|
D|-----------------------------------------|
A|------------------------------2-3-4-5-6-7|
E|-0000-0000-00000000-0000-0000-0-1-2-3-4-5|
   **** **** ******** **** **** * * * * * *

Riff7
e|---------------------------------------------------------|
B|---------------------------------------------------------|
G|---------------------------------------------------------|
D|---------------------------------------------------------|
A|---------------------------------------------------------|
E|-0000-0000-00000000-0000-00000000-0000-00000000-0000-0000|
   **** **** ******** **** ******** **** ******** **** ****

Solo4
e|-18h19p18----18h22p18h22p18----18h19p18h19p18----14h15p14p12-17p15p14p12|
B|----------20----------------20----------------20------------------------|
G|------------------------------------------------------------------------|
D|------------------------------------------------------------------------|
A|------------------------------------------------------------------------|
E|------------------------------------------------------------------------|

e|---------12h14h15h17p15p14p12---------------|
B|15p13h15----------------------15p14p13\5~~~-|
G|--------------------------------------------|
D|--------------------------------------------|
A|--------------------------------------------|
E|--------------------------------------------|


Riff7 play(1x)


Solo 5
e|-12----121212121212-12----1212121212-12----12121212-17p15p12---------|
B|-15b17-151515151515-15b17-1515151515-15b17-15151515----------17p15p12|
G|---------------------------------------------------------------------|
D|---------------------------------------------------------------------|
A|---------------------------------------------------------------------|
E|---------------------------------------------------------------------|

e|------------------------------|
B|------------------------------|
G|16p14p12----------------------|
D|---------14p13p12-------------|
A|------------------14p13p12\8~~|
E|------------------------------|


Riff 4 play(2x)
and end with
e|-------------|
B|-------------|
G|-------------|
D|-5-----------|
A|----3----5---|
E|-----------3-|


Interlude
e|-19-19p0-19-19p0-19-19p0-19-19p0-19p0-19p0-17p0-17-17p0-17p0-0-17-17p0|
B|----------------------------------------------------------------------|
G|----------------------------------------------------------------------|
D|----------------------------------------------------------------------|
A|----------------------------------------------------------------------|
E|----------------------------------------------------------------------|

e|17p0-17p0-15-15p0-17-17p0-15p0-14-14p0-15-15p0-14p0-12-12p0-12-12p0-12p0|
B|------------------------------------------------------------------------|
G|------------------------------------------------------------------------|
D|------------------------------------------------------------------------|
A|------------------------------------------------------------------------|
E|------------------------------------------------------------------------|

e|12-12p0-12/19p0-19-19p0-19-19p0-19-19p0-19p0-19p0-17p0-17-17p0-17p0-0|
B|---------------------------------------------------------------------|
G|---------------------------------------------------------------------|
D|---------------------------------------------------------------------|
A|---------------------------------------------------------------------|
E|---------------------------------------------------------------------|

e|17-17p017p0-17p0-15-15p0-17-17p0-15p0-14-14p0-15-15p0-14p0-12-12p0-12-12p0|
B|--------------------------------------------------------------------------|
G|--------------------------------------------------------------------------|
D|--------------------------------------------------------------------------|
A|--------------------------------------------------------------------------|
E|--------------------------------------------------------------------------|

e|12-12p0-12-12p0-12p0-12p0-12-12p0-14-14p0-15-15p0-17-17p0-19-19p0-21-21p0|
B|-------------------------------------------------------------------------|
G|-------------------------------------------------------------------------|
D|-------------------------------------------------------------------------|
A|-------------------------------------------------------------------------|
E|-------------------------------------------------------------------------|

e|24-24p0-24-24p0-24-24p0-24\12/24\12/24\12/24\12/24\12~-|
B|-------------------------------------------------------|
G|-------------------------------------------------------|
D|-------------------------------------------------------|
A|-------------------------------------------------------|
E|-------------------------------------------------------|


Riff8    play twice before solos and 6 times during solo 6,7,and 8
e|------------------------------------------------------------|
B|------------------------------------------------------------|
G|------------------------------------------------------------|
D|------------------------------------------------------------|
A|------------------------------------------------------------|
E|0000-0000-00000000-0000-00001111-1111-11111111 1111 11112222|
  **** **** ******** **** ******** **** ******** **** ********
e|------------------------------------------------------|
B|------------------------------------------------------|
G|------------------------------------------------------|
D|------------------------------------------------------|
A|------------------------------------------------------|
E|-2222--22222222-2222-22223333-3333-33334444-4444-4444-|
   **** ******** ****  ******** **** ******** **** ****

Solo6
e|-------12--------------12----------------|
B|-15b17----15p12-----------15p12-15b17----|
G|-----------------14b16-------------------|
D|-----------------------------------------|
A|-----------------------------------------|
E|-----------------------------------------|

e|----------12-15-17p15p12----------------------12-15-17p15p12---------|
B|-12-15-17----------------17p15p12----12-15-17----------------17p15p12|
G|----------------------------------14---------------------------------|
D|---------------------------------------------------------------------|
A|---------------------------------------------------------------------|
E|---------------------------------------------------------------------|

e|--------------------------------------------------17p13----|
B|-----------------------------------------18p15----------15-|
G|14p12/14\12~~----------------14h19p14----------14----------|
D|-----------------15h19p15-------------15-------------------|
A|--------------------------17-------------------------------|
E|-----------------------------------------------------------|

e|13h15h17p15p13h15h17-t22p17-t22p17p15p13--------------|
B|-----------------------------------------t22p18p17p15-|
G|------------------------------------------------------|
D|------------------------------------------------------|
A|------------------------------------------------------|
E|------------------------------------------------------|

e|-------------------------------------------------------10h13-t18p13p10|
B|----------------------------------------------------10----------------|
G|---14p10-----------------------------------------10-------------------|
D|12-------14p10--------------------------------12----------------------|
A|---------------14p10-----------------------12-------------------------|
E|---------------------14p10\8/10\8~---10h13----------------------------|

e|---------------10h13-t17p13p12p10--------------------|
B|10----------10--------------------13-12-10-----------|
G|---10----10--------------------------------13p10/13~-|
D|------12---------------------------------------------|
A|-----------------------------------------------------|
E|-----------------------------------------------------|

e|----------13h16-t21p16p13----------13h16-21t/24\21p16p13\9|
B|-------14-----------------14----14------------------------|
G|-13h16-----------------------16---------------------------|
D|----------------------------------------------------------|
A|----------------------------------------------------------|
E|----------------------------------------------------------|

  Above Chris taps the 21 slides to 24 and slides back to 21 with his right
  hand and pulls off with a slide from 13 to 9 you can watch a video of chris
  playing solo 6 and solo 8 on youtube. Look up "sudden death explanation
  David Ellefson and Chris Broderick". I dont think Megadeth have played
  this song live yet so this maybe be one of the few videos on the net so far


e|-12p8p0-8h12p8p0----8h12p8p0----------------------------------------|
B|-----------------10-------------------------------------------------|
G|--------------------------------------9h10p9-------9h10p9-----------|
D|-----------------------------12p11h12--------11h12--------12p11p8~~-|
A|--------------------------------------------------------------------|
E|--------------------------------------------------------------------|

e|------------------------------------------------10h13p10p0h13-t18-|
B|------------------------------------------------------------------|
G|----------------------7h10-t15p10p7p0h7h10-t15--------------------|
D|------------------------------------------------------------------|
A|------------------------------------------------------------------|
E|t13p11p7p6p0h7h11-t13---------------------------------------------|

e|t24p20p19p15-t24p20p19p15---------------------------|
B|--------------------------t24p20p18p17-t24p20p18p17-|
G|----------------------------------------------------|
D|----------------------------------------------------|
A|----------------------------------------------------|
E|----------------------------------------------------|

e|---------------------------------------14h16h18-18b19|
B|------------------------------------16---------------|
G|---------------------------15h17h18------------------|
D|------------------15h16h18---------------------------|
A|---------15h16h18------------------------------------|
E|15h16h18---------------------------------------------|

e|19p16----------------------16h17h19p17p16-------------------------|
B|------17----------------17----------------18p17p15----------------|
G|---------16----------16-----------------------------------16p14p13|
D|------------18----18--------------------------------14h15---------|
A|---------------19-------------------------------------------------|
E|------------------------------------------------------------------|

e|-----------------------------------|
B|-----------------------------------| End of solo 6
G|------16p14p13-------13b14br13-13--|
D|14h15----------14h15---------------|
A|-----------------------------------|
E|-----------------------------------|


Solo7

e|--------------------------------------------------------------------------|
B|15b16----15b16----15b16br15-15b16----15b16br15-15b16(pick scratch down and|
G|14b15----14b15----14b15br14-14b15----14b15br14-14b15-then back up on the--|
D|-----------------------------------------------------D string around the--|
A|-----------------------------------------------------middle pick up area)-|
E|--------------------------------------------------------------------------|
  below gradually bend 14 into 15
e|-----------------12-------------------------------------------------------|
B|-15---------12-------15p12------------------------------------------------|
G|-14b15---------------------14p12----12h14h15p14p12-14p12------------------|
D|---------------------------------14----------------------14p13p12-14p12---|
A|------------------------------------------------------------------------14|
E|--------------------------------------------------------------------------|

e|--------------------------------------------------------------|
B|---------------------------------------12-15-15-12-12-15-16-15|
G|---------12h13h14-14-12-13-14-14-14/16------------------------|
D|12h13h14------------------------------------------------------|
A|--------------------------------------------------------------|
E|--------------------------------------------------------------|
                  below gradually bend 17into19 and fastly pick
e|------------------------12-15-16-17b19-19-19-19-19-19-19-19-19-19-19-19-19|
B|12-15-16-15-12-15-16-17---------------------------------------------------|
G|--------------------------------------------------------------------------|
D|--------------------------------------------------------------------------|
A|--------------------------------------------------------------------------|
E|--------------------------------------------------------------------------|

e|19-19-19-19-19-19-19-19-19-19-19-19-19-19-19-19-19-19-19-19-19-19-19-19-19|
B|--------------------------------------------------------------------------|
G|--------------------------------------------------------------------------|
D|--------------------------------------------------------------------------|
A|--------------------------------------------------------------------------|
E|--------------------------------------------------------------------------|

e|19-19br17-17p15p12h15p12------------------------------------------------|
B|-------------------------15h17p15p12------------------------------------|
G|-------------------------------------16p14p12-12h14h15h16-12h15p12h15p12|
D|------------------------------------------------------------------------|
A|------------------------------------------------------------------------|
E|------------------------------------------------------------------------|

e|--------------------------------------------------------------------------|
B|--------------------------------------------------------------------------|
G|---------------------------12---------------------------------------------|
D|14p13p12-14p13p12-12h13h14----14p13p12----13p12---------------12----------|
A|---------------------------------------14-------14p13p12h13h14--14p13-----|
E|---------------------------------------------------------------------15p12|

e|-----------------------------------------------------------------------|
B|-----------------------------------------------------------------------|
G|-----------------------------------------------------------------------|
D|-----------------------------------------------------------------------|
A|---------------------12h14h15p14p12--12h14h17-12h14h17-14h17h19p17p14--|
E|0h15-12h14h15/17\15----------------------------------------------------|

e|------------------------------------------------------|
B|-----------------------12p10p8h10p8-8-8-8-8-8/10-11-12|
G|----------------12\9----------------------------------|
D|-------12h13h14---------------------------------------|
A|-14h17------------------------------------------------|
E|------------------------------------------------------|

e|----------------------------------------12h15p12h14p12----------------|
B|12/15p12-12-12-12-12-12h15p12h15p12--15----------------17p15p12h15h17~|
G|----------------------------------------------------------------------|
D|----------------------------------------------------------------------|
A|----------------------------------------------------------------------|
E|----------------------------------------------------------------------|
End solo 7


Solo8
e|----------------------------------|
B|-12p10p9----10p9-------9----------|
G|---------12------10h12---10h12p9--|
D|----------------------------------|
A|----------------------------------|
E|----------------------------------|

e|-0-0-7-5-0h7-0-0-7-8-0-0-7-8-5h8---|
B|---------------------------------6~|
G|-----------------------------------|
D|-----------------------------------|
A|-----------------------------------|
E|-----------------------------------|

e|--------------------------------8-12------8-12-11~-------------------|
B|---------------------------9-10------9-10------------12p10p9---------|
G|-10-9-----------------9-10-----------------------------------12p10p9-|
D|------10---------9-10------------------------------------------------|
A|---------8-11-12-----------------------------------------------------|
E|---------------------------------------------------------------------|

e|------------------------------------------------------------|
B|------------------------------------------------------------|
G|12p11p9------------------------14p12p11h12h14p12p11h12h14/16|
D|-------13p12p10--------13p12p10-----------------------------|
A|---------------13p12p10-------------------------------------|
E|------------------------------------------------------------|

e|-------------------------------------------------------------------|
B|-----13--15--17p15p13----13h17p13----17p15p13----------------------|
G|-16-------------------16----------16----------16p15p14----14h16/19-|
D|-------------------------------------------------------17----------|
A|-------------------------------------------------------------------|
E|-------------------------------------------------------------------|

e|-7h12p7p0-3h7p3p0-----------3h7p3-12p7p0-14p10p0-15p12p0-14p10p0|
B|------------------5-------5-------------------------------------|
G|--------------------4---4---------------------------------------|
D|----------------------5-----------------------------------------|
A|----------------------------------------------------------------|
E|----------------------------------------------------------------|

e|12p7p0-12p7--13p10----------------6h10p6-----------6h10/14p10p0-|
B|-------------------11-----------6--------6-------6--------------|
G|----------------------10------7------------7---7----------------|
D|-------------------------12\8----------------8------------------|
A|----------------------------------------------------------------|
E|----------------------------------------------------------------|

e|15p12p0-18p15p0-17p14p0-15p12p0-14p10p0-10h14p10p0-5h9p5-----------5h9p5-|
B|---------------------------------------------------------7-------7-------|
G|-----------------------------------------------------------6---6---------|
D|-------------------------------------------------------------7-----------|
A|-------------------------------------------------------------------------|
E|-------------------------------------------------------------------------|

e|-14p9p0-15p12p0-17p14p0-15p12p0-14p9p0-14p9--15p12------------|
B|---------------------------------------------------13---------|
G|------------------------------------------------------12------|
D|---------------------------------------------------------14\10|
A|--------------------------------------------------------------|
E|--------------------------------------------------------------|

e|----------------8h11/16p13----------------------13h16-t21p16p13|
B|--------------9------------14----------------14----------------|
G|-----------10-----------------13----------13-------------------|
D|--------10-----------------------15----15----------------------|
A|11p8h11-----------------------------16-------------------------|
E|---------------------------------------------------------------|
                                          tap 24 and hold
e|----------------------------------------19h21t24---|
B|t21p18p14--------------t21p19p18h19t21-------------|
G|----------t22p18p16h18-----------------------------| end of solo 8
D|---------------------------------------------------|
A|---------------------------------------------------|
E|---------------------------------------------------|


Riff 5 Play(1x)


Final solo

e|---------------14-17b19br-17-14------------17-------24p22p19----------|
B|-17b19-b19----------------------17b19-b19-b19----------------24p22p19-|
G|----------------------------------------------------------------------|
D|----------------------------------------------------------------------|
A|----------------------------------------------------------------------|
E|----------------------------------------------------------------------|

e|-19p17p14-----------------------------------------------------12------|
B|----------19p17p14-19p17p14-17p14p12-17p14p12-12h15h17p15p12----------|
G|--------------------------------------------------------------16------|
D|----------------------------------------------------------------------|
A|----------------------------------------------------------------------|
E|----------------------------------------------------------------------|


Legend
h-hammer on
p-pull off
~-vibrato
/-slide up
\-slide down
*-palm mute
t-tap
b-bend
br-bend release
comments
print report bad tab
10 comments total. Showing first comments.
0 reply
TheGobler wrote on December 13 2011, 11:14 am

one little note people i meant to put pick scratch on the d string not the g at the very start of the song, i just had to get that straight.

0 reply
TheGobler wrote on December 13 2011, 12:25 pm

oops i should of checked my tab more than once. on the last climb in daves solo it should be E|0h12h15-12h14h15/17\15
and not E|0h15-12h14h15/17\15 also just by playing 17p16p15 sounds good too instead of 15/17\15. A really tricky song to figure out

+1 reply
soad_Simon94 wrote on December 13 2011, 05:48 pm

Hey man, would be great if this was in a guitar pro 5 file!

I want to post or [tab]
guest
You may want to rate the tab now too:
select rating
Please do not post tabs as comments. Select "correction" instead!