Oops, an error
Loading. Please wait.

Sweating Bullets Tab

ver4
ver4

Solo

Whole song

Interactive

More versions @911Tabs.com
3,271 views 9 this week
no commentswrite comment
1 2 3 4 5
worth learning
x 4
Autoscroll
+/-
esc
set tempo
stop
Contributor
WARNING: You are trying to view
                                    content from Ultimate-Guitar.com
                                    in an unauthorized application,
                                    which is prohibited.

                                    Please use an official Ultimate
                                    Guitar Tabs application for iPhone,
                                    iPad or Android to access legitimate
                                    chords, guitar, bass, and drum tabs
                                    from Ultimate-Guitar.com database.

                                    Type "ultimate guitar tabs" in Apple
                                    App Store's or Android Market's
                                    search to find the application.
#----------------------------------PLEASE NOTE---------------------------------#
#This file is the author's own work and represents their interpretation of the #
#song. You may only use this file for private study, scholarship, or research. #
#------------------------------------------------------------------------------#

SWEATING BULLETS
As recorded by MEGADETH
(From the 1992 Album COUNTDOWN TO EXTINCTION)

Transcribed by DoomMaker (DoomMaker@Chello.hu)
	

Words and Music by Dave Mustaine
Arranged by MEGADETH

E5
0 2 x x x x
	
F#
2 1 x x x x
	
G
3 2 x x x x
	
B
7 6 x x x x

Bb
6 5 x x x x
	
D
x 5 4 x x x
	
Bb5
6 8 x x x x
	
A5
5 7 x x x x

E5VII
0 7 9 x x x
	
F5
1 3 x x x x
	
G5
3 5 x x x x
	
Bb5I
x 1 3 x x x

A5open
x 0 2 x x x
	
C5
x 3 5 x x x
	
B5
x 2 4 x x x
	
F5III
x x 3 5 x x

F#5
2 4 x x x x
	
D5
x 5 7 x x x

Gtr I (E A D G B E) - 'Rhythm Guitar'
Gtr II (E A D G B E) - 'Solo Guitar'

 Intro
  Moderate Rock Q=82
             E5   F#G    B   Bb   G F#     G   E5   F#G    B
 4/4
  Gtr I
  W          Q.   E Q.   E   Q.   E Q.   S S   Q.   E Q.   E
             |    | |    |   |    | |    | |   |    | |    |
             /    / /    /   /    / /    / /   /    / /    /

  Gtr II
  W          Q.   E Q.   E   Q.   E Q.   S S   Q.   E Q.   E
|----------|---------------|-----------------|----------------|
|----------|---------------|-----------------|----------------|
|----------|--------4----7-|-6----4-3----3h4-|--------4----7--|
|----------|-5----7--------|-----------------|-5----7---------|
|----------|---------------|-----------------|----------------|
|----------|---------------|-----------------|----------------|


  Bb   D B    F#  E5   F#G    B
  Q.   E Q.   E   Q.   E Q.   E
  |    | |    |   |    | |    |
  /    / /    /   /    / /    /

  Q.   E Q.   E   Q.   E Q.   E
|---------------|---------------|
|------7-4------|---------------|
|-6-----------4-|--------4----7-|
|---------------|-5----7--------|
|---------------|---------------|
|---------------|---------------|


  Bb   G F#     G   E5                      BbA5
  Q.   E Q.   S S   W          +H.      +S  S E
  |    | |    | |   |           |        |  | |
  /    / /    / /   /           /        /  / /

  Q.   E Q.   S S   W          +H.      +S  S E
|-----------------|----------|-------------------||
|-----------------|----------|-------------------||
|-6----4-3----3h4-|----------|-------------------||
|-----------------|-5--------|-(5)------(5)------||
|-----------------|----------|--------------8-7--||
|-----------------|----------|--------------6-5--||


   Verse 1, 2 & 3
    Double Time, Triplet Feel Q=164(8=s8)
    $
    E5VII               BbA5   E5VII               BbA5
    Gtrs I, II
    Q  Q  H      H    E E Q    Q  Q  H      H    E E Q
    |                   | |    |                   | |
    /                   / /    /                   / /

    W            W             W            W
||-------------|-------------|------------|--------------|
||o------------|-------------|------------|--------------|
||-------------|-------------|------------|--------------|
||-------------|-------------|------------|--------------|
||o------------|-------------|------------|--------------|
||-------------|-------------|------------|--------------|


  E5VII               BbA5   E5VII               BbA5
  Q  Q  H      H    E E Q    Q  Q  H      H    E E Q
  |                   | |    |                   | |
  /                   / /    /                   / /

  W            W             W            W
|------------|-------------|------------|-------------|
|------------|-------------|------------|-------------|
|------------|-------------|------------|-------------|
|------------|-------------|------------|-------------|
|------------|-------------|------------|-------------|
|------------|-------------|------------|-------------|


  E5VII               BbA5   E5VII               BbA5
  Q  Q  H      H    E E Q    Q  Q  H      H    E E Q
  |                   | |    |                   | |
  /                   / /    /                   / /

  W            W             W            W
|------------|-------------|------------|-------------|
|------------|-------------|------------|-------------|
|------------|-------------|------------|-------------|
|------------|-------------|------------|-------------|
|------------|-------------|------------|-------------|
|------------|-------------|------------|-------------|


  E5VII               BbA5   E5VII
  Q  Q  H      H    E E Q    Q  Q  H      W
  |                   | |    |            |
  /                   / /    /            /

  W            W             W            W
|------------|-------------|------------|------||
|------------|-------------|------------|------||
|------------|-------------|------------|------||
|------------|-------------|------------|------||
|------------|-------------|------------|------||
|------------|-------------|------------|------||


 Chorus
  Gtr I
   ~~~~~~~~~~~~~~~~~~~~   ~~~~~~~
   Q       E  E  E  E  E  E
|-12------12-12-12-12----11-----|
|-15b17===15-15-15-15r---14b16==|
|-------------------------------|
|-------------------------------|
|-------------------------------|
|-------------------------------|
|
| Gtr II
|  PM------------------|
|  Q       Q     E  E  E  E
|-------------------------------|
|-------------------------------|
|-------------------------------|
|----------------2--------3-----|
|--2-------5-----0--5--5--1-----|
|--0-------3--------3--3--------|


 ~~~~~~~~~~~~~~~~~~~~      ~~~~~~~~~~~~~~~~~~~~   ~~~~~~
   +Q    E  E  E  E  Q     Q       E  E  E  E  E  E
|-(11)--11-11-11-11-----|-10------10-10-10-10-----9-----|
|-(14)--14-14-14-14r----|-13b15===13-13-13-13r---12b14==|
|-----------------------|-------------------------------|
|-----------------------|-------------------------------|
|-----------------------|-------------------------------|
|-----------------------|-------------------------------|
|
|              PM|         PM------------------|
|  +Q    Q     E  E  Q     Q       Q     E  E  E  E
|-----------------------|-------------------------------|
|-----------------------|-------------------------------|
|-----------------------|-------------------------------|
|--(3)---2-----------2--|----------------2--------3-----|
|--(1)---0-----5--5--0--|--2-------5-----0--5--5--1-----|
|--------------3--3-----|--0-------3--------3--3--------|


    ~~~~~~~~~~~~~~~~~
   +Q    E  E  E  E  Q
|--(9)---9--9--9--9-----|
|-(12)--12-12-12-12r----|
|-----------------------|
|-----------------------|
|-----------------------|
|-----------------------|
|
|              PM|
|  +Q    Q     E  E  Q
|-----------------------|
|-----------------------|
|-----------------------|
|--(3)---2--------------|
|--(1)---0-----5--5--3--|
|--------------3--3--1--|


           ~~~~~~~~~~~~   ~~~~~~~~~~~~~~~~~~~~~~~~~~~
   Q       E  E  E  E  E  E        +Q    E  E  E  E  Q
|--8-------8--8--8--8-----7-----|--(7)---7--7--7--7-----|
|-11b13===11-11-11-11r---10b12==|=(10)--10-10-10-10r----|
|-------------------------------|-----------------------|
|-------------------------------|-----------------------|
|-------------------------------|-----------------------|
|-------------------------------|-----------------------|
|
|  PM------------------|                       PM|
|  Q       Q     E  E  E  E        +Q    Q     E  E  Q
|-------------------------------|-----------------------|
|-------------------------------|-----------------------|
|-------------------------------|-----------------------|
|----------------2--------3-----|--(3)---2-----------2--|
|--2-------5-----0--5--5--1-----|--(1)---0-----5--5--0--|
|--0-------3--------3--3--------|--------------3--3-----|


  ~~~~~~~~~~~~~~~~                      ~~~~~~~~~~~~~~~~~~~~   ~~~~~~
  Q      E E E E  a E E   +W            Q       E  E  E  E  E  E
|-6------6-6-6-6--------|------------|-12------12-12-12-12----11-----|
|-9b11===9-9-9-9r-------|------------|-15b17===15-15-15-15r---14b16==|
|-----------------2s4-0-|-(0)--------|-------------------------------|
|-----------------------|------------|-------------------------------|
|-----------------------|------------|-------------------------------|
|-----------------------|------------|-------------------------------|
|
| PM----------------|                   PM------------------|
| Q      Q   E E    E E   +W            Q       Q     E  E  E  E
|-----------------------|------------|-------------------------------|
|-----------------------|------------|-------------------------------|
|-----------------------|------------|-------------------------------|
|------------2----------|------------|----------------2--------3-----|
|-2------5---0-5----5-2-|-(2)--------|--2-------5-----0--5--5--1-----|
|-0------3-----3----3-0-|-(0)--------|--0-------3--------3--3--------|


    ~~~~~~~~~~~~~~~~~
   +Q    E  E  E  E  Q
|-(11)--11-11-11-11-----|
|-(14)--14-14-14-14r----|
|-----------------------|
|-----------------------|
|-----------------------|
|-----------------------|
|
|              PM|
|   Q    Q     E  E  Q
|-----------------------|
|-----------------------|
|-----------------------|
|---3----2-----------2--|
|---1----0-----5--5--0--|
|--------------3--3-----|


   ~~~~~~~~~~~~~~~~~~~~   ~~~~~~~~~~~~~~~~~~~~~~~~~~~
   Q       E  E  E  E  E  E        +Q    E  E  E  E  Q
|-10------10-10-10-10-----9-----|--(9)---9--9--9--9-----|
|-13b15===13-13-13-13r---12b14==|=(12)--12-12-12-12r----|
|-------------------------------|-----------------------|
|-------------------------------|-----------------------|
|-------------------------------|-----------------------|
|-------------------------------|-----------------------|
|
|  PM------------------|                       PM|
|  Q       Q     E  E  E  E        +Q    Q     E  E  Q
|-------------------------------|-----------------------|
|-------------------------------|-----------------------|
|-------------------------------|-----------------------|
|----------------2--------3-----|--(3)---2--------------|
|--2-------5-----0--5--5--1-----|--(1)---0-----5--5--3--|
|--0-------3--------3--3--------|--------------3--3--1--|


           ~~~~~~~~~~~~   ~~~~~~~~~~~~~~~~~~~~~~~~~~~
   Q       E  E  E  E  E  E        +Q    E  E  E  E  Q    Q  Q  Q  E E
|--8-------8--8--8--8-----7-----|--(7)---7--7--7--7-----|--------------|
|-11b13===11-11-11-11r---10b12==|=(10)--10-10-10-10r----|--------------|
|-------------------------------|-----------------------|--------------|
|-------------------------------|-----------------------|-3--2---------|
|-------------------------------|-----------------------|-1--0--5--3-2-|
|-------------------------------|-----------------------|-------3--1-0-|
|
|  PM------------------|                       PM|
|  Q       Q     E  E  E  E        +Q    Q     E  E  Q    Q  Q  Q  E E
|-------------------------------|-----------------------|--------------|
|-------------------------------|-----------------------|--------------|
|-------------------------------|-----------------------|--------------|
|----------------2--------3-----|--(3)---2-----------2--|-3--2---------|
|--2-------5-----0--5--5--1-----|--(1)---0-----5--5--0--|-1--0--5--3-2-|
|--0-------3--------3--3--------|--------------3--3-----|-------3--1-0-|


                                1.                  2.
      To Coda
         E5VII  D5E5                       BbA5
  +H     H      E Q.   +H       +H     +E  E Q       W
|-------------|---------------|------------------||--------||
|-------------|---------------|-----------------o||--------||
|-------------|---7----(7)----|-(7)----(7)-------||-(7)----||
|--------9----|-7-9----(9)----|-(9)----(9)-------||-(9)----||
|-(2)----7----|-5-7----(7)----|-(7)----(7)-8-7--o||-(7)----||
|-(0)---------|---------------|------------6-5---||--------||
|
| +H     H      E Q.   +H       +H     +E  E Q       W
|-------------|---------------|------------------||--------||
|-------------|---------------|-----------------o||--------||
|-------------|---------------|------------------||--------||
|--------9----|-7-9----(9)----|-(9)----(9)-------||-(9)----||
|-(2)----7----|-5-7----(7)----|-(7)----(7)-8-7--o||-(7)----||
|-(0)---------|---------------|------------6-5---||--------||


 Bridge 1
  F5          E5  F5      E5  F5    E5    A5
  Gtr I
  |-3-| |-3-|     |-3-|       |-3-| |-3-|
  E E E E E E E E E E E   E E E E E E E E Q
  | | | | | | |   | | |   |   | | | |   | |
  / / / / / / /   / / /   /   / / / /   / /

  Gtr II
  W                       W
|-----------------------|--------------------|
|-----------------------|--------------------|
|-----------------------|--------------------|
|-----------------------|--------------------|
|-----------------------|--------------------|
|-----------------------|--------------------|


  F5          E5  F5      E5  F5    E5  G5A5
  |-3-| |-3-|     |-3-|       |-3-| |-3-|
  E E E E E E E E E E E   E E E E E E E E Q
  | | | | | | |   | | |   |   | | | |   | |
  / / / / / / /   / / /   /   / / / /   / /

  W                       W
|-----------------------|----------------------|
|-----------------------|----------------------|
|-----------------------|----------------------|
|-----------------------|----------------------|
|-----------------------|----------------------|
|-----------------------|----------------------|


  G5                     Bb5I          A5F5en
  |-3-| |-3-|    |-3-|   |-3-| |-3-|
  E E E E E E Q  E E E   E E E E E E E E Q
  | | | | | | |  | | |   | | | | | | | | |
  / / / / / / /  / / /   / / / / / / / / /

  W                      W
|----------------------|--------------------|
|----------------------|--------------------|
|----------------------|--------------------|
|----------------------|--------------------|
|----------------------|--------------------|
|----------------------|--------------------|


              E5  F5      E5  F5    E5  G5A5
  |-3-| |-3-|     |-3-|       |-3-| |-3-|
  E E E E E E E E E E E   E E E E E E E E Q
  | | | | | | |   | | |   |   | | | |   | |
  / / / / / / /   / / /   /   / / / /   / /

  W                       W
|-----------------------|----------------------|
|-----------------------|----------------------|
|-----------------------|----------------------|
|-----------------------|----------------------|
|-----------------------|----------------------|
|-----------------------|----------------------|


  F5          E5  F5      E5  F5    E5  G5A5
  |-3-| |-3-|     |-3-|       |-3-| |-3-|
  E E E E E E E E E E E   E E E E E E E E Q
  | | | | | | |   | | |   |   | | | |   | |
  / / / / / / /   / / /   /   / / / /   / /

  W                       W
|-----------------------|--------------------|
|-----------------------|--------------------|
|-----------------------|--------------------|
|-----------------------|--------------------|
|-----------------------|--------------------|
|-----------------------|--------------------|


  F5          E5  F5      E5  F5    E5  G5A5
  |-3-| |-3-|     |-3-|       |-3-| |-3-|
  E E E E E E E E E E E   E E E E E E E E Q
  | | | | | | |   | | |   |   | | | |   | |
  / / / / / / /   / / /   /   / / / /   / /

  W                       W
|-----------------------|----------------------|
|-----------------------|----------------------|
|-----------------------|----------------------|
|-----------------------|----------------------|
|-----------------------|----------------------|
|-----------------------|----------------------|


  G5                     Bb5I          A5F5en
  |-3-| |-3-|    |-3-|   |-3-| |-3-|
  E E E E E E Q  E E E   E E E E E E E E Q
  | | | | | | |  | | |   | | | | | | | | |
  / / / / / / /  / / /   / / / / / / / / /

  ~
  W                      H           E E Q
|----------------------|--------------------||
|----------------------|--------------------||
|----------------------|--------------------||
|----------------------|--------------------||
|----------------------|--------------------||
|-3--------------------|-3-----------6-5-1--||


 Guitar Solo
  F5          E5  F5            E5         F5       E5   G5A5
  |-3-| |-3-|     |-3-|                      |-3--|  |-3-|
  E E E E E E E E E E E          E    E      E  E E  E E E Q
  | | | | | | |   | | |          |           |  | |  |   | |
  / / / / / / /   / / /          /           /  / /  /   / /

                                 |---3---|
  H           H            a  a  E  E    E  +Q       H
|-----------------------|-------12----------------------------|
|-----------------------|----12----12-------------------------|
|-----------------------|-12------------12-(12)---------------|
|-----------------------|---------------------------12--------|
|-------------7---------|---------------------------12--------|
|-0---------------------|---------------------------12--------|


  F5                E5         F5
   |--3--|  |--3--|             |--3--|
   E  E  E  E  E  E  E    E     E  E  E
   |  |  |  |  |  |  |          |  |  |
   /  /  /  /  /  /  /          /  /  /

   |--3--|  |--3--|  |---3---|  |--3--|
   E  E  E  E  E  E  E  E    E  E  E  E
|-15-14-13-12----------------------------|
|-------------16-15-14-13----------------|
|---------------------------16-15-14-13--|
|----------------------------------------|
|----------------------------------------|
|----------------------------------------|


  E5        F5      E5   G5 A5
            |--3--|  |-3--|
   E    E   E  E  E  E E  E  Q
   |        |  |  |  |    |  |
   /        /  /  /  /    /  /

   |--3---| |--3--|  |-3--|  |-3--|
   E  E   E E  E  E  E E  E  E  E E
|-11-10---9-8-----------------------|
|-------------12-11-10-9------------|
|------------------------12-11-10-9-|
|-----------------------------------|
|-----------------------------------|
|-----------------------------------|


  F5          E5      F5      E5      F5    E5  G5A5
  |-3-| |-3-|         |-3-|           |-3-| |-3-|
  E E E E E E E   E   E E E   E   E   E E E E E E Q
  | | | | | | |       | | |   |       | | | |   | |
  / / / / / / /       / / /   /       / / / /   / /

  |-3-| |-3-| |--3--| |-3-|   |--3--| |-3-| |-3-| |-3-|
  E E E E E E E E   E E E E   E E   E E E E E E E E E E
|-7-6-5-4-------------------|---------------------------|
|---------8-7-6-5-----------|-8-7---6-5-----------------|
|-------------------8-7-6-5-|-----------8-7-6-5---------|
|---------------------------|-------------------9-8-7-6-|
|---------------------------|---------------------------|
|---------------------------|---------------------------|


  G5
   |--3--|  |--3--|          |-3--|
   E  E  E  E  E  E  Q       E  E E
   |  |  |  |  |  |  |       |  | |
   /  /  /  /  /  /  /       /  / /

   PM--------------------------------
   |--3--|  |--3--|  |--3--| |-3--|
   E  E  E  E  E  E  E  E  E E  E E
|-----------------------------------|
|-----------------------------------|
|-----------------------------------|
|----------------------------9----9-|
|----------10----10-12-10-12---12---|
|-12-10-12----12--------------------|


  Bb5I                 A5opF5                   E5        F5
   |-3--| |-3--|                 |-3--|  |-3--|            |-3--|
   E E  E E  E E  E    E    Q    E  E E  E E  E  E    E    E E  E
   | |  | |  | |  |    |    |    |  | |  | |  |  |         | |  |
   / /  / /  / /  /    /    /    /  / /  / /  /  /         / /  /

 --------------|            ~~
   |-3--| |-3--|  |--3---|       |-3--|  |-3--|  |--3---|  |-3--|
   E E  E E  E E  E  E   E  Q    E  E E  E E  E  E  E   E  E E  E
|------------------------------|----------------------------------|
|------------------------------|----------------------------------|
|---------9----9-12p10p==9-10--|-9h10p9----9-10-12p10p==9-10p9----|
|-12-9-12---12-----------------|--------12---------------------12-|
|------------------------------|----------------------------------|
|------------------------------|----------------------------------|


  E5       F5    E5   G5A5
           |-3-| |-3--|
  E    E   E E E E  E E  Q
  |        | | | |    |  |
  /        / / / /    /  /

  |--3---| |-3-| |-3--|  |-3-|
  E  E   E E E E E  E E  E E E
|------------------------------|
|------------------------------|
|-9h10p==9-7h9p7-7-------------|
|------------------10p9-10p9p7-|
|------------------------------|
|------------------------------|


  F5          E5      F5      E5      F5    E5  G5A5
  |-3-| |-3-|         |-3-|           |-3-| |-3-|
  E E E E E E E   E   E E E   E   E   E E E E E E Q
  | | | | | | |       | | |   |       | | | |   | |
  / / / / / / /       / / /   /       / / / /   / /

  |-3-| |-3-| |--3--| |-3-|   |--3--| |-3-| |-3-|
  E E E E E E E E   E E E E   E E   E E E E E E E Q
|---------------------------|-------------------------|
|---------------------------|-------------------------|
|-4h5p4---4-5-7p5p==4-5p4---|-4-----------------------|
|-------7-----------------7-|---7---5-7-5---5---------|
|---------------------------|-------------7---7-5-7---|
|---------------------------|-------------------------|


  F5    F5    E5      F5      E5      F5    E5  G5A5
  |-3-| |-3-|         |-3-|           |-3-| |-3-|
  E E E E E E E   E   E E E   E   E   E E E E E E Q
  | | | | | | |       | | |   |       | | | |   | |
  / / / / / / /       / / /   /       / / / /   / /

  PM-----------------------------------------------------
  |-3-| |-3-| |--3--| |-3-|   |--3--| |-3-| |-3-| |-3-|
  E E E E E E E E   E E E E   E E   E E E E E E E E E E
|---------------------------|---------------------------|
|---------------------------|---------------------------|
|---------------------------|-5-5---5-4-4-4-------------|
|-------5-5-5-4-4---4-7-7-7-|---------------7-7-7-5-5-5-|
|-7-7-7---------------------|---------------------------|
|---------------------------|---------------------------|


  G5                        Bb5I            A5opF5
  |-3-| |-3-|       |-3-|   |-3-| |-3-|
  E E E E E E Q     E E E   E E E E E E E   E   Q
  | | | | | | |     | | |   | | | | | | |   |   |
  / / / / / / /     / / /   / / / / / / /   /   /

 ---------------------------------------------| ~
  |-3-| |-3-| |-3-| |-3-|   |-3-| |-3-| |--3--|
  E E E E E E E E E E E E   E E E E E E E E   E Q
|-------------------------|-------------------------|
|-------------------------|-------------------------|
|-------------------------|-------4-4-4-5-5---5-7---|
|-4-4-4-------4-4-4-5-5-5-|-7-7-7-------------------|
|-------7-7-7-------------|-------------------------|
|-------------------------|-------------------------|


                            F5          E5    F5        E5      G5A5
   |--3---|  |--3---|        |--3---|          |--3---|  |--3---|
   E E    E  E E    E  E  E  E E    E    E  E  E E    E  E E    E  Q
   | |    |  | |    |  |     | |    |    |     | |    |  |      |  |
   / /    /  / /    /  /     / /    /    /     / /    /  /      /  /

   E    E    E    E    E  E  E    E      E  E  E    E    E    E    E  E
|-15--------16--------17----18--------|-19----20--------21--------22----|
|------14--------15------16------17---|----18------19--------20------21-|
|-------------------------------------|---------------------------------|
|-------------------------------------|---------------------------------|
|-------------------------------------|---------------------------------|
|-------------------------------------|---------------------------------|


  F5III   C5 B5 G5   E5            F5III  C5 B5 G5
   Q      Q  Q  Q      W             Q    Q  Q  Q
   |      |  |  |      |             |    |  |  |
   /      /  /  /      /             /    /  /  /

   ~~~~~~~~~~~~~~~~~~~~~~~~~~~~~~~~~~~~~~
   W                  +W            +H       H
|-22b24============|=(22)--------|-(22)r-----------|
|------------------|-------------|-----------------|
|------------------|-------------|-----------------|
|------------------|-------------|-----------------|
|------------------|-------------|-----------------|
|------------------|-------------|-----------------|


  E5         F5IC5 B5 G5   E5         F5IC5 B5 G5
  W          Q  Q  Q  Q    W          Q  Q  Q  Q
  |          |  |  |  |    |          |  |  |  |
  /          /  /  /  /    /          /  /  /  /

  W          W             W          W
|----------|-------------|----------|-------------||
|----------|-------------|----------|-------------||
|----------|-------------|----------|-------------||
|----------|-------------|----------|-------------||
|----------|-------------|----------|-------------||
|----------|-------------|----------|-------------||


 Bridge 2
  Half time, straight 8th's Q=82
  E5         F5         F#5 N.C.
  W          H    +Q.   E   W
  |          |     |    |
  /          /     /    /

                              PM--|   PM--|   PM--|   PM--|
  W          W              S S S S S S S S S S S S S S S S
|----------|--------------|---------------------------------|
|----------|--------------|---------------------------------|
|----------|--------------|---------------------------------|
|----------|--------------|---------------------------------|
|----------|--------------|-5-------4-------3-------2-------|
|----------|--------------|---0-2-3---0-2-3---0-2-3---0-2-3-|


  W
    PM--|   PM--|   PM----------|
  S S S S S S S S S S S S S S S S
|------------------------------------|
|------------------------------------|
|------------------------------------|
|------------------------------------|
|-1-------0-------0------------------|
|---0-2-3---0-2-3---3-2-1-1-1-2-3----|


    PM--|   PM--|   PM--|   PM--|     PM--|   PM--|   PM----------|
  S S S S S S S S S S S S S S S S   S S S S S S S S S S S S S S S S
|---------------------------------|---------------------------------|
|---------------------------------|---------------------------------|
|---------------------------------|---------------------------------|
|---------------------------------|---------------------------------|
|-5-------4-------3-------2-------|-1-------0-------0---------------|
|---0-2-3---0-2-3---0-2-3---0-2-3-|---0-2-3---0-2-3---3-2-1-1-1-2-3-|


    PM--|   PM--|   PM--|   PM--|     PM--|   PM--|   PM----------|
  S S S S S S S S S S S S S S S S   S S S S S S S S S S S S S S S S
|---------------------------------|---------------------------------|
|---------------------------------|---------------------------------|
|---------------------------------|---------------------------------|
|---------------------------------|---------------------------------|
|-5-------4-------3-------2-------|-1-------0-------0---------------|
|---0-2-3---0-2-3---0-2-3---0-2-3-|---0-2-3---0-2-3---3-2-1-1-1-2-3-|


    PM--|   PM--|   PM--|   PM--|     PM--|   PM--|   PM----------|
  S S S S S S S S S S S S S S S S   S S S S S S S S S S S S S S S S
|---------------------------------|---------------------------------|
|---------------------------------|---------------------------------|
|---------------------------------|---------------------------------|
|---------------------------------|---------------------------------|
|-5-------4-------3-------2-------|-1-------0-------0---------------|
|---0-2-3---0-2-3---0-2-3---0-2-3-|---0-2-3---0-2-3---3-2-1-1-1-2-3-|


                  Double time, triplet feel Q=164(8=s8)
 2/4               4/4
  S S S S S S S S   W          +W           +W
|-----------------|----------|------------|--------|
|-----------------|----------|------------|--------|
|-----------------|----------|------------|--------|
|-6-5-4-3---------|----------|------------|--------|
|-----------------|-2--------|-(2)--------|-(2)----|
|---------4-3-2-1-|-0--------|-(0)--------|-(0)----|


                                                         D.S. al Coda
                                                                 BbA5
  +W           +W           +W           +W           +H     +E  E Q
|------------|------------|------------|------------|-----------------||
|------------|------------|------------|------------|-----------------||
|------------|------------|------------|------------|-----------------||
|------------|------------|------------|------------|-----------------||
|-(2)--------|-(2)--------|-(2)--------|-(2)--------|-(2)----(2)-8-7--||
|-(0)--------|-(0)--------|-(0)--------|-(0)--------|-(0)----(0)-6-5--||


  &
  E5         G5        A5         G5             Bb5      A5        G5         A5
  Gtr I
   |---3---|  |--3---|  |---3---| |----3-----|     |-3--|  |--3---|  |---3---| |-3-|
   E     E E  E E    E  E E     E E E        E     E  E E  E E    E  E E     E E E E
   |     | |  | |    |  | |     | | |        |     |  | |  | |    |  | |     | | | |
   /     / /  / /    /  / /     / / /        /     /  / /  / /    /  / /     / / / /

   ~~~~~~~~~~~~~~~~~~~~~~~~~~~~~       ~~~~~~~~~~~~~~~~~~~~~~~~~~~~~~~~~~~~~~
   Q          E    E    E    E    E    E          +Q       E    E    E    E    Q
|-12---------12---12---12---12--------11-------|-(11)-----11---11---11---11----------|
|-15b17======15---15---15---15r-------14b16====|=(14)-----14---14---14---14r---------|
|----------------------------------------------|-------------------------------------|
|----------------------------------------------|-------------------------------------|
|----------------------------------------------|-------------------------------------|
|----------------------------------------------|-------------------------------------|


  E5         G5        A5         G5
   |---3---|  |--3---|  |---3---| |----3-----|
   E     E E  E E    E  E E     E E E        E
   |     | |  | |    |  | |     | | |        |
   /     / /  / /    /  / /     / / /        /

   ~~~~~~~~~~~~~~~~~~~~~~~~~~~~~       ~~~~~~
   Q          E    E    E    E    E    E
|-10---------10---10---10---10---------9--------|
|-13b15======13---13---13---13r-------12b14=====|
|-----------------------------------------------|
|-----------------------------------------------|
|-----------------------------------------------|
|-----------------------------------------------|


  Bb5      A5        G5         F5      E5         G5        A5         G5
    |-3--|  |--3---|  |---3---| |-3-|    |---3---|  |--3---|  |---3---| |----3-----|
    E  E E  E E    E  E E     E E E E    E     E E  E E    E  E E     E E E        E
    |  | |  | |    |  | |     | | | |    |     | |  | |    |  | |     | | |        |
    /  / /  / /    /  / /     / / / /    /     / /  / /    /  / /     / / /        /

    ~~~~~~~~~~~~~~~~~~~~~~~~~~           ~~~~~~~~~~~~~~~~~~~~~~~~~~~~~       ~~~~~~~~~
   +Q       E    E    E    E    Q        Q          E    E    E    E    E    E
|--(9)------9----9----9----9----------|-12---------12---12---12---12--------11-------|
|-(12)-----12---12---12---12r---------|-15b17======15---15---15---15r-------14b16====|
|-------------------------------------|----------------------------------------------|
|-------------------------------------|----------------------------------------------|
|-------------------------------------|----------------------------------------------|
|-------------------------------------|----------------------------------------------|


  Bb5      A5        G5         A5
    |-3--|  |--3---|  |---3---| |-3-|
    E  E E  E E    E  E E     E E E E
    |  | |  | |    |  | |     | | | |
    /  / /  / /    /  / /     / / / /

 ~~~~~~~~~~~~~~~~~~~~~~~~~~~~~
   +Q       E    E    E    E    Q
|-(11)-----11---11---11---11------------|
|-(14)-----14---14---14---14r-----------|
|---------------------------------------|
|---------------------------------------|
|---------------------------------------|
|---------------------------------------|


  E5         G5        A5         G5             Bb5      A5        G5         F5
   |---3---|  |--3---|  |---3---| |----3-----|     |-3--|  |--3---|  |---3---| |-3-|
   E     E E  E E    E  E E     E E E        E     E  E E  E E    E  E E     E E E E
   |     | |  | |    |  | |     | | |        |     |  | |  | |    |  | |     | | | |
   /     / /  / /    /  / /     / / /        /     /  / /  / /    /  / /     / / / /

   ~~~~~~~~~~~~~~~~~~~~~~~~~~~~~       ~~~~~~~~~~~~~~~~~~~~~~~~~~~~~~~~~~~~~~
   Q          E    E    E    E    E    E          +Q       E    E    E    E    Q
|-10---------10---10---10---10---------9-------|--(9)------9----9----9----9----------|
|-13b15======13---13---13---13r-------12b14====|=(12)-----12---12---12---12r---------|
|----------------------------------------------|-------------------------------------|
|----------------------------------------------|-------------------------------------|
|----------------------------------------------|-------------------------------------|
|----------------------------------------------|-------------------------------------|


  E5         G5        A5         G5
   |---3---|  |--3---|  |---3---| |----3-----|
   E     E E  E E    E  E E     E E E        E
   |     | |  | |    |  | |     | | |        |
   /     / /  / /    /  / /     / / /        /

   ~~~~~~~~~~~~~~~~~~~~~~~~~~~~~       ~~~~~~
   Q          E    E    E    E    E    E
|-12---------12---12---12---12--------11--------|
|-15b17======15---15---15---15r-------14b16=====|
|-----------------------------------------------|
|-----------------------------------------------|
|-----------------------------------------------|
|-----------------------------------------------|


  Bb5      A5        G5         A5
    |-3--|  |--3---|  |---3---| |-3-|
    E  E E  E E    E  E E     E E E E
    |  | |  | |    |  | |     | | | |
    /  / /  / /    /  / /     / / / /

    ~~~~~~~~~~~~~~~~~~~~~~~~~~
   +Q       E    E    E    E    Q
|-(11)-----11---11---11---11----------|
|-(14)-----14---14---14---14r---------|
|-------------------------------------|
|-------------------------------------|
|-------------------------------------|
|-------------------------------------|


  E5         G5        A5         G5
   |---3---|  |--3---|  |---3---| |----3-----|
   E     E E  E E    E  E E     E E E        E
   |     | |  | |    |  | |     | | |        |
   /     / /  / /    /  / /     / / /        /

   ~~~~~~~~~~~~~~~~~~~~~~~~~~~~~       ~~~~~~
   Q          E    E    E    E    E    E
|-10---------10---10---10---10---------9-------|
|-13b15======13---13---13---13r-------12b14====|
|----------------------------------------------|
|----------------------------------------------|
|----------------------------------------------|
|----------------------------------------------|


  Bb5      A5        G5         F5
    |-3--|  |--3---|  |---3---| |-3-|
    E  E E  E E    E  E E     E E E E
    |  | |  | |    |  | |     | | | |
    /  / /  / /    /  / /     / / / /

    ~~~~~~~~~~~~~~~~~~~~~~~~~~
   +Q       E    E    E    E    Q
|--(9)------9----9----9----9----------|
|-(12)-----12---12---12---12r---------|
|-------------------------------------|
|-------------------------------------|
|-------------------------------------|
|-------------------------------------|


  E5         G5        A5         G5
   |---3---|  |--3---|  |---3---| |----3-----|
   E     E E  E E    E  E E     E E E        E
   |     | |  | |    |  | |     | | |        |
   /     / /  / /    /  / /     / / /        /

              ~~~~~~~~~~~~~~~~~~       ~~~~~~
   Q          E    E    E    E    E    E
|--8----------8----8----8----8---------7-------|
|-11b13======11---11---11---11r-------10b12====|
|----------------------------------------------|
|----------------------------------------------|
|----------------------------------------------|
|----------------------------------------------|


                                        Bb5A5 G5 F5E5
    |-3--|  |--3---|  |---3---| |-3-|
    E  E E  E E    E  E E     E E E E   Q  Q  Q  E E
    |  | |  | |    |  | |     | | | |   |  |  |  | |
    /  / /  / /    /  / /     / / / /   /  /  /  / /

    ~~~~~~~~~~~~~~~~~~~~~~~~~~
   +Q       E    E    E    E    Q       Q  Q  Q  E E
|--(7)------7----7----7----7----------|--------------|
|-(10)-----10---10---10---10r---------|--------------|
|-------------------------------------|--------------|
|-------------------------------------|--------------|
|-------------------------------------|-8--7--5--3-2-|
|-------------------------------------|-6--5--3--1-0-|


         E5VII  D5E5                       BbA5   E5
  +H     H      E Q.   +H       +H     +E  E Q    Q  Q  H
   |     |      | |     |        |      |  | |    |
   /     /      / /     /        /      /  / /    /

  +H     H      E Q.   +H       +H     +E  E Q    Q  Q  H
|-------------|---------------|-----------------|------------*|
|-------------|---------------|-----------------|------------*|
|-------------|---7----(7)----|-(7)----(7)------|------------*|
|--------9----|-7-9----(9)----|-(9)----(9)------|-9----------*|
|-(2)----7----|-5-7----(7)----|-(7)----(7)-8-7--|-7----------*|
|-(0)---------|---------------|------------6-5--|-0----------*|



Duration Legend
---------------
W - whole; H - half; Q - quarter; E - 8th; S - 16th; T - 32nd; X - 64th; a - acciaccatura
+ - note tied to previous; . - note dotted; .. - note double dotted
Uncapitalized letters represent notes that are staccato (1/2 duration)
Irregular groupings are notated above the duration line
Duration letters will always appear directly above the note/fret number it represents the
duration for.  Duration letters with no fret number below them represent rests.  Multi-
bar rests are notated in the form Wxn, where n is the number of bars to rest for.  Low
melody durations appear below the staff

Tablature Legend
----------------
 h   - hammer-on
 p   - pull-off
 b   - bend
 pb  - pre-bend
 r   - bend release (if no number after the r, then release immediately)
 /\  - slide into or out of (from/to "nowhere")
 s   - legato slide
 S   - shift slide
<n> - natural harmonic
[n]  - artificial harmonic
n(n) - tapped harmonic
 ~   - vibrato
 tr  - trill
 T   - tap
 TP  - trem. picking
 PM  - palm muting
\n/  - tremolo bar dip; n = amount to dip
 \n  - tremolo bar down
 n/  - tremolo bar up
/n\  - tremolo bar inverted dip
 =   - hold bend; also acts as connecting device for hammers/pulls
 <> - volume swell (louder/softer)
 x   - on rhythm slash represents muted slash
 o   - on rhythm slash represents single note slash

Misc Legend
-----------
 |  - bar
||  - double bar
||o - repeat start
o|| - repeat end
*|  - double bar (ending)
 :  - bar (freetime)
 $  - Segno
 &  - Coda
Tempo markers - <E/E./Q/Q./H/H.> = BPM(8/16=s8/s16), where s8 = swing 8ths, s16 = swing 16ths

comments
print report bad tab
I want to post or [tab]
guest
You may want to rate the tab now too:
select rating
Please do not post tabs as comments. Select "correction" instead!