Oops, an error
Loading. Please wait.

Tears In A Vial Tab

ver3
ver3

Whole song

More versions @911Tabs.com
351 views 1 this week
no commentswrite comment
1 2 3 4 5
please rate
Autoscroll
+/-
esc
set tempo
stop
Contributor
WARNING: You are trying to view
                                    content from Ultimate-Guitar.com
                                    in an unauthorized application,
                                    which is prohibited.

                                    Please use an official Ultimate
                                    Guitar Tabs application for iPhone,
                                    iPad or Android to access legitimate
                                    chords, guitar, bass, and drum tabs
                                    from Ultimate-Guitar.com database.

                                    Type "ultimate guitar tabs" in Apple
                                    App Store's or Android Market's
                                    search to find the application.
#----------------------------------PLEASE NOTE---------------------------------#
#This file is the author's own work and represents their interpretation of the #
#song. You may only use this file for private study, scholarship, or research. #
#------------------------------------------------------------------------------#

TEARS IN A VIAL
As recorded by Megadeth
(From the 2004 Album THE SYSTEM HAS FAILED)

Transcribed by livingzombie & abysslord (http://www.abysslord.com/)
        

Words and Music by Dave Mustaine

Gtr I (E A D G B E) - 'Dave Mustaine Rhythm'
Gtr II (E A D G B E) - 'Chris Poland Rhythm'
Gtr III (E A D G B E) - 'Solos'

 Intro Verse
  Q=142
  Am          G                 F                 E                 Am
 4/4
  Gtr I
     PM-|   PM         PM-|   PM         PM-|   PM         PM-|   PM
  Q  Q  E E E E   +Q   Q  E E E E   +Q   Q  E E E E   +Q   Q  E E E E
|---------------|-----------------|-----------------|------------------|
|---------------|-----------------|-----------------|------------------|
|-5-------5---4-|-(4)-------4---2-|-(2)-------2---1-|-(1)-------1---5--|
|-7-------7---5-|-(5)-------5---3-|-(3)-------3---2-|-(2)-------2---7--|
|----0--0---0---|------0--0---0---|------0--0---0---|------0--0---0----|
|---------------|-----------------|-----------------|------------------|


                G                 D5                D°                  Am
       PM-|   PM         PM-|   PM         PM-|   PM
  +Q   Q  E E E E   +Q   Q  E E E E   +Q   Q  E E E E   +E  E E E E E E E
|-----------------|-----------------|-----------------|-------------------|
|-----------------|-----------------|-----------------|---------0---------|
|-(5)-------5---4-|-(4)-------4---7-|-(7)-------7---7-|-(7)---7---7---7-5-|
|-(7)-------7---5-|-(5)-------5---7-|-(7)-------7---6-|-(6)-6-------6---7-|
|------0--0---0---|------0--0---0---|------0--0---0---|-------------------|
|-----------------|-----------------|-----------------|-------------------|


                G                 F                 E                 Am
       PM-|   PM         PM-|   PM         PM-|   PM         PM-|   PM
  +Q   Q  E E E E   +Q   Q  E E E E   +Q   Q  E E E E   +Q   Q  E E E E
|-----------------|-----------------|-----------------|-----------------|
|-----------------|-----------------|-----------------|-----------------|
|-(5)-------5---4-|-(4)-------4---2-|-(2)-------2---1-|-(1)-------1---5-|
|-(7)-------7---5-|-(5)-------5---3-|-(3)-------3---2-|-(2)-------2---7-|
|------0--0---0---|------0--0---0---|------0--0---0---|------0--0---0---|
|-----------------|-----------------|-----------------|-----------------|


                G                 D5                D°                  Am
       PM-|   PM         PM-|   PM         PM-|   PM
  +Q   Q  E E E E   +Q   Q  E E E E   +Q   Q  E E E E   +E  E E E E E E E
|-----------------|-----------------|-----------------|-------------------|
|-----------------|-----------------|-----------------|---------0---------|
|-(5)-------5---4-|-(4)-------4---7-|-(7)-------7---7-|-(7)---7---7---7-5-|
|-(7)-------7---5-|-(5)-------5---7-|-(7)-------7---6-|-(6)-6-------6---7-|
|------0--0---0---|------0--0---0---|------0--0---0---|-------------------|
|-----------------|-----------------|-----------------|-------------------|


 Verse
                      G                       F
      PM--------|   PM        PM--------|   PM
  +E  S S E S S E E E E   +E  S S E S S E E E E
|-----------------------|-----------------------|
|-----------------------|-----------------------|
|-(5)-------------5---4-|-(4)-------------4---2-|
|-(7)-------------7---5-|-(5)-------------5---3-|
|-----0-0-0-0-0-0---0---|-----0-0-0-0-0-0---0---|
|-----------------------|-----------------------|


                      E                       Am
      PM--------|   PM        PM--------|   PM
  +E  S S E S S E E E E   +E  S S E S S E E E E
|-----------------------|------------------------|
|-----------------------|------------------------|
|-(2)-------------2---1-|-(1)-------------1---5--|
|-(3)-------------3---2-|-(2)-------------2---7--|
|-----0-0-0-0-0-0---0---|-----0-0-0-0-0-0---0----|
|-----------------------|------------------------|


                      G                       D5
  Gtr I
      PM--------|   PM        PM--------|   PM
  +E  S S E S S E E E E   +E  S S E S S E E E E
|-----------------------|-----------------------|
|-----------------------|-----------------------|
|-(5)-------------5---4-|-(4)-------------4---7-|
|-(7)-------------7---5-|-(5)-------------5---7-|
|-----0-0-0-0-0-0---0---|-----0-0-0-0-0-0---0---|
|-----------------------|-----------------------|
|
| Gtr III
|  W                       W
|-----------------------|-----------------------|
|-----------------------|-----------------------|
|-----------------------|-----------------------|
|-----------------------|-----------------------|
|-----------------------|-----------------------|
|-----------------------|-----------------------|


                           D°                   Am
      PM-------------|   PM
  +E  S S  E     S S E E E E    +E  E E E E E E E
|----------------------------|--------------------|
|----------------------------|----------0---------|
|-(7)------------------7---7-|--(7)---7---7---7-5-|
|-(7)------------------7---6-|--(6)-6-------6---7-|
|-----0-0--0-----0-0-0---0---|--------------------|
|----------------------------|--------------------|
|
|  Q       H.                   +W
|----------------------------|--------------------|
|---------15b17==============|=(15)---------------|
|----------------------------|--------------------|
|----------------------------|--------------------|
|----------------------------|--------------------|
|----------------------------|--------------------|


                       G                        F
       PM--------|   PM         PM--------|   PM
   +E  S S E S S E E E E    +E  S S E S S E E E E
|------------------------|------------------------|
|------------------------|------------------------|
|--(5)-------------5---4-|--(4)-------------4---2-|
|--(7)-------------7---5-|--(5)-------------5---3-|
|------0-0-0-0-0-0---0---|------0-0-0-0-0-0---0---|
|------------------------|------------------------|
|
|  +W                       +W
|------------------------|------------------------|
|-(15)-------------------|-(15)-------------------|
|------------------------|------------------------|
|------------------------|------------------------|
|------------------------|------------------------|
|------------------------|------------------------|


                        E                       F
        PM--------|   PM        PM--------|   PM
   +E   S S E S S E E E E   +E  S S E S S E E E E
|-------------------------|------------------------|
|-------------------------|------------------------|
|--(2)--------------2---1-|-(1)-------------1---2--|
|--(3)--------------3---2-|-(2)-------------2---3--|
|-------0-0-0-0-0-0---0---|-----0-0-0-0-0-0---0----|
|-------------------------|------------------------|
|
|  +W                        W
|-------------------------|------------------------|
|-(15)r-------------------|------------------------|
|-------------------------|------------------------|
|-------------------------|------------------------|
|-------------------------|------------------------|
|-------------------------|------------------------|


                      E
  Gtr I
      PM--------|   PM        PM--------|
  +E  S S E S S E E E E   +E  E E E E E E E
|-----------------------|-------------------|
|-----------------------|-------------------|
|-(2)-------------2---1-|-(1)---------------|
|-(3)-------------3---2-|-(2)---------------|
|-----0-0-0-0-0-0---0---|-----0-0-0-0-0-0-0-|
|-----------------------|-------------------|


   Chorus
                       1.,2.
    N.C.
    +E  E E E E E E E   +E  E E Q  E E E  3x
||--------------------|-------------------||
||o-------------------|------------------o||
||--------------------|-------------------||
||------------5-4-----|-------------------||
||o-(0)-0-3p0-----5---|-----3-5----3-5-0-o||
||------------------2-|-(2)-----1---------||


  3.
               E5             F5 E5                   Am
  Gtr I
                                          PM--------|
  E E E Q  E E E   +H     +E  q  E   +E   E E E E E E E
|----------------|-----------------|--------------------|
|----------------|-----------------|--------------------|
|----------------|-----------------|--------------------|
|----------------|-----------------|--------------------|
|---3-5----3-5-2-|-(2)----(2)-3--2-|-(2)--------------0-|
|-2-----1------0-|-(0)----(0)-1--0-|-(0)--0-0-0-0-0-0---|
|
| Gtr III
| W                 W                 H..             E
|----------------|-----------------|--------------------|
|----------------|-----------------|--------------------|
|----------------|-----------------|--------------------|
|----------------|-----------------|------------------7-|
|----------------|-----------------|--------------------|
|----------------|-----------------|--------------------|


                        G                         C°
      PM--------|    PM         PM--------|    PM
  +E  S S E S S E E  E  E   +E  S S E S S E E  E   E
|-------------------------|--------------------------|
|-------------------------|--------------------------|
|-----------------5-----4-|-(4)-------------4------5-|
|-----------------7-----5-|-(5)-------------5------4-|
|-(0)-0-0-0-0-0-0----0----|-----0-0-0-0-0-0----0-----|
|-------------------------|--------------------------|
|
| +H.               +E  E   +H.               +E   E
|-------------------------|--------------------------|
|-------------------------|--------------------------|
|-------------------------|--------------------------|
|-(7)---------------(7)S9-|-(9)---------------(9)S10-|
|-------------------------|--------------------------|
|-------------------------|--------------------------|


                          B°                           Am
       PM--------|     PM           PM--------|     PM
   +E  S S E S S E E   E   E    +E  S S E S S E E   E  E
|----------------------------|----------------------------|
|----------------------------|----------------------------|
|--(5)-------------5-------4-|--(4)-------------4------5--|
|--(4)-------------4-------3-|--(3)-------------3------7--|
|------0-0-0-0-0-0-----0-----|------0-0-0-0-0-0-----0-----|
|----------------------------|----------------------------|
|
|  +H.                +E   E    +H.                +E  E
|----------------------------|----------------------------|
|----------------------------|----------------------------|
|----------------------------|----------------------------|
|-(10)---------------(10)S12-|-(12)---------------(12)S7--|
|----------------------------|----------------------------|
|----------------------------|----------------------------|


                        G                         C°
      PM--------|    PM         PM--------|    PM
  +E  S S E S S E E  E  E   +E  S S E S S E E  E   E
|-------------------------|--------------------------|
|-------------------------|--------------------------|
|-(5)-------------5-----4-|-(4)-------------4------5-|
|-(7)-------------7-----5-|-(5)-------------5------4-|
|-----0-0-0-0-0-0----0----|-----0-0-0-0-0-0----0-----|
|-------------------------|--------------------------|
|
|  H.               +E  E   +H.               +E   E
|-------------------------|--------------------------|
|-------------------------|--------------------------|
|-------------------------|--------------------------|
|--7----------------(7)S5-|-(5)---------------(5)S10-|
|-------------------------|--------------------------|
|-------------------------|--------------------------|


                          B°                    Am
       PM--------|     PM         PM--------|
   +E  S S E S S E E   E  E   +E  E E E E E  E   E
|---------------------------|----------------------|
|---------------------------|----------------------|
|--(5)-------------5------4-|-(4)----------------5-|
|--(4)-------------4------3-|-(3)----------------7-|
|------0-0-0-0-0-0-----0----|-----0-0-0-0-0--0-----|
|---------------------------|----------------------|
|
|  +H.                +E  E   +H.           +E   E
|---------------------------|----------------------|
|---------------------------|----------------------|
|---------------------------|----------------------|
|-(10)---------------(10)S9-|-(9)-----------(9)s10-|
|---------------------------|----------------------|
|---------------------------|----------------------|


 Verse
                       G                        C°
       PM--------|   PM         PM--------|   PM
   +E  S S E S S E E E E    +E  S S E S S E E E E
|------------------------|------------------------|
|------------------------|------------------------|
|--(5)-------------5---4-|--(4)-------------4---5-|
|--(7)-------------7---5-|--(5)-------------5---4-|
|------0-0-0-0-0-0---0---|------0-0-0-0-0-0---0---|
|------------------------|------------------------|
|
|                            >
|  +W                       +W
|------------------------|------------------------|
|------------------------|------------------------|
|------------------------|------------------------|
|-(10)-------------------|-(10)-------------------|
|------------------------|------------------------|
|------------------------|------------------------|


                      B°                      Am
      PM--------|   PM        PM--------|   PM
  +E  S S E S S E E E E   +E  S S E S S E E E E
|-----------------------|------------------------|
|-----------------------|------------------------|
|-(5)-------------5---4-|-(4)-------------4---5--|
|-(4)-------------4---3-|-(3)-------------3---7--|
|-----0-0-0-0-0-0---0---|-----0-0-0-0-0-0---0----|
|-----------------------|------------------------|
|
|  W                       W
|-----------------------|------------------------|
|-----------------------|------------------------|
|-----------------------|------------------------|
|-----------------------|------------------------|
|-----------------------|------------------------|
|-----------------------|------------------------|


                      G                       D5
      PM--------|   PM        PM--------|   PM
  +E  S S E S S E E E E   +E  S S E S S E E E E
|-----------------------|-----------------------|
|-----------------------|-----------------------|
|-(5)-------------5---4-|-(4)-------------4---7-|
|-(7)-------------7---5-|-(5)-------------5---7-|
|-----0-0-0-0-0-0---0---|-----0-0-0-0-0-0---0---|
|-----------------------|-----------------------|
|
|                          <
|  W                       W
|-----------------------|-----------------------|
|-----------------------|--5--------------------|
|-----------------------|-----------------------|
|-----------------------|-----------------------|
|-----------------------|-----------------------|
|-----------------------|-----------------------|


                      D°                       Am
      PM--------|   PM
  +E  S S E S S E E E E   +E  E  E     E E E E E
|-----------------------|------------------------|
|-----------------------|--------------0---------|
|-(7)-------------7---7-|-(7)----7-------7---7-5-|
|-(7)-------------7---6-|-(6)-6------------6---7-|
|-----0-0-0-0-0-0---0---|------------------------|
|-----------------------|------------------------|
|
| +W                      +Q     H.
|-----------------------|-------10b12============|
|-(5)-------------------|-(5)---(5)--------------|
|-----------------------|------------------------|
|-----------------------|------------------------|
|-----------------------|------------------------|
|-----------------------|------------------------|


                       G                        F
       PM--------|   PM         PM--------|   PM
   +E  S S E S S E E E E    +E  S S E S S E E E E
|------------------------|------------------------|
|------------------------|------------------------|
|--(5)-------------5---4-|--(4)-------------4---2-|
|--(7)-------------7---5-|--(5)-------------5---3-|
|------0-0-0-0-0-0---0---|------0-0-0-0-0-0---0---|
|------------------------|------------------------|
|
|  +W                       +W
|-(10)-------------------|-(10)-------------------|
|------------------------|------------------------|
|------------------------|------------------------|
|------------------------|------------------------|
|------------------------|------------------------|
|------------------------|------------------------|


                         E                       F
        PM---------|   PM        PM--------|   PM
   +E   S S E  S S E E E E   +E  S S E S S E E E E
|--------------------------|------------------------|
|--------------------------|------------------------|
|--(2)---------------2---1-|-(1)-------------1---2--|
|--(3)---------------3---2-|-(2)-------------2---3--|
|-------0-0-0--0-0-0---0---|-----0-0-0-0-0-0---0----|
|--------------------------|------------------------|
|
|           <
|  +Q       H.               +W
|-(10)r-----8--------------|-(8)--------------------|
|--------------------------|------------------------|
|--------------------------|------------------------|
|--------------------------|------------------------|
|--------------------------|------------------------|
|--------------------------|------------------------|


                       E
       PM--------|   PM          PM--------|
  +E   S S E S S E E E  E    +E  E E E E E E E
|-------------------------|--------------------|
|-------------------------|--------------------|
|-(2)--------------2----1-|--(1)---------------|
|-(3)--------------3----2-|--(2)---------------|
|------0-0-0-0-0-0---0----|------0-0-0-0-0-0-0-|
|-------------------------|--------------------|
|
|  <                    <
|  H..                  E    +W
|----------------------17-|-(17)---------------|
|--5----------------------|--------------------|
|-------------------------|--------------------|
|-------------------------|--------------------|
|-------------------------|--------------------|
|-------------------------|--------------------|


 Chorus
  N.C.
   +E  E E E E E E E   +E  E E Q  E E E
|--------------------|------------------|
|--------------------|------------------|
|--------------------|------------------|
|------------5-4-----|------------------|
|--(0)-0-3p0-----5---|-----3-5----3-5-0-|
|------------------2-|-(2)-----1--------|
|
|   >
|  +W                   W
|-(17)---------------|------------------|
|--------------------|------------------|
|--------------------|------------------|
|--------------------|------------------|
|--------------------|------------------|
|--------------------|------------------|


                       1.
    Gtr I
    +E  E E E E E E E   +E  E E Q  E E E
||--------------------|-------------------||
||o-------------------|------------------o||
||--------------------|-------------------||
||------------5-4-----|-------------------||
||o-(0)-0-3p0-----5---|-----3-5----3-5-0-o||
||------------------2-|-(2)-----1---------||


 2.
               E5             F5 E5                  N.C.
                                         PM--------|
  E E E Q  E E E   +H     +E  q  E   +E  E E E E E E E
|----------------|-----------------|---------------------|
|----------------|-----------------|---------------------|
|----------------|-----------------|---------------------|
|----------------|-----------------|---------------------|
|---3-5----3-5-2-|-(2)----(2)-3--2-|-(2)-------------0---|
|-2-----1------0-|-(0)----(0)-1--0-|-(0)-0-0-0-0-0-0-----|


                       1.,2.                3.
                                                          E5
    Gtr I
    +E  E E E E E E E   +E  E E Q  E E E  3x E E E Q  E E E
||--------------------|-------------------||----------------|
||o-------------------|------------------o||----------------|
||--------------------|-------------------||----------------|
||------------5-4-----|-------------------||----------------|
||o-(0)-0-3p0-----5---|-----3-5----3-5-0-o||---3-5----3-5-2-|
||------------------2-|-(2)-----1---------||-2-----1------0-|
|
|   Gtr III
|    W                   W                3x W
||--------------------|-------------------||----------------|
||o-------------------|------------------o||----------------|
||--------------------|-------------------||----------------|
||--------------------|-------------------||----------------|
||o-------------------|------------------o||----------------|
||--------------------|-------------------||----------------|


             F5 E5                   N.C.
                         PM--------|
  +H     +E  q  E   +E   E E E E E E  E
|-----------------|---------------------------|
|-----------------|---------------------------|
|-----------------|---------------------------|
|-----------------|------------------/7-------|
|-(2)----(2)-3--2-|-(2)-----------------------|
|-(0)----(0)-1--0-|-(0)--0-0-0-0-0-0----------|
|
|  W                 H..              E
|-----------------|---------------------------|
|-----------------|---------------------------|
|-----------------|-------------------8pb9r===|
|-----------------|---------------------------|
|-----------------|---------------------------|
|-----------------|---------------------------|


 Solo (Mustaine)
  Gtr I
        ~                            ~
  +E    Q      E E E E E      +E     Q       E E E E E
|---------------------------|----------------------------|
|---------------------------|----------------------------|
|-------5--------7-5--------|--------5---------7-5-------|
|-(7)----------7-----7-5----|-(5)------------5-----5-4---|
|---------------------------|----------------------------|
|---------------------------|----------------------------|
|
|              ~~                            ~~
| +Q      +E   H       E      +Q       +E    H       S S
|---------------------------|------------------------7---|
|---------------------------|---------------10-----------|
|-(8)b9---(8)----------8pb9r|=(8)b9====(8)r--------------|
|-------------10------------|----------------------------|
|---------------------------|----------------------------|
|---------------------------|----------------------------|


      ~
  +E  Q      E E E E  E   +E  E E E  E  E E   E
|-----------------------|------------------------|
|-----------------------|------------------------|
|-----5--------7-5------|-----5------7--5--------|
|-(4)--------4-----4--3-|-(3)---3-3-------5---7--|
|-----------------------|------------------------|
|-----------------------|------------------------|
|
|                          ~~~~~~~~~~~~~      ~
|  E.   E  S E E E E  E    H        +E  E S S E
|--8----7---------------|------------------------|
|---------10-8-7--------|------------------------|
|----------------9-7----|------------------------|
|--------------------10-|---------------------7--|
|-----------------------|--8--------(8)---5s6----|
|-----------------------|---------------8--------|


      ~                    ~
  +E  Q  E  E  E E E   +E  Q  E  E  E E  E
|--------------------|---------------------|
|--------------------|---------------------|
|-----5-----7--5-----|-----5-----7--5------|
|-(7)----7-------7-5-|-(5)----5-------5--4-|
|--------------------|---------------------|
|--------------------|---------------------|
|
|  ~~~~~~~~~~~~    ~~~~~~~~~~~~~~~~~     ~~~
| +H       +E  E E E   +H       +E  E E  E
|--------------------|---------------------|
|--------------------|---------------------|
|--------------------|---------------------|
|-(7)------(7)---7-9-|-(9)------(9)---9-10-|
|--------------7-----|--------------7------|
|--------------------|---------------------|


       ~
   +E  Q    E  E   E E E   +E  E  E E E E  E  E
|------------------------|----------------------|
|------------------------|----------------------|
|------5-------7---5-----|-----5------7-5-------|
|--(4)------4--------4-3-|-(3)----3-3------5--7-|
|------------------------|----------------------|
|------------------------|----------------------|
|
|~~~~~~
|  +E  E  E E +E   E E E   +E  E  E E E E  E  E
|------------------------|----------------------|
|------------------------|------------8-6s12s10-|
|-----------7-(7)----7-9-|-(9)-7-10-9-----------|
|-(10)---10-------10-----|----------------------|
|------7-----------------|----------------------|
|------------------------|----------------------|


  Gtr I
       ~                       ~
   +E  Q   E  E E  E  E    +E  Q   E  E E  E  E
|-----------------------|-----------------------|
|-----------------------|-----------------------|
|------5------7-5-------|------5------7-5-------|
|--(7)-----7-------7--5-|--(5)-----5-------5--4-|
|-----------------------|-----------------------|
|-----------------------|-----------------------|
|
| Gtr III
|   >
|  +W                       W
|-----------------------|-----------------------|
|-(10)------------------|-----------------------|
|-----------------------|-----------------------|
|-----------------------|-----------------------|
|-----------------------|-----------------------|
|-----------------------|-----------------------|
|
| Gtr II
|      ~                       ~
|   E  Q   E  E E  E  E    +E  Q   E  E E  E  E
|-----------------------|-----------------------|
|-----------------------|-----------------------|
|------9-----10-9-------|------9-----10-9-------|
|--10-----10------12-10-|-(10)----10------12-10-|
|-----------------------|-----------------------|
|-----------------------|-----------------------|


       ~                       ~
   +E  Q   E  E E  E  E    +E  Q   E  E  E  E  E
|-----------------------|------------------------|
|-----------------------|------------------------|
|------5------7-5-------|------5------7--5-------|
|--(4)-----4-------4--3-|--(3)-----7--------5--7-|
|-----------------------|------------------------|
|-----------------------|------------------------|
|
|   W                       W
|-----------------------|------------------------|
|-----------------------|------------------------|
|-----------------------|------------------------|
|-----------------------|------------------------|
|-----------------------|------------------------|
|-----------------------|------------------------|
|
|      ~                       ~
|  +E  Q   E  E E  E  E    +E  Q   E  E  E  E  E
|-----------------------|------------------------|
|-----------------------|------------------------|
|------9-----10-9-------|------9-----12-10-------|
|-(10)----10------12-10-|-(10)----10-------12-10-|
|-----------------------|------------------------|
|-----------------------|------------------------|


  Gtr I
       ~                       ~
   +E  Q   E  E E  E  E    +E  Q   E  E E  E  E
|-----------------------|-----------------------|
|-----------------------|-----------------------|
|------5------7-5-------|------5------7-5-------|
|--(7)-----7-------7--5-|--(5)-----5-------5--4-|
|-----------------------|-----------------------|
|-----------------------|-----------------------|
|
| Gtr II
|      ~                       ~
|  +E  Q   E  E E  E  E    +E  Q   E  E E  E  E
|-----------------------|-----------------------|
|-----------------------|-----------------------|
|------9-----10-9-------|------9-----10-9-------|
|-(10)----10------12-10-|-(10)----10------12-10-|
|-----------------------|-----------------------|
|-----------------------|-----------------------|
|
| Gtr III
|   W                       W
|-----------------------|-----------------------|
|-----------------------|-----------------------|
|-----------------------|-----------------------|
|-----------------------|-----------------------|
|-----------------------|-----------------------|
|-----------------------|-----------------------|


                                                     Am
       ~
   +E  Q   E  E  E  E E      +E      E E E E E  E     E
|--------------------------|-------------------------------|
|--------------------------|-------------------------------|
|------5------7--5---------|--------------------------5----|
|--(4)-----4--------4------|--------------------------7----|
|---------------------3----|-(3)---------------------------|
|---------------------1----|-(1)-----1-1-1-1-1--1----------|
|
|      ~
|  +E  Q   E  E  E  E E      +W
|--------------------------|-------------------------------|
|--------------------------|-------------------------------|
|------9-----12-10---------|-------------------------------|
|-(10)----10-------12-9b10r|=(9)b10========================|
|--------------------------|-------------------------------|
|--------------------------|-------------------------------|
|
|   W                         H.                S  S  S  S
|--------------------------|----------------------15-17-20-|
|--------------------------|-------------------18----------|
|--------------------------|-------------------------------|
|--------------------------|-------------------------------|
|--------------------------|-------------------------------|
|--------------------------|-------------------------------|


 Solo (Poland)
                                     G                                                   C°
        PM--------------|     PM                      PM------------|                  PM
  +E    S S   E     S S E E   E        E     +E       S S E   S   S   E        E       E  E
|-----------------------------------------|-------------------------------------------------|
|-----------------------------------------|-------------------------------------------------|
|-(5)---------------------5------------4--|--(4)-------------------------------4----------5-|
|-(7)---------------------7------------5--|--(5)-------------------------------5----------4-|
|-------0-0---0-----0-0-0-----0-----------|-----------0-0-0---0---0---0----------------0----|
|-----------------------------------------|-------------------------------------------------|
|
|                                                     PM------------|                  PM
| +H..                                 E     +E       S S E   S   S   E        E       E  E
|-----------------------------------------|-------------------------------------------------|
|-----------------------------------------|-------------------------------------------------|
|--------------------------------------4--|--(4)-------------------------------4----------5-|
|-(9)r---------------------------------5--|--(5)-------------------------------5----------4-|
|-----------------------------------------|-----------0-0-0---0---0---0----------------0----|
|-----------------------------------------|-------------------------------------------------|
|
|                                      ~~~~~~~~~~~~~~~
|  E    E    +H              +E       +E     +Q.             +E      +E       +S   +E.    e
|------17---(17)b19---------(17)b20==(17)r|=(17)pb19========(17)r---(17)b20==(17)r(17)------|
|-----------------------------------------|----------------------------------------------17-|
|-----------------------------------------|-------------------------------------------------|
|-----------------------------------------|-------------------------------------------------|
|-----------------------------------------|-------------------------------------------------|
|-----------------------------------------|-------------------------------------------------|


                                                   B°
       PM---------------------------------|      PM
  +E   S       S    E                 S S  E  E  E  E
|---------------------------------------------------------|
|---------------------------------------------------------|
|-(5)-----------------------------------------5-----4-----|
|-(4)-----------------------------------------4-----3-----|
|------0-------0----0-----------------0-0--0-----0--------|
|---------------------------------------------------------|
|
|      PM---------------------------------|      PM
| +E   S       S    E                 S S  E  E  E  E
|---------------------------------------------------------|
|---------------------------------------------------------|
|-(5)-----------------------------------------5-----4-----|
|-(4)-----------------------------------------4-----3-----|
|------0-------0----0-----------------0-0--0-----0--------|
|---------------------------------------------------------|
|
|  e   S      +S   +S       +T   +T   e    e  E  E  E
|---------------------------------------------------------|
|-18--17b18==(17)r(17)b18==(17)r(17)---------17-18-18b20==|
|------------------------------------19---17--------------|
|---------------------------------------------------------|
|---------------------------------------------------------|
|---------------------------------------------------------|


                                Am                                        G
  Gtrs I, II
        PM--------|        PM                 PM--------|         PM
   +E   S S E S S  E    E  E     E        +E  S S E S S   E    E  E        E
|--------------------------------------|-------------------------------------------|
|--------------------------------------|-------------------------------------------|
|--(4)------------------4--------5-----|--(5)------------------5-----------4-------|
|--(3)------------------3--------7-----|--(7)------------------7-----------5-------|
|-------0-0-0-0-0--0-------0-----------|------0-0-0-0-0---0-------0----------------|
|--------------------------------------|-------------------------------------------|
|
| Gtr III
|                                                                 |------6-------|
|  +H              Q       E     E        +H             +E    E  S  S  S  S  S  S
|--------------------------------------|-------------------------------------------|
|-(18)r-----------18b20---18b20-18b20==|=(18)-----------(18)r-18p17-18p17----------|
|--------------------------------------|----------------------------------19-17-21-|
|--------------------------------------|-------------------------------------------|
|--------------------------------------|-------------------------------------------|
|--------------------------------------|-------------------------------------------|


                                                                 C°
             PM----------------------------|                  PM
  +E         S    S     E        S    S     E        E        E  E
|--------------------------------------------------------------------|
|--------------------------------------------------------------------|
|-(4)------------------------------------------------4-----------5---|
|-(5)------------------------------------------------5-----------4---|
|------------0----0-----0--------0----0-----0-----------------0------|
|--------------------------------------------------------------------|
|
|  |--------6--------|  |-------6--------|  |------6-------|
|  S   S  S  S  S    S  S  S  S  S  S    S  S  S  S  S  S  S  Q
|--------------------------------------------------------------------|
|--------------------------------------------------------------------|
|-19--17-------------------------------------------------------------|
|--------21-19-17---19-17-15-----------------------------------------|
|----------------------------19-17-15---20-19-17---------------------|
|------------------------------------------------20-19-17-15-15\-----|


                                 B°                               Am
  Gtr I
      PM----------|      PM                    PM--------|
  +E  S S  E  S S  E  E  E        E     +E     E E E E E E         E
|-------------------------------------|---------------------------------|
|-------------------------------------|---------------------------------|
|-(5)-----------------5-----------4---|-(4)------------------------5----|
|-(4)-----------------4-----------3---|-(3)------------------------7----|
|-----0-0--0--0-0--0-----0------------|--------0-0-0-0-0-0--------------|
|-------------------------------------|---------------------------------|
|
| Gtr II
|     PM----------|      PM                    PM  PM  PM
| +E  S S  E  S S  E  E  E        E     +E     E E E E E E         E
|-------------------------------------|---------------------------------|
|-------------------------------------|---------------------------------|
|-(5)-----------------5-----------4---|-(4)------4---4---4---------5----|
|-(4)-----------------4-----------3---|-(3)------3---3---3---------7----|
|-----0-0--0--0-0--0-----0------------|--------0---0---0----------------|
|-------------------------------------|---------------------------------|
|
| Gtr III
|  ~~~                ~~~~~~~~~~~           ~~~~~~~~~~~~~~~~~~~
|  Q       E  E    E  E.    +S    S S    S  H.             +S   a  S  S
|-------------------------------------|---------------------------------|
|-------------------------------------|------------------------16h17-16-|
|-------------------------------------|---------------------------------|
|-------------------------------------|---------------------------------|
|---------12------12s14----(14)\-10p8h|=12--8--------------(8)----------|
|-12---------12-----------------------|---------------------------------|


                                       G
       PM---------------------|   PM
   +E  S   S       E   S    S E E E     E
|---------------------------------------------|
|---------------------------------------------|
|--(5)--------------------------5-------4-----|
|--(7)--------------------------7-------5-----|
|------0---0-------0---0----0-0---0-----------|
|---------------------------------------------|
|
|      PM---------------------|   PM
|  +E  S   S       E   S    S E E E     E
|---------------------------------------------|
|---------------------------------------------|
|--(5)--------------------------5-------4-----|
|--(7)--------------------------7-------5-----|
|------0---0-------0---0----0-0---0-----------|
|---------------------------------------------|
|
|                      ~~~~~
|  +E.    +S      +E   H             a  S  S
|---------------------13b15-------------------|
|-(16)---(16)b17-(16)---------------16h17-16--|
|---------------------------------------------|
|---------------------------------------------|
|---------------------------------------------|
|---------------------------------------------|


                                     C°                                         B°
  Gtrs I, II
      PM-------------------|    PM                          PM--------|       PM
  +E  S   S       E   S  S E E  E     E           +E        S S E S S  E    E E  E
|-----------------------------------------------|----------------------------------|
|-----------------------------------------------|----------------------------------|
|-(4)------------------------4--------5---------|-(5)-----------------------5----4-|
|-(5)------------------------5--------4---------|-(4)-----------------------4----3-|
|-----0---0-------0---0--0-0----0---------------|-----------0-0-0-0-0--0------0----|
|-----------------------------------------------|----------------------------------|
|
| Gtr III
|                     ~~~                                                        ~~~
|  E.    +S      +E   Q.        S  S  S     +S     S   Q..             Q.        E
|-----------------------------------------------|-----20b23-----------20b22--------|
|-16----(16)b17-(16)-----------15----15b17r(15)-|-17----------------------------18-|
|--------------------17-----------17------------|----------------------------------|
|-----------------------------------------------|----------------------------------|
|-----------------------------------------------|----------------------------------|
|-----------------------------------------------|----------------------------------|


                                              Am
       PM----------|                   PM
   +E  S S E  S  S  E      E           E       E
|-----------------------------------------------------|
|-----------------------------------------------------|
|--(4)---------------------4-------------------5------|
|--(3)---------------------3-------------------7------|
|------0-0-0--0--0--0------------------0--------------|
|-----------------------------------------------------|
|
|~~~~~~
|  +Q.        S  S  S  S  +S       +E     +S   E
|-----------------------------------------------------|
|-(18)-------17---------------------------------------|
|---------------19-16-19-(19)b21==(19)r==(19)-21b24===|
|-----------------------------------------------------|
|-----------------------------------------------------|
|-----------------------------------------------------|


                                    G                                C°
         PM---------------|    PM            PM----------|       PM
   +E    S  S  E     S  S E E  E     E   +E  S S  E  S S  E  E   E   E
|--------------------------------------|-------------------------------------|
|--------------------------------------|-------------------------------------|
|--(5)----------------------5--------4-|-(4)-----------------4-------5-------|
|--(7)----------------------7--------5-|-(5)-----------------5-------4-------|
|--------0--0--0-----0--0-0----0-------|-----0-0--0--0-0--0------0-----------|
|--------------------------------------|-------------------------------------|
|
|                    ~~~             ~~~~~~~~
|  +E   +E     S  S  Q.        S  S  E    Q       E  E    E  E  +E.     a  S
|--------------------------------------|-------------------------------------|
|--------------------------------------|-------------------------------18h20-|
|-(21)-(21)r==19p17-19-----------------|-14------15-14-----------------------|
|-----------------------------17s15-17-|-----------------17-14-(14)\---------|
|--------------------------------------|-------------------------------------|
|--------------------------------------|-------------------------------------|


                                B°
                                                                   Gtr I
         PM------------|     PM                PM--------------------|
  +E     S   S   E S S E E   E   E        +E   E  E     E     E    E E  E
|--------------------------------------|------------------------------------|
|--------------------------------------|------------------------------------|
|-(5)--------------------5-------4-----|--(4)-------------------------------|
|-(4)--------------------4-------3-----|--(3)------------------------7-10---|
|--------0---0---0-0-0-0-----0---------|-------0--0-----0-----0----7--------|
|--------------------------------------|------------------------------------|
|
|  E.       +S   H          +E   E        +Q      E     E     Q.        E
|--------------------------------------|------------------------------------|
|-16b18====(16)r16---------(16)-13b15==|=(13)r------------------------------|
|--------------------------------------|---------12b14-12b14-12b14----------|
|--------------------------------------|------------------------------------|
|--------------------------------------|------------------------------------|
|--------------------------------------|------------------------------------|


 Verse
  N.C.
  Gtr I
       PM|     PM|         PM|    PM|
   +E  E E  Q  E E E   +E  E E Q  E E  E
|--------------------|-------------------|
|--------------------|-------------------|
|--------------------|-------------------|
|-(10)---7-10----7-9-|-(9)---7-9----7-12-|
|------7-------7-----|-----7------7------|
|--------------------|-------------------|


       PM|     PM|           PM|    PM|
   +E  E E  Q  E E  E    +E  E E Q  E E  E
|---------------------|--------------------|
|---------------------|--------------------|
|---------------------|--------------------|
|-(12)---7-12----7-10-|-(10)---7-9----7-10-|
|------7-------7------|------7------7------|
|---------------------|--------------------|


  Gtr I
       PM|     PM|         PM|    PM|
   +E  E E  Q  E E E   +E  E E Q  E E E
|--------------------|------------------|
|--------------------|------------------|
|--------------------|------------------|
|-(10)---7-10----7-9-|-(9)---7-9----5-7-|
|------7-------7-----|-----7------7-----|
|--------------------|------------------|
|
| Gtr II
|   W                   W
|--------------------|------------------|
|--------------------|------------------|
|--------------------|------------------|
|--------------------|------------------|
|--------------------|------------------|
|--------------------|------------------|


       PM|    PM|            PM    PM    PM
  +E   E E Q  E E  E    +E   E  E  E  E  E  E  E
|--------------------|---------------------------|
|--------------------|---------------------------|
|--------------------|---------------------------|
|-(7)------7-------6-|--(6)-----7-----6----10-10-|
|------5-8----5-8----|-------7-----7-----7-------|
|--------------------|---------------------------|
|
|  H..             E    +E   E  E  E  E  E  E  E
|--------------------|---------------------------|
|--------------------|---------------------------|
|--------------------|---------------------------|
|--------------------|---------------------15-14-|
|-----------------14-|-(14)----15----14----------|
|--------------------|------16----16----16-------|


        PM|       PM|             PM|       PM|
   +E   E  E  Q   E  E  E    +E   E  E  Q   E  E  E
|-------------------------|-------------------------|
|-------------------------|-------------------------|
|-------------------------|-------------------------|
|-(10)-----7-10------7--9-|--(9)-----7--9------7-12-|
|-------7---------7-------|-------7---------7-------|
|-------------------------|-------------------------|
|
|       PM|       PM|             PM|       PM|
|  +E   E  E  Q   E  E  E    +E   E  E  Q   E  E  E
|-------------------------|-------------------------|
|-------------------------|-------------------------|
|-------------------------|-------------------------|
|-(14)----10-14-----10-12-|-(12)----10-12-----10-15-|
|------10--------10-------|------10--------10-------|
|-------------------------|-------------------------|


        PM|       PM|             PM|       PM|
   +E   E  E  Q   E  E  E    +E   E  E  Q   E  E  E
|-------------------------|-------------------------|
|-------------------------|-------------------------|
|-------------------------|-------------------------|
|-(12)-----7-12------7-10-|-(10)-----7--9------7-10-|
|-------7---------7-------|-------7---------7-------|
|-------------------------|-------------------------|
|
|       PM|       PM|             PM|       PM|
|  +E   E  E  Q   E  E  E    +E   E  E  Q   E  E  E
|-------------------------|-------------------------|
|-------------------------|-------------------------|
|-------------------------|-------------------------|
|-(15)----10-15-----10-14-|-(14)----10-12-----10-14-|
|------10--------10-------|------10--------10-------|
|-------------------------|-------------------------|


        PM|       PM|             PM|       PM|
   +E   E  E  Q   E  E  E    +E   E  E  Q   E E  E
|-------------------------|------------------------|
|-------------------------|------------------------|
|-------------------------|------------------------|
|-(10)-----7-10------7--9-|--(9)-----7--9-----5--7-|
|-------7---------7-------|-------7---------7------|
|-------------------------|------------------------|
|
|       PM|       PM|             PM|       PM|
|  +E   E  E  Q   E  E  E    +E   E  E  Q   E E  E
|-------------------------|------------------------|
|-------------------------|------------------------|
|-------------------------|------------------------|
|-(14)----10-14-----10-12-|-(12)----10-12-----9-10-|
|------10--------10-------|------10--------10------|
|-------------------------|------------------------|


       PM|      PM|           PM    PM   PM    ~~
   +E  E  E  Q  E  E E   +E   E  E  E E  E  E  E
|----------------------|-------------------------|
|----------------------|-------------------------|
|----------------------|--------------------5--5-|
|--(7)-------7-------6-|-(6)-----7----6----------|
|------5--8-----5--8---|------7-----7----7-------|
|----------------------|-------------------------|
|
|      PM|      PM|           PM    PM   PM    ~~
|  +E  E  E  Q  E  E E   +E   E  E  E E  E  E  E
|----------------------|-------------------------|
|----------------------|-------------------------|
|----------------------|-------------------------|
|-(10)------10-------9-|-(9)----10----9----15-14-|
|------8-12-----8-12---|-----11----11---11-------|
|----------------------|-------------------------|


 Bridge
    ~~~~~~~~~~                        ~~~
   +H     +E  E E E    +E  E E Q  E E E
|-------------------|-------------------|
|-------------------|-------------------|
|--(5)----(5)-7-5-4-|--(4)-5-4--------5-|
|-------------------|----------7--6-----|
|-------------------|---------------7---|
|-------------------|-------------------|
|
|   ~~~~~~~~~~~~~~~~~~~~~~~~~~~~~~~~~~~~~
|  +W                  +W
|-------------------|-------------------|
|-------------------|-------------------|
|-------------------|-------------------|
|-(14)--------------|-(14)--------------|
|-------------------|-------------------|
|-------------------|-------------------|


 ~~~~~~~~~~~~~
   +H     +E  E E E    +E  E E Q  E E E
|-------------------|-------------------|
|-----------------5-|--(5)-6---5--------|
|--(5)----(5)-7-5---|--------7----7-5-4-|
|-------------------|-------------------|
|-------------------|-------------------|
|-------------------|-------------------|
|
|~~~~~~~~~~~~~~~~~~~~~~~~~~
|  +W                  +W
|-------------------|-------------------|
|-------------------|-------------------|
|-------------------|-------------------|
|-(14)--------------|-(14)--------------|
|-------------------|-------------------|
|-------------------|-------------------|


    ~~~~~~~~~~                             ~~~~~~~~~~~~~~~~~~~~~~~~~~
    H     +E  E E E    +E  E E Q  E Q      Q.    Q.    Q     +E   Q.    Q  Q
|-------------------|------------------|------------------|-------------------|
|-------------------|------------------|---9--------------|-------------------|
|---5-----(5)-7-5-4-|--(4)-5-4---------|--------10-----9--|--(9)--7-----5--4--|
|-------------------|----------7--6----|------------------|-------------------|
|-------------------|---------------7--|------------------|-------------------|
|-------------------|------------------|------------------|-------------------|
|
|   ~~~~~~~~~~~~~~~~~~~~~~~~~~~~~~~~~~~~~~~~~~~~~~~~~~~~~~~~~~~~~~~~~
|  +W                  +W                  Q.    Q.    Q     +E   Q.    Q  Q
|-------------------|------------------|------------------|-------------------|
|-------------------|------------------|-/17----15----13--|-(13)-12----10--9--|
|-------------------|------------------|------------------|-------------------|
|-(14)--------------|-(14)-------------|------------------|-------------------|
|-------------------|------------------|------------------|-------------------|
|-------------------|------------------|------------------|-------------------|


  Q=160
  Am
                PM---------------------|
   W            E  S S E S S E S S E S S
|--0--------|----------------------------|
|--0--------|----------------------------|
|--5--------|----------------------------|
|--7--------|----------------------------|
|--0--------|---0--0-0-0-0-0-0-0-0-0-0-0-|
|-----------|----------------------------|
|
|  ~~~~~~~~~~~~~~~~~~~~~~~~~~~~~~~~~~~~~~~
|  W           +W
|-----------|----------------------------|
|-10--------|-(10)-----------------------|
|-----------|----------------------------|
|-----------|----------------------------|
|-----------|----------------------------|
|-----------|----------------------------|


                  PM---------------------|
    W             E  S S E S S E S S E S S
|---0---------|-----------------------------|
|---0---------|-----------------------------|
|---5---------|-----------------------------|
|---7---------|-----------------------------|
|---0---------|---0--0-0-0-0-0-0-0-0-0-0-0--|
|-------------|-----------------------------|
|
|~~~~~~~~~~~~~~~~~~~~
|  +W            +W
|-------------|-----------------------------|
|-(10)--------|-(10)------------------------|
|-------------|-----------------------------|
|-------------|-----------------------------|
|-------------|-----------------------------|
|-------------|-----------------------------|


                  PM---------------------|
    W             E  S S E S S E S S E S S
|---0---------|----------------------------|
|---0---------|----------------------------|
|---5---------|----------------------------|
|---7---------|----------------------------|
|---0---------|---0--0-0-0-0-0-0-0-0-0-0-0-|
|-------------|----------------------------|
|
|   ~~~~~~~~~~~~~~~~~~~~~~~~~~~~~~~~~~~~~~~~
|  +W            +W
|-------------|----------------------------|
|-(10)--------|-(10)-----------------------|
|-------------|----------------------------|
|-------------|----------------------------|
|-------------|----------------------------|
|-------------|----------------------------|


                  PM---------------------|
    W             E  S S E S S E S S E S S
|---0---------|-----------------------------|
|---0---------|-----------------------------|
|---5---------|-----------------------------|
|---7---------|-----------------------------|
|---0---------|---0--0-0-0-0-0-0-0-0-0-0-0--|
|-------------|-----------------------------|
|
|~~~~~~~~~~~~~~~~~~~~
|  +W            +W
|-------------|-----------------------------|
|-(10)--------|-(10)------------------------|
|-------------|-----------------------------|
|-------------|-----------------------------|
|-------------|-----------------------------|
|-------------|-----------------------------|


 Verse
  A5                    B5                          C5
    PM----------------| ~~~~~~~~PM----------------| ~~~
  E S S E S S E S S S S E   +E  S S E S S E S S S S E
|-------------------------|---------------------------|
|-------------------------|---------------------------|
|-------------------------|---------------------------|
|-2-----------------------|---------------------------|
|-0-0-0-0-0-0-0-0-0-0-0-2-|-(2)-0-0-0-0-0-0-0-0-0-0-3-|
|-------------------------|---------------------------|


                          G5              F#5        F5
 ~~~~~PM----------------| ~~~~~~~~PM----| ~  PM----|
  +E  S S E S S E S S S S E   +E  S S S S Q  S S S S E
|---------------------------|-----------------------------|
|---------------------------|-----------------------------|
|---------------------------|-----------------------------|
|---------------------------|-----------------------------|
|-(3)-0-0-0-0-0-0-0-0-0-0---|-----0-0-0-0----0-0-0-0-3----|
|-------------------------3-|-(3)---------2----------1----|


                                                                E5
  Gtr I
      PM--------------------|               PM----------------|
  +E  S S S S S S S S S S S S  E    +E  S S S S S S S S S S S S E
|--------------------------------|--------------------------------|
|--------------------------------|--------------------------------|
|--------------------------------|--------------------------------|
|-----------------------------10-|-(10)---------------------------|
|-(3)--------------------------8-|--(8)-8-8-8-8-8-8-8-8-8-8-8-8-7-|
|-(1)-1-1-1-1-1-1-1-1-1-1-1-1----|------------------------------0-|
|
| Gtr II
|  W                                 W
|--------------------------------|--------------------------------|
|--------------------------------|--------------------------------|
|--------------------------------|--------------------------------|
|--------------------------------|--------------------------------|
|--------------------------------|--------------------------------|
|--------------------------------|--------------------------------|


      EbE5  C5 B5A5D5       G5F#E5 B5C5A5
          PM-----|          PM|
  +E  E E E  E E E e   +E   E E q  E E E
|--------------------|-------------------|
|--------------------|-------------------|
|--------------------|-------------------|
|-----8-9----------7-|-(7)---------4-5-2-|
|-(7)-6-7---10-9-7-5-|-(5)--5-4-2--2-3-0-|
|-(0)-----0--8-7-5---|------3-2-0--------|
|
|                                      ~
|  W                    H..            E
|--------------------|-------------------|
|--------------------|-------------------|
|--------------------|-------------------|
|--------------------|-----------------7-|
|--------------------|-------------------|
|--------------------|-------------------|


                           B5                           C5
      PM-----------------| ~~~~~~~~PM-----------------|  ~~~
  +E  S  S E S S E S S S S E   +E  S  S E S S E S S S S  E
|----------------------------|-----------------------------|
|----------------------------|-----------------------------|
|----------------------------|-----------------------------|
|-(2)------------------------|-----------------------------|
|-(0)-0--0-0-0-0-0-0-0-0-0-2-|-(2)-0--0-0-0-0-0-0-0-0-0--3-|
|----------------------------|-----------------------------|
|
|  ~~~                     ~~~~~~~~                      ~~~
| +E  H.                   E   +E  H.                    E
|----------------------------|-----------------------------|
|----------------------------|-----------------------------|
|----------------------------|-----------------------------|
|-(7)----------------------9-|-(9)----------------------10-|
|----------------------------|-----------------------------|
|----------------------------|-----------------------------|


                            G5                F#5        F5
 ~~~~~~PM-----------------|  ~~~~~~~~~PM----| ~  PM----|
   +E  S  S E S S E S S S S  E    +E  S S S S Q  S S S S E
|------------------------------|------------------------------|
|------------------------------|------------------------------|
|------------------------------|------------------------------|
|------------------------------|------------------------------|
|--(3)-0--0-0-0-0-0-0-0-0-0----|------0-0-0-0----0-0-0-0-3----|
|----------------------------3-|--(3)---------2----------1----|
|
|~~~~~~                      ~~~~~~~~~        ~          ~
|  +E  H.                    E    +E  Q       Q  Q       E
|------------------------------|------------------------------|
|------------------------------|------------------------------|
|------------------------------|------------------------------|
|-(10)-------------------------|------------------------------|
|---------------------------10-|-(10)---------9----------8----|
|------------------------------|------------------------------|


                                                                 E5
      PM---------------------|               PM----------------|
  +E  S S S  S S S S S S S S S  E    +E  S S S S S S S S S S S S E
|---------------------------------|--------------------------------|
|---------------------------------|--------------------------------|
|---------------------------------|--------------------------------|
|------------------------------10-|-(10)---------------------------|
|-(3)---------------------------8-|--(8)-8-8-8-8-8-8-8-8-8-8-8-8-7-|
|-(1)-1-1-1--1-1-1-1-1-1-1-1-1----|------------------------------0-|
|
|  ~~~
| +E  E   H.                          W
|---------------------------------|--------------------------------|
|---------------------------------|--------------------------------|
|---------------------------------|--------------------------------|
|---------------------------------|--------------------------------|
|-(8)-----------------------------|--------------------------------|
|---------------------------------|--------------------------------|


      EbE5  C5 B5A5D5       G5F#E5 B5C5A5
          PM-----|          PM|
  +E  E E E  E E E e   +E   E E q  E E  E
|--------------------|--------------------|
|--------------------|--------------------|
|--------------------|--------------------|
|-----8-9----------7-|-(7)---------4-5--2-|
|-(7)-6-7---10-9-7-5-|-(5)--5-4-2--2-3--0-|
|-(0)-----0--8-7-5---|------3-2-0---------|
|
|                                       ~~
|  W                    H..             E
|--------------------|--------------------|
|--------------------|-----------------10-|
|--------------------|--------------------|
|--------------------|--------------------|
|--------------------|--------------------|
|--------------------|--------------------|


                            B5                             C5
       PM-----------------|  ~~~~~~~~~PM-----------------|  ~~~
   +E  S  S E S S E S S S S  E    +E  S  S E S S E S S S S  E
|------------------------------|------------------------------|
|------------------------------|------------------------------|
|------------------------------|------------------------------|
|--(2)-------------------------|------------------------------|
|--(0)-0--0-0-0-0-0-0-0-0-0--2-|--(2)-0--0-0-0-0-0-0-0-0-0--3-|
|------------------------------|------------------------------|
|
|   ~~~~                     ~~~~~~~~~                      ~~~
|  +E  H.                    E    +E  H.                    E
|------------------------------|------------------------------|
|-(10)----------------------12-|-(12)----------------------13-|
|------------------------------|------------------------------|
|------------------------------|------------------------------|
|------------------------------|------------------------------|
|------------------------------|------------------------------|


                            G5                F#5         F5
 ~~~~~~PM-----------------|  ~~~~~~~~~PM----|  ~~ PM----|
   +E  S  S E S S E S S S S  E    +E  S S S S  Q  S S S S  E
|------------------------------|--------------------------------|
|------------------------------|--------------------------------|
|------------------------------|--------------------------------|
|------------------------------|--------------------------------|
|--(3)-0--0-0-0-0-0-0-0-0-0----|------0-0-0-0-----0-0-0-0--3----|
|----------------------------3-|--(3)----------2-----------1----|
|
|~~~~~~                      ~~~~~~~~~         ~~          ~~
|  +E  H.                    E    +E  Q        Q  Q        E
|------------------------------|--------------------------------|
|-(13)-------------------------|--------------------------------|
|---------------------------12-|-(12)---------11----------10----|
|------------------------------|--------------------------------|
|------------------------------|--------------------------------|
|------------------------------|--------------------------------|


                                                                  E5
       PM---------------------|               PM----------------|
   +E  S S S  S S S S S S S S S  E    +E  S S S S S S S S S S S S E
|----------------------------------|--------------------------------|
|----------------------------------|--------------------------------|
|----------------------------------|--------------------------------|
|-------------------------------10-|-(10)---------------------------|
|--(3)---------------------------8-|--(8)-8-8-8-8-8-8-8-8-8-8-8-8-7-|
|--(1)-1-1-1--1-1-1-1-1-1-1-1-1----|------------------------------0-|
|
|   ~~~~
|  +E  E   H.                          W
|----------------------------------|--------------------------------|
|----------------------------------|--------------------------------|
|-(10)-----------------------------|--------------------------------|
|----------------------------------|--------------------------------|
|----------------------------------|--------------------------------|
|----------------------------------|--------------------------------|


      EbE5  C5 B5A5D5       G5F#E5 B5C5A5
          PM-----|          PM|
  +E  E E E  E E E e   +E   E E q  E E  E
|--------------------|--------------------|
|--------------------|--------------------|
|--------------------|--------------------|
|-----8-9----------7-|-(7)---------4-5--2-|
|-(7)-6-7---10-9-7-5-|-(5)--5-4-2--2-3--0-|
|-(0)-----0--8-7-5---|------3-2-0---------|
|
|                                       ~~
|  W                    H..             E
|--------------------|--------------------|
|--------------------|-----------------10-|
|--------------------|--------------------|
|--------------------|--------------------|
|--------------------|--------------------|
|--------------------|--------------------|


                            B5                             C5
       PM-----------------|  ~~~~~~~~~PM-----------------|  ~~~
   +E  S  S E S S E S S S S  E    +E  S  S E S S E S S S S  E
|------------------------------|------------------------------|
|------------------------------|------------------------------|
|------------------------------|------------------------------|
|--(2)-------------------------|------------------------------|
|--(0)-0--0-0-0-0-0-0-0-0-0--2-|--(2)-0--0-0-0-0-0-0-0-0-0--3-|
|------------------------------|------------------------------|
|
|   ~~~~                     ~~~~~~~~~                      ~~~
|  +E  H.                    E    +E  H.                    E
|------------------------------|------------------------------|
|-(10)----------------------12-|-(12)----------------------13-|
|------------------------------|------------------------------|
|------------------------------|------------------------------|
|------------------------------|------------------------------|
|------------------------------|------------------------------|


                            G5                F#5         F5
 ~~~~~~PM-----------------|  ~~~~~~~~~PM----|  ~~ PM----|
   +E  S  S E S S E S S S S  E    +E  S S S S  Q  S S S S  E
|------------------------------|--------------------------------|
|------------------------------|--------------------------------|
|------------------------------|--------------------------------|
|------------------------------|--------------------------------|
|--(3)-0--0-0-0-0-0-0-0-0-0----|------0-0-0-0-----0-0-0-0--3----|
|----------------------------3-|--(3)----------2-----------1----|
|
|~~~~~~                      ~~~~~~~~~         ~~          ~~
|  +E  H.                    E    +E  Q        Q  Q        E
|---------------------------15-|-(15)---------14----------13----|
|-(13)-------------------------|--------------------------------|
|------------------------------|--------------------------------|
|------------------------------|--------------------------------|
|------------------------------|--------------------------------|
|------------------------------|--------------------------------|


                                                                  E5
       PM---------------------|               PM----------------|
   +E  S S S  S S S S S S S S S  E    +E  S S S S S S S S S S S S E
|----------------------------------|--------------------------------|
|----------------------------------|--------------------------------|
|----------------------------------|--------------------------------|
|-------------------------------10-|-(10)---------------------------|
|--(3)---------------------------8-|--(8)-8-8-8-8-8-8-8-8-8-8-8-8-7-|
|--(1)-1-1-1--1-1-1-1-1-1-1-1-1----|------------------------------0-|
|
|   ~~~~
|  +E  E   H.                          W
|-(13)-----------------------------|--------------------------------|
|----------------------------------|--------------------------------|
|----------------------------------|--------------------------------|
|----------------------------------|--------------------------------|
|----------------------------------|--------------------------------|
|----------------------------------|--------------------------------|


      EbE5  C5 B5A5D5      G5F#E5 B5C5
          PM-----|         PM|
  +E  E E E  E E E e   +E  E E q  E E E
|--------------------|------------------|
|--------------------|------------------|
|--------------------|------------------|
|-----8-9----------7-|-(7)--------4-5---|
|-(7)-6-7---10-9-7-5-|-(5)-5-4-2--2-3-0-|
|-(0)-----0--8-7-5---|-----3-2-0--------|
|
|  W                    W
|--------------------|------------------|
|--------------------|------------------|
|--------------------|------------------|
|--------------------|------------------|
|--------------------|------------------|
|--------------------|------------------|


   Outro
    Am
               PM--------------------|              PM--------------------|
    W          E S S E S S E S S E S S   W          E S S E S S E S S E S S
||--0--------|-------------------------|-0--------|--------------------------||
||o-0--------|-------------------------|-0--------|-------------------------o||
||--5--------|-------------------------|-5--------|--------------------------||
||--7--------|-------------------------|-7--------|--------------------------||
||o-0--------|-0-0-0-0-0-0-0-0-0-0-0-0-|-0--------|-0-0-0-0-0-0-0-0-0-0-0-0-o||
||-----------|-------------------------|----------|--------------------------||


  W          +W           +W           +W
|-0--------|-(0)--------|-(0)--------|-(0)----*|
|-0--------|-(0)--------|-(0)--------|-(0)----*|
|-5--------|-(5)--------|-(5)--------|-(5)----*|
|-7--------|-(7)--------|-(7)--------|-(7)----*|
|-0--------|-(0)--------|-(0)--------|-(0)----*|
|----------|------------|------------|--------*|



Duration Legend
---------------
W - whole; H - half; Q - quarter; E - 8th; S - 16th; T - 32nd; X - 64th; a - acciaccatura
+ - note tied to previous; . - note dotted; .. - note double dotted
Uncapitalized letters represent notes that are staccato (1/2 duration)
Irregular groupings are notated above the duration line
Duration letters will always appear directly above the note/fret number it represents the
duration for.  Duration letters with no fret number below them represent rests.  Multi-
bar rests are notated in the form Wxn, where n is the number of bars to rest for.  Low
melody durations appear below the staff

Tablature Legend
----------------
 h   - hammer-on
 p   - pull-off
 b   - bend
 pb  - pre-bend
 r   - bend release (if no number after the r, then release immediately)
 /\  - slide into or out of (from/to "nowhere")
 s   - legato slide
 S   - shift slide
 - natural harmonic
[n]  - artificial harmonic
n(n) - tapped harmonic
 ~   - vibrato
 tr  - trill
 T   - tap
 TP  - trem. picking
 PM  - palm muting
\n/  - tremolo bar dip; n = amount to dip
 \n  - tremolo bar down
 n/  - tremolo bar up
/n\  - tremolo bar inverted dip
 =   - hold bend; also acts as connecting device for hammers/pulls
 <> - volume swell (louder/softer)
 x   - on rhythm slash represents muted slash
 o   - on rhythm slash represents single note slash

Misc Legend
-----------
 |  - bar
||  - double bar
||o - repeat start
o|| - repeat end
*|  - double bar (ending)
 :  - bar (freetime)
 $  - Segno
 &  - Coda
Tempo markers -  = BPM(8/16=s8/s16), where s8 = swing 8ths, s16 = swing 16ths

comments
We did not receive enough feedback on this tab! Please rate:
print report bad tab
1 2 3 4 5
I want to post or [tab]
guest
You may want to rate the tab now too:
select rating
Please do not post tabs as comments. Select "correction" instead!