Oops, an error
Loading. Please wait.

The Conjuring Tab

ver2
ver2

Whole song

Interactive

More versions @911Tabs.com
1,869 views 1 this week
1 commentread comment
1 2 3 4 5
accurate
x 1
Autoscroll
+/-
esc
set tempo
stop
Contributor
Hey! There's an official Ultimate Guitar app which is ideal
for learning songs when you're away from computer. Get the app
WARNING: You are trying to view
                                    content from Ultimate-Guitar.com
                                    in an unauthorized application,
                                    which is prohibited.

                                    Please use an official Ultimate
                                    Guitar Tabs application for iPhone,
                                    iPad or Android to access legitimate
                                    chords, guitar, bass, and drum tabs
                                    from Ultimate-Guitar.com database.

                                    Type "ultimate guitar tabs" in Apple
                                    App Store's or Android Market's
                                    search to find the application.
-----------------------------------------------------------------------------
                       The Conjuring - MEGADETH
-----------------------------------------------------------------------------

Tuning: Tune down 1/4 step

Two Guitars
E|----------------------------------------------------------------|
B|----------------------------------------------------------------|
G|--12-----------------------------11-----------------------------|
D|--12---let ring------------------11---let ring------------------|
A|--10-----------------------------9------------------------------|
E|----------------------------------------------------------------|
 |
 |                                                                   
 |
E|-----------------15----------15-----------------14----------14--|
B|-------------15------15---------------------14------14----------|
G|---------12--------------12-------------11--------------11------|
D|----------------------------------------------------------------|
A|----------------------------------------------------------------|
E|----------------------------------------------------------------|


E|----------------------------------------------------------------|
B|----------------------------------------------------------------|
G|--10-----------------------------9------------------------------|
D|--10---let ring------------------9---let ring-------------------|
A|--8------------------------------7------------------------------|
E|----------------------------------------------------------------|
 |
 |                                                                   X4
 |
E|-----------------13----------13-----------------12----------12--|
B|-------------13------13---------------------12------12----------|
G|---------10--------------10-------------9--------------9--------|
D|----------------------------------------------------------------|
A|----------------------------------------------------------------|
E|----------------------------------------------------------------|

 
Welcome To Our Sanguinary Sect Of Worship.
Feel At Home In Our Black Conventicle,
As We Anathmatise
All Those Oppose Us.
Don't Summon The Devil,
Don't Call The Priests,
If You Need The Strengh,
The Conjuring.

  "Obey"
E|--------|
B|--------|
G|--------|
D|--------|
A|--2-----|
E|--0-----|


E|---------------------------------|-------------------------|
B|---------------------------------|-------------------------|
G|---------------------------------|-------------------------|
D|--------------------------------4|---------------------2---|  X3 1/2
A|--------------------------------2|-------------2-4-----0---|
E|--2-2-2-2-2-2-2-2-2-2-2-2-2-2-2--|-2-2-2-2-2-2-0-2---------|
    pm|__________________________|  |__________|


E|--12^15-14-12-14-12-----------12^15-14-12-14-12-----------|
B|--------------------15-17-----------------------15-17-----|
G|----------------------------------------------------------|
D|----------------------------------------------------------|
A|----------------------------------------------------------|
E|----------------------------------------------------------|

E|--12^15-14-12-15^17-15-14-----12^15-14-12-14-12-----------|
B|------------------------------------------------15-17-----|
G|----------------------------------------------------------|
D|----------------------------------------------------------|
A|----------------------------------------------------------|
E|----------------------------------------------------------|

E|--12^15-14-12-14-12-----------12^15-14-12-14-12-----------|
B|--------------------15-17-----------------------15-17-----|
G|----------------------------------------------------------|
D|----------------------------------------------------------|
A|----------------------------------------------------------|
E|----------------------------------------------------------|

E|-----------------------------------------------------|
B|--12^15-14-12-14^12----12----------------------------|
G|--------------------14----14^12----12-14^12----------|
D|--------------------------------14----------14-12----|  X2
A|-----------------------------------------------------|
E|-----------------------------------------------------|


E|--12--------------------------------------------------------------|
B|-----15-14-12-15-14-12----14-12-------12--------------------------|
G|-----------------------14-------14-12----14-12----14-12-------12--|
D|-----------------------------------------------14-------14-12-----|
A|------------------------------------------------------------------|
E|------------------------------------------------------------------|

E|------------------------------------|
B|------------------------------------|
G|------------------------------------|
D|--14-12----14-12-------12-----------|  X2
A|--------14-------14-12----14-12-----|
E|--------------------------------15--|

E|----------------------------------------------------------------------|
B|--17-12-12-12-12-15-12-12-12-17-12-12-12-15-12-12-12-17-12-12-12-15---|
G|----------------------------------------------------------------------|
D|----------------------------------------------------------------------|
A|----------------------------------------------------------------------|
E|----------------------------------------------------------------------|

E|---------------------|-17-15-12-17-15-12-17-15-12--|--15~~--|
B|--12-12-12-17-12-12--|-----------------------------|--------|
G|---------------------|-----------------------------|--------|
D|---------------------|---- repeat X2 --------------|--------|
A|---------------------|-----------------------------|--------|
E|---------------------|-----------------------------|--------|

E|-------------------------------------|
B|-------------------------------------|
G|-------------------------------------|
D|-------------------------------------|  X8
A|---------------------------3-2-------|
E|--0-2-2-2-5-2-2-2-0-2-2-2-------5-2--|
    PM|____________________|

Behold! The Flames Rise
From The Compass' Cardinal Points
Burn The Sacred Oil
And, With The Ashes You'll Annoit

E|----------------------------------------------------------------|
B|----------------------------------------------------------------|
G|-------------------------------------------10--9----------------|
D|-------------------------------------------8---7---7/9----------|
A|---------------------------------------------------5/7------2---|
E|--0--0-0-0--0-0-0--0-0-0--0-0-0--0-0-0-------------------3--0---|
    PM|_________________________________|

E|----------------------------------------|
B|----------------------------------------|
G|----------------------------------------|
D|----------------------------------------|  X2
A|-----------------------9------------3---|
E|--0--0-0-0--0-0-0--0---7----0-0-0---1---|
    PM|_______________|       |____|

E|-------------------------------------|
B|-------------------------------------|
G|-------------------------------------|
D|-------------------------------------|  X8
A|---------------------------3-2-------|
E|--0-2-2-2-5-2-2-2-0-2-2-2-------5-2--|
    PM|____________________|

E|-------------------------------------|
B|-------------------------------------|
G|-------------------------------------|
D|-------------------------------------|  X8
A|---------------------------5-4-------|
E|--2-4-4-4-7-4-4-4-2-4-4-4-------7-4--|
    PM|____________________|

Arrange The Symbols,
Of The Wizard, And Magician.
Light The Candles,
Place The Parchment Paper In Position
Between It's Leaves Place
The Lash From A Black Cat's Eye,
A Straw Of A Broom,
Fold, And, Burn, And, Centralize.

E|---------|
B|---------|
G|---------|
D|------9--|
A|--9---7--|
E|--7------|

E|-------------------------------------|
B|-------------------------------------|
G|-------------------------------------|
D|-----------------------------7---9---|  X4
A|-------5\4----4---7---9------5---7---|
E|--0-0--3\2--0-2---5---7--------------|
    PM|         _   

Don't Summon The Devil,
Don't Call The Priests,
If You Need The Strengh,
The Counjuring

E|--------------------------------------------------------------|
B|--------------------------------------------------------------|
G|--9------------------------------9-------------------7--8--9--|
D|--9-------------------7--8--9----9-------------------7--8--9--|
A|--7-------------------7--8--9----7----------------------------|
E|--0----7--10--7--7---------------0----7--10--7--7-------------|
         PM|________|                   |__________|


E|---------------------------------------------------------|
B|---------------------------------------------------------|
G|--9------------------------------9--8-7------7-----7--9--|
D|--9-------------------7--8--9----9--8-7---9--7--9--7--9--|  X4
A|--7-------------------7--8--9-------------9-----9--------|
E|--0----7--10--7--7---------------------------------------|
         |__________|               

E|--------------------------------------------------------------------|
B|--------------------------------------------------------------------|
G|--------------------------------------------------------------------|
D|------------------------9-------------------------------------------|  X6
A|--2------8\7--5--2------7--8--2---------8\7-------2/4--2/4--8\7--5--|
E|--0-0-0--6\5--3--0-0-0-----6--0--0-0-0--6\5--0-0--3/5--3/5--6\5--3--|
      PM_            |__|          |____|      |__|

E|--------------------------------------------------------------------------|
B|--------------------------------------------------------------------------|
G|--------------------------------------------------------------------------|
D|--------------------------------------------------------------------------|
A|--4----------------------------------5-4----------------------------------|
E|--2--222--222--222--222--222--222-2--3-2--222--222--222--222--222--222-2--|
       |_____________________________|      |_____________________________|

E|-----------------------------------------------------------|
B|-----------------------------------------------------------|
G|-----------------------------------------------------------|
D|--5-----------------------------------------------------9--|
A|--3-4--------------4-2--------------5-4-------------9---7--|
E|----2--222--222-2--2-0--222--222-2--3-2--222--222---7------|
         |_________|      |_________|      |_______|

E|-------------------------------------------------------------------|
B|-------------------------------------------------------------------|
G|-------------------------------------------------------------------|
D|-----------------------9-------------------------------------------|
A|-------8\7--5--2-------7--8--2---------8\7-------2/4--2/4--8\7--5--|
E|--0-0--6\5--3--0--0-0-----6--0--0-0-0--6\5--0-0--3/5--3/5--6\5--3--|
    |__|            |__|          |____|      |__|   

E|--------------------------------------------------------------------------|
B|--------------------------------------------------------------------------|
G|--------------------------------------------------------------------------|
D|--------------------------------------------------------------------------|
A|--4----------------------------------5-4----------------------------------|
E|--2--222--222--222--222--222--222-2--3-2--222--222--222--222--222--222-2--|
       |_____________________________|      |_____________________________|

E|-----------------------------------------------------------|
B|-----------------------------------------------------------|
G|-----------------------------------------------------------|
D|--5-----------------------------------------------------9--|
A|--3-4--------------4-2--------------5-4-------------9---7--|
E|----2--222--222-2--2-0--222--222-2--3-2--222--222---7------|
         |_________|      |_________|      |_______|

E|-------------------------------------------------------------------|
B|-------------------------------------------------------------------|
G|-------------------------------------------------------------------|
D|-----------------------9-------------------------------------------|
A|-------8\7--5--2-------7--8--2---------8\7-------2/4--2/4--8\7--5--|
E|--0-0--6\5--3--0--0-0-----6--0--0-0-0--6\5--0-0--3/5--3/5--6\5--3--|
    |__|            |__|          |____|      |__|   

E|--------------------------------------------------------------------------|
B|--------------------------------------------------------------------------|
G|--------------------------------------------------------------------------|
D|--------------------------------------------------------------------------|
A|--4----------------------------------5-4----------------------------------|
E|--2--222--222--222--222--222--222-2--3-2--222--222--222--222--222--222-2--|
       |_____________________________|      |_____________________________|

E|-----------------------------------------------------------|
B|-----------------------------------------------------------|
G|-----------------------------------------------------------|
D|--5-----------------------------------------------------9--|
A|--3-4--------------4-2--------------5-4-------------9---7--|
E|----2--222--222-2--2-0--222--222-2--3-2--222--222---7------|
         |_________|      |_________|      |_______|

E|-------------------------------------------------------------------|
B|-------------------------------------------------------------------|
G|-------------------------------------------------------------------|
D|-----------------------9-------------------------------------------|
A|-------8\7--5--2-------7--8--2---------8\7-------2/4--2/4--8\7--5--|
E|--0-0--6\5--3--0--0-0-----6--0--0-0-0--6\5--0-0--3/5--3/5--6\5--3--|
    |__|            |__|          |____|      |__|   

E|--------------------------------------------------------------------------|
B|--------------------------------------------------------------------------|
G|--------------------------------------------------------------------------|
D|--------------------------------------------------------------------------|
A|--4----------------------------------5-4----------------------------------|
E|--2--222--222--222--222--222--222-2--3-2--222--222--222--222--222--222-2--|
       |_____________________________|      |_____________________________|

E|-----------------------------------------------------------|
B|-----------------------------------------------------------|
G|-----------------------------------------------------------|
D|--5-----------------------------------------------------9--|
A|--3-4--------------4-2--------------5-4-------------9---7--|
E|----2--222--222-2--2-0--222--222-2--3-2--222--222---7------|
         |_________|      |_________|      |_______|

E|-------------------------------------------------------------------|
B|-------------------------------------------------------------------|
G|-------------------------------------------------------------------|
D|-----------------------9-------------------------------------------|
A|-------8\7--5--2-------7--8--2---------8\7-------2/4--2/4--8\7--5--|
E|--0-0--6\5--3--0--0-0-----6--0--0-0-0--6\5--0-0--3/5--3/5--6\5--3--|
    |__|            |__|          |____|      |__|   

E|--------------------------------------------------------------------------|
B|--------------------------------------------------------------------------|
G|--------------------------------------------------------------------------|
D|--------------------------------------------------------------------------|
A|--4----------------------------------5-4----------------------------------|
E|--2--222--222--222--222--222--222-2--3-2--222--222--222--222--222--222-2--|
       |_____________________________|      |_____________________________|

E|-----------------------------------------------------------|
B|-----------------------------------------------------------|
G|-----------------------------------------------------------|
D|--5-----------------------------------------------------9--|
A|--3-4--------------4-2--------------5-4-------------9---7--|
E|----2--222--222-2--2-0--222--222-2--3-2--222--222---7------|
         |_________|      |_________|      |_______|

E|-----------------------------------|---------------------|
B|-----------------------------------|---------------------|
G|-----------------------------------|-------------9----4--|
D|--------------5-----------------5--|-------------7----4--|  "Obey"
A|-----5--4-----3--4-----5--4-----3--|--2------2---7----2--|
E|--2--3--2--2-----2--2--3--2--2-----|--0------0---0----2--|
    _        _        _        _
comments
We did not receive enough feedback on this tab! Please rate:
print report bad tab
1 2 3 4 5
1 comment total.
0 reply
TenTonHammer wrote on September 21 2004, 12:00 am

*pep!* intro's wrong, should be tapped, and some other mistakes, but you'll get 4 stars for the effort though :)

I want to post or [tab]
guest
You may want to rate the tab now too:
select rating
Please do not post tabs as comments. Select "correction" instead!