Oops, an error
Loading. Please wait.

The Conjuring Tab

ver4
ver4

Whole song

Interactive

More versions @911Tabs.com
4,989 views 24 this week
1 commentread comment
1 2 3 4 5
excellent!
x 3
Autoscroll
+/-
esc
set tempo
stop
Contributor
Tuning
D# G# C# F# A# D#
Hey! There's an official Ultimate Guitar app which is ideal
for learning songs when you're away from computer. Get the app
WARNING: You are trying to view
                                    content from Ultimate-Guitar.com
                                    in an unauthorized application,
                                    which is prohibited.

                                    Please use an official Ultimate
                                    Guitar Tabs application for iPhone,
                                    iPad or Android to access legitimate
                                    chords, guitar, bass, and drum tabs
                                    from Ultimate-Guitar.com database.

                                    Type "ultimate guitar tabs" in Apple
                                    App Store's or Android Market's
                                    search to find the application.
#----------------------------------PLEASE NOTE---------------------------------#
#This file is the author's own work and represents their interpretation of the #
#song. You may only use this file for private study, scholarship, or research. #
#------------------------------------------------------------------------------#

THE CONJURING
As recorded by Megadeth
(From the 1986 Album PEACE SELLS...BUT WHO'S BUYING?)

Transcribed by cbliss66@aol.com (slaya)
        

Words and Music by Dave Mustaine
Arranged by Megadeth

Gtr I (Eb Ab Db Gb Bb Eb) - 'Mustaine Rhy.'
Gtr II (Eb Ab Db Gb Bb Eb) - 'Poland Rhy.'
Gtr III (Eb Ab Db Gb Bb Eb) - 'Solo Gtr.'

   Intro
    Moderately Q=147
    G5
   4/4
    Gtr I
                  T   T   T  T   T   T
     W            E.  E.  E  E.  E.  E
||------------|--------------------------|
||o-----------|----------20---------20---|
||--12--------|------19-----19-----------|
||--12--------|--17-------------17-------|
||o-10--------|--------------------------|
||------------|--------------------------|
|
|   Gtr II
|    W           +W
||------------|--------------------------|
||o-----------|--------------------------|
||------------|--------------------------|
||--12--------|-(12)---------------------|
||o-10--------|-(10)---------------------|
||------------|--------------------------|


  F#5
                T   T   T  T   T   T
   W            E.  E.  E  E.  E.  E
|-----------|---------------------------|
|-----------|----------19---------19----|
|-11--------|------18-----18------------|
|-11--------|--16-------------16--------|
|--9--------|---------------------------|
|-----------|---------------------------|
|
|  W           +W
|-----------|---------------------------|
|-----------|---------------------------|
|-----------|---------------------------|
|-11--------|-(11)----------------------|
|--9--------|--(9)----------------------|
|-----------|---------------------------|


  F5                                     E5
                T   T   T  T   T   T                 T   T   T  T   T   T
   W            E.  E.  E  E.  E.  E     W           E.  E.  E  E.  E.  E
|-----------|--------------------------|----------|--------------------------||
|-----------|----------18---------18---|----------|---------17---------17---o||
|-10--------|------17-----17-----------|-9--------|-----16-----16------------||
|-10--------|--15-------------15-------|-9--------|-14-------------14--------||
|--8--------|--------------------------|-7--------|-------------------------o||
|-----------|--------------------------|----------|--------------------------||
|
|  W           +W                        W          +W
|-----------|--------------------------|----------|--------------------------||
|-----------|--------------------------|----------|-------------------------o||
|-----------|--------------------------|----------|--------------------------||
|-10--------|-(10)---------------------|-9--------|-(9)----------------------||
|--8--------|--(8)---------------------|-7--------|-(7)---------------------o||
|-----------|--------------------------|----------|--------------------------||


   1st Verse
    G5
                  T   T   T  T   T   T
     W            E.  E.  E  E.  E.  E
||------------|--------------------------|
||o-----------|----------20---------20---|
||--12--------|------19-----19-----------|
||--12--------|--17-------------17-------|
||o-10--------|--------------------------|
||------------|--------------------------|
|
|    W           +W
||------------|--------------------------|
||o-----------|--------------------------|
||------------|--------------------------|
||--12--------|-(12)---------------------|
||o-10--------|-(10)---------------------|
||------------|--------------------------|


  F#5
                T   T   T  T   T   T
   W            E.  E.  E  E.  E.  E
|-----------|--------------------------|
|-----------|----------19---------19---|
|-11--------|------18-----18-----------|
|-11--------|--16-------------16-------|
|--9--------|--------------------------|
|-----------|--------------------------|
|
|  W           +W
|-----------|--------------------------|
|-----------|--------------------------|
|-----------|--------------------------|
|-11--------|-(11)---------------------|
|--9--------|--(9)---------------------|
|-----------|--------------------------|


  F5                                     E5
                T   T   T  T   T   T
   W            E.  E.  E  E.  E.  E     W
|-----------|--------------------------|----------|
|-----------|----------18---------18---|----------|
|-10--------|------17-----17-----------|-9--------|
|-10--------|--15-------------15-------|-9--------|
|--8--------|--------------------------|-7--------|
|-----------|--------------------------|----------|
|
|  W           +W                        W
|-----------|--------------------------|----------|
|-----------|--------------------------|----------|
|-----------|--------------------------|----------|
|-10--------|-(10)---------------------|-9--------|
|--8--------|--(8)---------------------|-7--------|
|-----------|--------------------------|----------|


   T   T   T  T   T   T
   E.  E.  E  E.  E.  E       Q  Q  H
|--------------------------||------------||
|---------17---------17---o||------------||
|-----16-----16------------||-9----------||
|-14-------------14--------||-9----------||
|-------------------------o||-7----------||
|--------------------------||------------||
|
| +W                          Q  Q  H
|--------------------------||------------||
|-------------------------o||------------||
|--------------------------||------------||
|-(9)----------------------||-9----------||
|-(7)---------------------o||-7----------||
|--------------------------||------------||


 Breakdown
  Faster Q=154
  A5                                                    E5  A5
      PM----------------------|           PM----------|
  E S S S S S S S S S S S S S S   T T T T S S S S S S E E E E
|-------------------------------|-----------------------------|
|-------------------------------|-----------------------------|
|-------------------------------|-----------------------------|
|-2-----------------------------|---------------------------2-|
|-0-----------------------------|-2h3p2p0---------------2---0-|
|---2-2-2-2-2-2-0-0-2-2-2-2-2-2-|---------2-2-2-2-2-2-0-0-----|
|
|     PM----------------------|           PM----------|
| E S S S S S S S S S S S S S S   T T T T S S S S S S E E E E
|-------------------------------|-----------------------------|
|-------------------------------|-----------------------------|
|-------------------------------|-----------------------------|
|-2-----------------------------|---------------------------2-|
|-0-----------------------------|-2h3p2p0---------------2---0-|
|---2-2-2-2-2-2-0-0-2-2-2-2-2-2-|---------2-2-2-2-2-2-0-0-----|


        PM----------------------|
  +E  S S S S S S S S S S S S S S
|----------------------------------|
|----------------------------------|
|----------------------------------|
|-(2)------------------------------|
|-(0)------------------------------|
|-----2-2-2-2-2-2-0-0-2-2-2-2-2-2--|
|
|       PM----------------------|
| +E  S S S S S S S S S S S S S S
|----------------------------------|
|----------------------------------|
|----------------------------------|
|-(2)------------------------------|
|-(0)------------------------------|
|-----2-2-2-2-2-2-0-0-2-2-2-2-2-2--|


                        E5  A5
          PM----------|               PM----------------------|
  T T T T S S S S S S E E E E   +E  S S S S S S S S S S S S S S
|-----------------------------|---------------------------------|
|-----------------------------|---------------------------------|
|-----------------------------|---------------------------------|
|---------------------------2-|-(2)-----------------------------|
|-2h3p2p0---------------2---0-|-(0)-----------------------------|
|---------2-2-2-2-2-2-0-0-----|-----2-2-2-2-2-2-0-0-2-2-2-2-2-2-|
|
|         PM----------|               PM----------------------|
| T T T T S S S S S S E E E E   +E  S S S S S S S S S S S S S S
|-----------------------------|---------------------------------|
|-----------------------------|---------------------------------|
|-----------------------------|---------------------------------|
|---------------------------2-|-(2)-----------------------------|
|-2h3p2p0---------------2---0-|-(0)-----------------------------|
|---------2-2-2-2-2-2-0-0-----|-----2-2-2-2-2-2-0-0-2-2-2-2-2-2-|


                        E5  A5
          PM----------|
  T T T T S S S S S S E E E E
|-------------------------------|
|-------------------------------|
|-------------------------------|
|---------------------------2---|
|-2h3p2p0---------------2---0---|
|---------2-2-2-2-2-2-0-0-------|
|
|         PM----------|
| T T T T S S S S S S E E E E
|-------------------------------|
|-------------------------------|
|-------------------------------|
|---------------------------2---|
|-2h3p2p0---------------2---0---|
|---------2-2-2-2-2-2-0-0-------|


                              Gtr III
        PM------|     PM----|
  +E  S S S S S S S S S S S S  S  S
|-----------------------------12-12-|
|-----------------------------------|
|-----------------------------------|
|-(2)-------------------------------|
|-(0)-------------------------------|
|-----2-2-2-2-2-2-0h2-2-2-2-2-------|
|
|       PM-----------------------|
| +E  S S S S S S S S S S S S  S  S
|-----------------------------------|
|-----------------------------------|
|-----------------------------------|
|-(2)-------------------------------|
|-(0)-------------------------------|
|-----2-2-2-2-2-2-0-0-2-2-2-2--2--2-|


  E5
   |------------9:8------------|  |-----------9:8------------|
   S  S  S    S  S    S  S  S  S  S  S  S  S  S     S  S  S  S
|-17p15p12-------------------------------------------------------||
|------------17p15p==12----------17p15p12------------------------||
|-----------------------15p14p12----------15p14p===12------------||
|-----------------------------------------------------15p14p12---||
|----------------------------------------------------------------||
|----------------------------------------------------------------||
|
|  E       E       Q              Q             Q
|----------------------------------------------------------------||
|----------------------------------------------------------------||
|----------------------------------------------------------------||
|----------------------------------------------------------------||
|--2-------------------------------------------------------------||
|--0--------------------------------------------5\---------------||


 Guitar Solo
  Slightly slower Q=149
  E5
   S  S  S  S  S  S  S  S  S  S  S  S  S  S  S  S
|-14h15p14p12-14p12----12-14h15p14p12-14p12----12-|
|-------------------15----------------------15----|
|-------------------------------------------------|
|-------------------------------------------------|
|-------------------------------------------------|
|-------------------------------------------------|
|
| Gtr II
|           PM-------------------------------------
|  E     S  S  E     S  S  E     S  S  E     S  S
|-------------------------------------------------|
|-------------------------------------------------|
|-------------------------------------------------|
|-------------------------------------------------|
|--2----------------------------------------------|
|--0-----0--0--0-----0--0--0-----0--0--0-----0--0-|
|
| Gtr I
|  W
|-------------------------------------------------|
|-------------------------------------------------|
|-------------------------------------------------|
|-12----------------------------------------------|
|-10----------------------------------------------|
|-------------------------------------------------|


                      Bb5         A5          Eb5
    S   S  S  S  S  S  S  S  S  S  S  S  S  S  S  S
|--14h=15p14p12-15h17p15p12-14h15p14p12-14p12----12-|
|---------------------------------------------15----|
|---------------------------------------------------|
|---------------------------------------------------|
|---------------------------------------------------|
|---------------------------------------------------|
|
|---------------|            PM          PM
|   E      S  S  E     E     E     E     E     E
|---------------------------------------------------|
|---------------------------------------------------|
|---------------------------------------------------|
|---------------------15----------14-----------8----|
|---------------------13----------12-----------6----|
|---0------0--0--0-----------0-----------0----------|
|
|  +W
|---------------------------------------------------|
|---------------------------------------------------|
|---------------------------------------------------|
|-(12)----------------------------------------------|
|-(10)----------------------------------------------|
|---------------------------------------------------|


  E5
   S  S  S   S  S  S  S  S  S  S  S  S  S  S  S  S
|-14h15p14p=12-14p12----12-14h15p14p12-14p12----12-|
|--------------------15----------------------15----|
|--------------------------------------------------|
|--------------------------------------------------|
|--------------------------------------------------|
|--------------------------------------------------|
|
|            PM-------------------------------------
|  E    +S   S  E     S  S  E     S  S  E     S  S
|--------------------------------------------------|
|--------------------------------------------------|
|--------------------------------------------------|
|--9----(9)----------------------------------------|
|--7----(7)----------------------------------------|
|------------0--0-----0--0--0-----0--0--0-----0--0-|
|
|  W
|--------------------------------------------------|
|--------------------------------------------------|
|--------------------------------------------------|
|-11-----------------------------------------------|
|--9-----------------------------------------------|
|--------------------------------------------------|


                B5                      F5
    S   S  S  S  S  S  S  S  S  S  S  S  E      +E
|----------------------------------------------------|
|--15h=16p15p12-15p12----12--------------------------|
|---------------------15----15p14p12----14b16==(14)r-|
|------------------------------------14--------------|
|----------------------------------------------------|
|----------------------------------------------------|
|
|------------|               PM------|
|   E      S  S  Q           E     S  S  Q
|----------------------------------------------------|
|----------------------------------------------------|
|----------------------------------------------------|
|----------------4-----------------------------------|
|----------------2-----------------------3-----------|
|---0------0--0--------------0-----0--0--1-----------|
|
|  +W
|----------------------------------------------------|
|----------------------------------------------------|
|----------------------------------------------------|
|-(11)-----------------------------------------------|
|--(9)-----------------------------------------------|
|----------------------------------------------------|


  E5
   S  S  S  S  S  S  S  S  S  S  S  S  S  S  S  S
|-14h15p14p12-14p12----12-14h15p14p12-14p12----12-|
|-------------------15----------------------15----|
|-------------------------------------------------|
|-------------------------------------------------|
|-------------------------------------------------|
|-------------------------------------------------|
|
|        PM----------------------------------------
|  E     S  S  E     S  S  E     S  S  E     S  S
|-------------------------------------------------|
|-------------------------------------------------|
|-------------------------------------------------|
|-------------------------------------------------|
|--2----------------------------------------------|
|--0-----0--0--0-----0--0--0-----0--0--0-----0--0-|
|
|  W
|-------------------------------------------------|
|-------------------------------------------------|
|-------------------------------------------------|
|-10----------------------------------------------|
|--8----------------------------------------------|
|-------------------------------------------------|


                      Bb5         A5          Eb5
    S   S  S  S  S  S  S  S  S  S  S  S  S  S  S  S
|--14h=15p14p12-15h17p15p12-14h15p14p12-14p12----12-|
|---------------------------------------------15----|
|---------------------------------------------------|
|---------------------------------------------------|
|---------------------------------------------------|
|---------------------------------------------------|
|
|---------------|            PM          PM
|   E      S  S  E     E     E     E     E     E
|---------------------------------------------------|
|---------------------------------------------------|
|---------------------------------------------------|
|---------------------15----------14-----------8----|
|---------------------13----------12-----------6----|
|---0------0--0--0-----------0-----------0----------|
|
|  +W
|---------------------------------------------------|
|---------------------------------------------------|
|---------------------------------------------------|
|-(10)----------------------------------------------|
|--(8)----------------------------------------------|
|---------------------------------------------------|


  E5
   S  S  S   S  S  S  S  S  S  S  S  S  S  S  S  S
|-14h15p14p=12-14p12----12-14h15p14p12-14p12----12-|
|--------------------15----------------------15----|
|--------------------------------------------------|
|--------------------------------------------------|
|--------------------------------------------------|
|--------------------------------------------------|
|
|            PM-------------------------------------
|  E    +S   S  E     S  S  E     S  S  E     S  S
|--------------------------------------------------|
|--------------------------------------------------|
|--------------------------------------------------|
|--9----(9)----------------------------------------|
|--7----(7)----------------------------------------|
|------------0--0-----0--0--0-----0--0--0-----0--0-|
|
|  W
|--------------------------------------------------|
|--------------------------------------------------|
|--------------------------------------------------|
|--9-----------------------------------------------|
|--7-----------------------------------------------|
|--------------------------------------------------|


               B5                      F5
   S   S  S  S  S  S  S  S  S  S  S  S  S      +S    S  S
|---------------------------------------------------------|
|-15h=16p15p12-15p12----12--------------------------12-12-|
|--------------------15----15p14p12----14b16==(14)r-------|
|-----------------------------------14--------------------|
|---------------------------------------------------------|
|---------------------------------------------------------|
|
|-----------|               PM------|
|  E      S  S  Q           E     S  S  Q
|---------------------------------------------------------|
|---------------------------------------------------------|
|---------------4-----------------------------------------|
|---------------4-----------------------3-----------------|
|---------------2-----------------------3-----------------|
|--0------0--0--------------0-----0--0--1-----------------|
|
| +W
|---------------------------------------------------------|
|---------------------------------------------------------|
|---------------------------------------------------------|
|-(9)-----------------------------------------------------|
|-(7)-----------------------------------------------------|
|---------------------------------------------------------|


  E5
   S  S  S  S  S  S  S  S  S  S  S  S  S  S  S  S
|-12----------------------------------------------|
|----15p12----12h15p12----12----------------------|
|----------15----------15----15p14p12-15p14p12----|
|----------------------------------------------14-|
|-------------------------------------------------|
|-------------------------------------------------|
|
|           PM-------------------------------------
|  E     S  S  E     S  S  E     S  S  E     S  S
|-------------------------------------------------|
|-------------------------------------------------|
|-------------------------------------------------|
|-------------------------------------------------|
|--2----------------------------------------------|
|--0-----0--0--0-----0--0--0-----0--0--0-----0--0-|
|
|  W
|-------------------------------------------------|
|-------------------------------------------------|
|-------------------------------------------------|
|-12----------------------------------------------|
|-10----------------------------------------------|
|-------------------------------------------------|


                      Bb5         A5          Eb5
    S   S  S  S  S  S  S  S  S  S  S  S  S  S  S  S
|---------------------------------------------------|
|---------------------------------------------------|
|--14p=12-------12----------------------------------|
|---------14p12----14p12----14p12-------12----12h14-|
|------------------------14-------14p12----14-------|
|---------------------------------------------------|
|
|---------------|            PM          PM
|   E      S  S  E     E     E     E     E     E
|---------------------------------------------------|
|---------------------------------------------------|
|---------------------------------------------------|
|---------------------15----------14-----------8----|
|---------------------13----------12-----------6----|
|---0------0--0--0-----------0-----------0----------|
|
|  +W
|---------------------------------------------------|
|---------------------------------------------------|
|---------------------------------------------------|
|-(12)----------------------------------------------|
|-(10)----------------------------------------------|
|---------------------------------------------------|


  E5
   S  S  S   S  S  S  S  S  S  S  S  S  S  S  S  S
|-12-----------------------------------------------|
|----15p12-----15p12-------12----------------------|
|-----------15-------15p14----15p14p12-15p14p12----|
|-----------------------------------------------14-|
|--------------------------------------------------|
|--------------------------------------------------|
|
|            PM-------------------------------------
|  E    +S   S  E     S  S  E     S  S  E     S  S
|--------------------------------------------------|
|--------------------------------------------------|
|--------------------------------------------------|
|--9----(9)----------------------------------------|
|--7----(7)----------------------------------------|
|------------0--0-----0--0--0-----0--0--0-----0--0-|
|
|  W
|--------------------------------------------------|
|--------------------------------------------------|
|--------------------------------------------------|
|-11-----------------------------------------------|
|--9-----------------------------------------------|
|--------------------------------------------------|


                B5                      F5
    S   S  S  S  S  S  S  S  S  S  S  S  S  S  S  S
|---------------------------------------------------|
|---------------------------------------------------|
|--14p=12-------12----------------------------------|
|---------14p12----14p12----14p12-------12----12h14-|
|------------------------14-------14p12----14-------|
|---------------------------------------------------|
|
|------------|               PM------|
|   E      S  S  Q           E     S  S  Q
|---------------------------------------------------|
|---------------------------------------------------|
|---------------------------------------------------|
|----------------4----------------------------------|
|----------------2-----------------------3----------|
|---0------0--0--------------0-----0--0--1----------|
|
|  +W
|---------------------------------------------------|
|---------------------------------------------------|
|---------------------------------------------------|
|-(11)----------------------------------------------|
|--(9)----------------------------------------------|
|---------------------------------------------------|


  E5
   S S S S  S S  S S S S  S S  S S S S
|-12-7-7-7-10-7-12-7-7-7-10-7-12-7-7-7-|
|--------------------------------------|
|--------------------------------------|
|--------------------------------------|
|--------------------------------------|
|--------------------------------------|
|
|      PM-------------------------------
|  E   S S  E    S S E    S S  E   S S
|--------------------------------------|
|--------------------------------------|
|--------------------------------------|
|--------------------------------------|
|--2-----------------------------------|
|--0---0-0--0----0-0-0----0-0--0---0-0-|
|
|  W
|--------------------------------------|
|--------------------------------------|
|--------------------------------------|
|-10-----------------------------------|
|--8-----------------------------------|
|--------------------------------------|


                  Bb5      A5        Eb5
    S  S S S  S S  S S S S  S S  S T  T T  T S
|--12--7-7-7-10-7-12-7-7-7-10-7h10p7h10p7h10---|
|----------------------------------------------|
|----------------------------------------------|
|----------------------------------------------|
|----------------------------------------------|
|----------------------------------------------|
|
|------------|         PM        PM
|   E    S S  E    E   E    E    E      E
|----------------------------------------------|
|----------------------------------------------|
|----------------------------------------------|
|-----------------15-------14-----------8------|
|-----------------13-------12-----------6------|
|---0----0-0--0--------0---------0-------------|
|
|  +W
|----------------------------------------------|
|----------------------------------------------|
|----------------------------------------------|
|-(10)-----------------------------------------|
|--(8)-----------------------------------------|
|----------------------------------------------|


  E5
   |--------5--------|  |-------5-------|  |-------5-------|  |-------5-------|
   S  S  S      S    S  S  S  S    S    S  S  S  S    S    S  S  S  S    S    S
|-19p15p12----------12-19p15p12--------12-19p15p12--------12-19p15p12--------12-|
|--------------12-----------------12-----------------12-----------------12------|
|-------------------------------------------------------------------------------|
|-------------------------------------------------------------------------------|
|-------------------------------------------------------------------------------|
|-------------------------------------------------------------------------------|
|
|                 PM-------------------------------------------------------------
|  E       +S     S     E       S    S     E       S    S     E       S    S
|-------------------------------------------------------------------------------|
|-------------------------------------------------------------------------------|
|-------------------------------------------------------------------------------|
|--9-------(9)------------------------------------------------------------------|
|--7-------(7)------------------------------------------------------------------|
|-----------------0-----0-------0----0-----0-------0----0-----0-------0----0----|
|
|  W
|-------------------------------------------------------------------------------|
|-------------------------------------------------------------------------------|
|-------------------------------------------------------------------------------|
|--9----------------------------------------------------------------------------|
|--7----------------------------------------------------------------------------|
|-------------------------------------------------------------------------------|


                      B5                                F5
   |-------5--------|  |-----5-----|  |-------5-------|  |-----5-----|
   S   S  S    S    S  S  S  S  S  S  S  S  S    S    S  S  S  S  S  S
|-19p=15p12--------12-19p15p12----12-19p15p12--------12-19p15-15----15--||
|-------------12---------------12---------------12---------------15-----||
|-----------------------------------------------------------------------||
|-----------------------------------------------------------------------||
|-----------------------------------------------------------------------||
|-----------------------------------------------------------------------||
|
|----------------|                    PM-----------|
|  E        S    S     Q              E       S    S     Q
|-----------------------------------------------------------------------||
|-----------------------------------------------------------------------||
|-----------------------------------------------------------------------||
|----------------------4------------------------------------------------||
|----------------------2---------------------------------3--------------||
|--0--------0----0--------------------0-------0----0-----1--------------||
|
| +W
|-----------------------------------------------------------------------||
|-----------------------------------------------------------------------||
|-----------------------------------------------------------------------||
|-(9)-------------------------------------------------------------------||
|-(7)-------------------------------------------------------------------||
|-----------------------------------------------------------------------||


 2nd Verse
  Faster Q=152
  N.C.(F#)
   S      +Q         +S   E   +H
|--------------------------------------------------|
|-17b19==(17)-------(17)r-x---(x)\-----------------|
|-------------------------x---(x)\-----------------|
|--------------------------------------------------|
|--------------------------------------------------|
|--------------------------------------------------|
|
|  S       S  S S S   S   S S  S   S S S T T S S S
|--------------------------------------------------|
|--------------------------------------------------|
|--------------------------------------------------|
|--------------------------------------------------|
|----------------------------------------0h2h3p2p0-|
|--0h======2--2-2-5---2---2-2--0h==2-2-2-----------|
|
|  S       S  S S S   S   S S  S   S S S T T S S S
|--------------------------------------------------|
|--------------------------------------------------|
|--------------------------------------------------|
|--------------------------------------------------|
|----------------------------------------0-2h3p2p0-|
|--0h======2--2-2-5---2---2-2--0h==2-2-2-----------|


  W
|-----------------------------------|
|-----------------------------------|
|-----------------------------------|
|-----------------------------------|
|-----------------------------------|
|-----------------------------------|
|
| S S S S S S S S S S S S T T S S S
|-----------------------------------|
|-----------------------------------|
|-----------------------------------|
|-----------------------------------|
|-------------------------0h2h3p2p0-|
|-0h2-2-2-5-2-2-2-0h2-2-2-----------|
|
| S S S S S S S S S S S S T T S S S
|-----------------------------------|
|-----------------------------------|
|-----------------------------------|
|-----------------------------------|
|-------------------------0-2h3p2p0-|
|-0h2-2-2-5-2-2-2-0h2-2-2-----------|


    N.C.(F#)
    Gtr I
    S S S S S S S S S S S S T T S S S
||------------------------------------|
||o-----------------------------------|
||------------------------------------|
||------------------------------------|
||o-------------------------0h2h3p2p0-|
||--0h2-2-2-5-2-2-2-0h2-2-2-----------|
|
|   Gtr II
|   S S S S S S S S S S S S T T S S S
||------------------------------------|
||o-----------------------------------|
||------------------------------------|
||------------------------------------|
||o-------------------------0h2h3p2p0-|
||--0h2-2-2-5-2-2-2-0h2-2-2-----------|


 1.,2.                                 3.
                                                                B5
  S S S S S S S S S S S S T T S S S  3x S S S S S S S S S S S S Q
|------------------------------------||------------------------------||
|-----------------------------------o||------------------------------||
|------------------------------------||------------------------------||
|------------------------------------||-------------------------4----||
|-------------------------0h2h3p2p0-o||-------------------------2----||
|-0h2-2-2-5-2-2-2-0h2-2-2------------||-0h2-2-2-5-2-2-2-0h2-2-2------||
|
| S S S S S S S S S S S S T T S S S  3x S S S S S S S S S S S S Q
|------------------------------------||------------------------------||
|-----------------------------------o||------------------------------||
|------------------------------------||------------------------------||
|------------------------------------||-------------------------4----||
|-------------------------0h2h3p2p0-o||-------------------------2----||
|-0h2-2-2-5-2-2-2-0h2-2-2------------||-0h2-2-2-5-2-2-2-0h2-2-2------||


   Breakdown
    N.C.(E)                           Bb5  A5   Eb5
    PM------------------------------|    PM   PM
    E S S E S S E S S E S S   E S S E  E E  E E E
||--------------------------|---------------------|
||o-------------------------|---------------------|
||--------------------------|---------------------|
||--------------------------|---------15---14---8-|
||o-------------------------|---------13---12---6-|
||--0-0-0-0-0-0-0-0-0-0-0-0-|-0-0-0-0----0----0---|
|
|   PM------------------------------|    PM   PM
|   E S S E S S E S S E S S   E S S E  E E  E E E
||--------------------------|---------------------|
||o-------------------------|---------------------|
||--------------------------|---------------------|
||--------------------------|---------15---14---8-|
||o-------------------------|---------13---12---6-|
||--0-0-0-0-0-0-0-0-0-0-0-0-|-0-0-0-0----0----0---|


  E5     G5E5              B5       F5
                ~    PM--|    PM--|
  E +E   E Q  E Q    E S S Q  E S S Q
|------------------|---------------------||
|-------------5----|--------------------o||
|---------------5--|---------------------||
|-9-(9)\-----------|-------4-------------||
|-7-(7)\-5-2-------|-------2--------3---o||
|--------3-0-------|-0-0-0----0-0-0-1----||
|
|               ~    PM--|    PM--|
| E +E   E Q  E Q    E S S Q  E S S Q
|------------------|---------------------||
|---------------7--|--------------------o||
|-------------9----|---------------------||
|-9-(9)\-----------|-------4-------------||
|-7-(7)\-5-2-------|-------2--------3---o||
|--------3-0-------|-0-0-0----0-0-0-1----||


   3rd Verse
    Slight accel Q=153
    N.C.(F#)
    S S S S S S S S S S S S T T S S S
||------------------------------------|
||o-----------------------------------|
||------------------------------------|
||------------------------------------|
||o-------------------------0h2h3p2p0-|
||--0h2-2-2-5-2-2-2-0h2-2-2-----------|
|
|   S S S S S S S S S S S S T T S S S
||------------------------------------|
||o-----------------------------------|
||------------------------------------|
||------------------------------------|
||o-------------------------0h2h3p2p0-|
||--0h2-2-2-5-2-2-2-0h2-2-2-----------|


 1.,2.,3.                              4.
                                                                B5
  S S S S S S S S S S S S T T S S S  4x S S S S S S S S S S S S Q
|------------------------------------||------------------------------||
|-----------------------------------o||------------------------------||
|------------------------------------||------------------------------||
|------------------------------------||-------------------------4----||
|-------------------------0h2h3p2p0-o||-------------------------2----||
|-0h2-2-2-5-2-2-2-0h2-2-2------------||-0h2-2-2-5-2-2-2-0h2-2-2------||
|
| S S S S S S S S S S S S T T S S S  4x S S S S S S S S S S S S Q
|------------------------------------||------------------------------||
|-----------------------------------o||------------------------------||
|------------------------------------||------------------------------||
|------------------------------------||-------------------------4----||
|-------------------------0h2h3p2p0-o||-------------------------2----||
|-0h2-2-2-5-2-2-2-0h2-2-2------------||-0h2-2-2-5-2-2-2-0h2-2-2------||


    accel Q=156
    N.C.(G#)
    S S S S S S S S S S S S S S S S
||----------------------------------|
||o---------------------------------|
||----------------------------------|
||----------------------------------|
||o-------------------------4h5p4---|
||--2h4-4-4-7-4-4-4-2h4-4-4-------7-|
|
|   S S S S S S S S S S S S S S S S
||----------------------------------|
||o---------------------------------|
||----------------------------------|
||----------------------------------|
||o-------------------------4h5p4---|
||--2h4-4-4-7-4-4-4-2h4-4-4-------7-|


  1.,2.,3.                           4.
                                                              B5
  S S S S S S S S S S S S S S S S  4x S S S S S S S S S S S S E +E
|----------------------------------||--------------------------------||
|---------------------------------o||--------------------------------||
|----------------------------------||--------------------------------||
|----------------------------------||-------------------------4-(4)S=||
|-------------------------4h5p4---o||-------------------------2-(2)S=||
|-2h4-4-4-7-4-4-4-2h4-4-4-------7--||-2h4-4-4-7-4-4-4-2h4-4-4--------||
|
| S S S S S S S S S S S S S S S S  4x S S S S S S S S S S S S E +E
|----------------------------------||--------------------------------||
|---------------------------------o||--------------------------------||
|----------------------------------||--------------------------------||
|----------------------------------||-------------------------4-(4)S=||
|-------------------------4h5p4---o||-------------------------2-(2)S=||
|-2h4-4-4-7-4-4-4-2h4-4-4-------7--||-2h4-4-4-7-4-4-4-2h4-4-4--------||


 Chorus
  Faster Q=166
  E5         G5Gb5       Bb5 B5  D5  E5            G5Gb5       Bb5 B5  D5  E5
         PM|     PM                            PM|     PM
  E +E   E E E E E E   E E E E E E E E   +Q    E E E E E E   E E E E E E E E
|--------------------|-----------------|-------------------|-----------------|
|--------------------|-----------------|-------------------|-----------------|
|--------------------|-----------------|-------------------|-----------------|
|-9-(9)\-------------|-----------7---9-|-(9)\--------------|-----------7---9-|
|-7-(7)\-----5-4---4-|---8---9---5---7-|-(7)\------5-4---4-|---8---9---5---7-|
|--------0-0-3-2-0-2-|---6---7---------|-------0-0-3-2-0-2-|---6---7---------|
|
|        PM|     PM                            PM|     PM
| E +E   E E E E E E   E E E E E E E E   +Q    E E E E E E   E E E E E E E E
|--------------------|-----------------|-------------------|-----------------|
|--------------------|-----------------|-------------------|-----------------|
|--------------------|-----------------|-------------------|-----------------|
|-9-(9)\-------------|-----------7---9-|-(9)\--------------|-----------7---9-|
|-7-(7)\-----5-4---4-|---8---9---5---7-|-(7)\------5-4---4-|---8---9---5---7-|
|--------0-0-3-2-0-2-|---6---7---------|-------0-0-3-2-0-2-|---6---7---------|


  accel Q=171
            G5Gb5       Bb5 B5  D5  E5            G5Gb5       Bb5 B5  D5  E5
        PM|     PM                            PM|     PM
  +Q    E E E E E E   E E E E E E E E   +Q    E E E E E E   E E E E E E E E
|-------------------|-----------------|-------------------|-----------------||
|-------------------|-----------------|-------------------|-----------------||
|-------------------|-----------------|-------------------|-----------------||
|-(9)\--------------|-----------7---9-|-(9)\--------------|-----------7---9-||
|-(7)\------5-4---4-|---8---9---5---7-|-(7)\------5-4---4-|---8---9---5---7-||
|-------0-0-3-2-0-2-|---6---7---------|-------0-0-3-2-0-2-|---6---7---------||
|
|       PM|     PM                            PM|     PM
| +Q    E E E E E E   E E E E E E E E   +Q    E E E E E E   E E E E E E E E
|-------------------|-----------------|-------------------|-----------------||
|-------------------|-----------------|-------------------|-----------------||
|-------------------|-----------------|-------------------|-----------------||
|-(9)\--------------|-----------7---9-|-(9)\--------------|-----------7---9-||
|-(7)\------5-4---4-|---8---9---5---7-|-(7)\------5-4---4-|---8---9---5---7-||
|-------0-0-3-2-0-2-|---6---7---------|-------0-0-3-2-0-2-|---6---7---------||


 Guitar Break
  Faster Q=177
  E5
  +E  E  S S E E E E E   +E  E  S S E E E E E
|----------------------|----------------------|
|----------------------|----------------------|
|----------------------|--------------7-9-7---|
|-(9)----------7-8-9---|--------------7-9-7---|
|-(7)-7-10-9-7-7-8-9-7-|-(7)-7-10-9-7-------7-|
|-----7-10-9-7-------7-|-(7)-7-10-9-7-------7-|
|
| +E  Q      H       E   +E  Q      H       E
|----------------------|----------------------|
|----------------------|----------------------|
|----------------------|----------------------|
|-(9)----------------9-|-(9)----------------9-|
|-(7)----------------7-|-(7)----------------7-|
|----------------------|----------------------|


  +E  E  S S E E E E E   +E  E   E E E E E  E
|----------------------|----------------------|
|--------------------9-|-(9)-7b9r7---7---7--9-|
|--------------------9-|-(9)-7b9r7-9-7-9-7--9-|
|--------------7-8-9---|-----------9---9------|
|-(7)-7-10-9-7-7-8-9---|----------------------|
|-(7)-7-10-9-7---------|----------------------|
|
| +E  Q      H       E   +H.             Q
|----------------------|----------------------|
|----------------------|----------------------|
|----------------------|----------------------|
|-(9)------------------|----------------------|
|-(7)----------------2-|-(2)-------------2/---|
|--------------------0-|-(0)------------------|


  gradual slowdown Q=172
  E5
  E E  S S E E E E E   +E  E  S S E E E E E
|--------------------|----------------------|
|--------------------|----------------------|
|--------------------|--------------7-9-7---|
|------------7-8-9---|--------------7-9-7---|
|-7-7-10-9-7-7-8-9-7-|-(7)-7-10-9-7-------7-|
|-7-7-10-9-7-------7-|-(7)-7-10-9-7-------7-|
|
| E Q      H       E   +E  Q      H       E
|--------------------|----------------------|
|--------------------|----------------------|
|--------------------|----------------------|
|-9----------------9-|-(9)----------------9-|
|-7----------------7-|-(7)----------------7-|
|--------------------|----------------------|


                     E
  +E  E  S S E E E E E   +E  E   E E E E Q
|----------------------|---------------------|
|--------------------9-|-(9)-7b9r7---7---7/--|
|--------------------9-|-(9)-7b9r7-9-7-9-7/--|
|--------------7-8-9---|-----------9---9-----|
|-(7)-7-10-9-7-7-8-9---|---------------------|
|-(7)-7-10-9-7---------|---------------------|
|
| +E  Q      H       E   +H.             Q
|----------------------|---------------------|
|----------------------|---------------------|
|----------------------|---------------------|
|-(9)------------------|---------------------|
|-(7)----------------2-|-(2)-------------2/--|
|--------------------0-|-(0)-----------------|


  Q=169
  E5
    PM-----|
  E E  S S E E E E E   +E  E  S S E E E E E
|--------------------|----------------------|
|--------------------|----------------------|
|--------------------|--------------7-9-7---|
|------------7-8-9---|--------------7-9-7---|
|-7-7-10-9-7-7-8-9-7-|-(7)-7-10-9-7-------7-|
|-7----------------7-|-(7)-7-10-9-7-------7-|
|
| E Q      H       E   +E  Q      H       E
|--------------------|----------------------|
|--------------------|----------------------|
|--------------------|----------------------|
|-9----------------9-|-(9)----------------9-|
|-7----------------7-|-(7)----------------7-|
|--------------------|----------------------|


  +E  E  S S E E E E E   +E  E   E E E E E  E
|----------------------|----------------------|
|--------------------9-|-(9)-7b9r7---7---7--9-|
|--------------------9-|-(9)-7b9r7-9-7-9-7--9-|
|--------------7-8-9---|-----------9---9------|
|-(7)-7-10-9-7-7-8-9---|----------------------|
|-(7)-7-10-9-7---------|----------------------|
|
| +E  Q      H       E   +H.             Q
|----------------------|----------------------|
|----------------------|----------------------|
|----------------------|----------------------|
|-(9)------------------|----------------------|
|-(7)----------------2-|-(2)-------------2/---|
|--------------------0-|-(0)------------------|


  Q=167
  E5
  E E  S S E E E E E   +E  E  S S E E E E E
|--------------------|----------------------|
|--------------------|----------------------|
|--------------------|--------------7-9-7---|
|------------7-8-9---|--------------7-9-7---|
|-7-7-10-9-7-7-8-9-7-|-(7)-7-10-9-7-------7-|
|-7-7-10-9-7-------7-|-(7)-7-10-9-7-------7-|
|
| E Q      H       E   +E  Q      H       E
|--------------------|----------------------|
|--------------------|----------------------|
|--------------------|----------------------|
|-9----------------9-|-(9)----------------9-|
|-7----------------7-|-(7)----------------7-|
|--------------------|----------------------|


  +E  E  S S E E E E E   +E  E   +E  E E E Q
|----------------------|-----------------------||
|--------------------9-|-(9)-7b9r(7)---7---7\--||
|--------------------9-|-(9)-7b9r(7)-9-7-9-7\--||
|--------------7-8-9---|-------------9---9-----||
|-(7)-7-10-9-7-7-8-9---|-----------------------||
|-(7)-7-10-9-7---------|-----------------------||
|
| +E  Q      H       E   +H.               Q
|----------------------|-----------------------||
|----------------------|-----------------------||
|----------------------|-----------------------||
|-(9)------------------|-----------------------||
|-(7)----------------2-|-(2)---------------5\--||
|--------------------0-|-(0)-------------------||


 Bridge
  Q=164
  E5     BbA5G5E5          E5  Bb5 E5
     PM|               PM|   PM  PM
  Q  E E E E E E   +E  E E E E E E E
|----------------|-------------------|
|----------------|-------------------|
|----------------|-------------------|
|----------------|---------9---------|
|-2--x-x-8-7-5-2-|-(2)-x-x-7-x-8-x-2-|
|-0--x-x-6-5-3-0-|-(0)-x-x---x-6-x-0-|
|
| Q  Q   H          W
|----------------|-------------------|
|----------------|-------------------|
|----------------|-------------------|
|----------------|-------------------|
|-2--------------|-------------------|
|-0--------------|-------------------|


            Bb5   A5      G     A G    BbA5G5E5
      PM--|         PM|
  +E  E E E S +S  E E E   S +S  E E. S E E E E
|-----------------------|------------------------|
|-----------------------|------------------------|
|-----------------------|------------------------|
|-----------------------|------------------------|
|-(2)-x-x-x-8-(8)s7-x-x-|-2-(2)s4-2----8-7-5-2---|
|-(0)-x-x-x-6-(6)s5-x-x-|-3-(3)s5-3----6-5-3-0---|
|
|  W                      H            E E E E
|-----------------------|------------------------|
|-----------------------|------------------------|
|-----------------------|------------------------|
|-----------------------|--------------------2---|
|-----------------------|--------------8-7-5-2---|
|-----------------------|--------------6-5-3-0---|


            BbA5G5E5          E5  Bb5 E5
      PM--|               PM|   PM  PM
  +E  E E E E E E E   +E  E E E E E E E
|-------------------|-------------------|
|-------------------|-------------------|
|-------------------|-------------------|
|-------------------|---------9---------|
|-(2)-x-x-x-8-7-5-2-|-(2)-x-x-7-x-8-x-2-|
|-(0)-x-x-x-6-5-3-0-|-(0)-x-x---x-6-x-0-|
|
| +W                  +W
|-------------------|-------------------|
|-------------------|-------------------|
|-------------------|-------------------|
|-(2)---------------|-(2)---------------|
|-(2)---------------|-(2)---------------|
|-(0)---------------|-(0)---------------|


            Bb5   A5      G       A G    BbA5G5E5
      PM--|         PM|                PM
  +E  E E E S +S  E E E    S  +S  E E. S E E E E
|-----------------------|--------------------------||
|-----------------------|--------------------------||
|-----------------------|--------------------------||
|-----------------------|--------------------------||
|-(2)-x-x-x-8-(8)s7-x-x-|--2--(2)s4-2--x-8-7-5-2---||
|-(0)-x-x-x-6-(6)s5-x-x-|--3--(3)s5-3--x-6-5-3-0---||
|
| +W                      +H             E E E E
|-----------------------|--------------------------||
|-----------------------|--------------------------||
|-----------------------|----------------------9---||
|-(2)-------------------|-(2)----------------------||
|-(2)-------------------|-(2)------------8-7-5-7---||
|-----------------------|----------------6-5-3-----||


              Bb5     A5      G5      E5
        PM--|
    +E  E E E  E       E       E      E
||--------------------------------------|
||o-------------------------------------|
||--------------------------------------|
||--------------------------------------|
||o-(2)-x-x-x--8-------7-------5------2-|
||--(0)-x-x-x--6-------5-------3------0-|
|
|       PM--|
|   +E  E E E  S  +S   S  +S   S  +S  E
||--------------------------------------|
||o-------------------------------------|
||--(9)-------15-(15)s14-(14)s12-(12)s9-|
||--------------------------------------|
||o-(7)-x-x-x-13-(13)s12-(12)s10-(10)s7-|
||------x-x-x---------------------------|


          E5  Bb5 E5            Bb5   A5
      PM|   PM  PM        PM--|         PM|
  +E  E E E E E E E   +E  E E E S +S  E E E
|-------------------|-----------------------|
|-------------------|-----------------------|
|-------------------|-----------------------|
|---------9---------|-----------------------|
|-(2)-x-x-7-x-8-x-2-|-(2)-x-x-x-8-(8)s7-x-x-|
|-(0)-x-x---x-6-x-0-|-(0)-x-x-x-6-(6)s5-x-x-|
|
|     PM|   PM  PM        PM--|         PM|
| +E  E E E E E E E   +E  E E E S +S  E E E
|-------------------|-----------------------|
|-------------------|-----------------------|
|-(9)-----9---7---9-|-(9)-------7-(7)s9-----|
|-------------------|-----------------------|
|-(7)-x-x-7-x-5-x-7-|-(7)-x-x-x-5-(5)s7-x-x-|
|-----x-x---x---x---|-----x-x-x---------x-x-|


  1.,2.,3.                4.
  G     A G    BbA5G5E5    G     A G    BbA5G5F#5
  S +S  E E. S E E E E  4x S +S  E E. S E E E E
|-----------------------||----------------------||
|----------------------o||----------------------||
|-----------------------||----------------------||
|-----------------------||----------------------||
|-2-(2)s4-2----8-7-5-2-o||-2-(2)s4-2----8-7-5-4-||
|-3-(3)s5-3----6-5-3-0--||-3-(3)s5-3----6-5-3-2-||
|
| S +S  E E. S E E E E  4x S +S  E E. S E E E E
|-----------------------||----------------------||
|----------------------o||----------------------||
|-4-(4)s6-4----9-9-7-9--||-4-(4)s6-4------------||
|-----------------------||----------------------||
|-2-(2)s4-2----7-7-5-7-o||-2-(2)s4-2----8-7-5-4-||
|-----------------------||--------------6-5-3-2-||


   4th, 5th, 6th & 7th Verses
    F#5
        PM---------------------
    +E  S S E S S E S S E S S
||----------------------------|
||o---------------------------|
||----------------------------|
||----------------------------|
||o-(4)-4-4-4-4-4-4-4-4-4-4-4-|
||--(2)-2-2-2-2-2-2-2-2-2-2-2-|
|
|       PM---------------------
|   +E  S S E S S E S S E S S
||----------------------------|
||o---------------------------|
||----------------------------|
||----------------------------|
||o-(4)-4-4-4-4-4-4-4-4-4-4-4-|
||--(2)-2-2-2-2-2-2-2-2-2-2-2-|


                  E5G5F#5
 -----------------|           PM------------------|
  E S S E S S E S S E E   +E  S S E S S E S S E S S
|-----------------------|---------------------------|
|-----------------------|---------------------------|
|-----------------------|---------------------------|
|-----------------------|---------------------------|
|-4-4-4-4-4-4-4-4-2-5-4-|-(4)-4-4-4-4-4-4-4-4-4-4-4-|
|-2-2-2-2-2-2-2-2-0-3-2-|-(2)-2-2-2-2-2-2-2-2-2-2-2-|
|
|-----------------|           PM----------------|
| E S S E S S E S S E E   +E  S S E S S E S S E S S
|-----------------------|---------------------------|
|-----------------------|---------------------------|
|-----------------------|---------------------------|
|-----------------------|---------------------------|
|-4-4-4-4-4-4-4-4-2-5-4-|-(4)-4-4-4-4-4-4-4-4-4-4-4-|
|-2-2-2-2-2-2-2-2-0-3-2-|-(2)-2-2-2-2-2-2-2-2-2-2-2-|


                    E5C5F#5                   E5G5E5                    G5F#5
      PM------------|           PM------------|           PM--------|
  +E  S S E S S E S S E E   +E  S S E S S E S S E E   +E  S S E S S E E E E
|-------------------------|-------------------------|-----------------------|
|-------------------------|-------------------------|-----------------------|
|-------------------------|-------------------------|-----------------------|
|---------------------5---|-------------------------|-----------------------|
|-(4)-4-4-4-4-4-4-4-2-3-4-|-(4)-4-4-4-4-4-4-4-2-5-2-|-(2)-2-2-2-2-2-2-2-5-4-|
|-(2)-2-2-2-2-2-2-2-0---2-|-(2)-2-2-2-2-2-2-2-0-3-0-|-(0)-0-0-0-0-0-0-0-3-2-|
|
|     PM------------|           PM------------|           PM--------|
| +E  S S E S S E S S E E   +E  S S E S S E S S E E   +E  S S E S S E E E E
|-------------------------|-------------------------|-----------------------|
|-------------------------|-------------------------|-----------------------|
|-------------------------|-------------------------|-----------------4-7-6-|
|---------------------5---|-------------------------|-----------------------|
|-(4)-4-4-4-4-4-4-4-2-3-4-|-(4)-4-4-4-4-4-4-4-2-5-2-|-(2)-2-2-2-2-2-2-2-5-4-|
|-(2)-2-2-2-2-2-2-2-0---2-|-(2)-2-2-2-2-2-2-2-0-3-0-|-(0)-0-0-0-0-0-0-------|


                  B5  E5
      PM----------|
  +E  S S E S S E E E E
|-----------------------||
|-----------------------||
|-----------------------||
|-----------------4---9-||
|-(4)-4-4-4-4-4-4-2---7-||
|-(2)-2-2-2-2-2-2-------||
|
|     PM----------|
| +E  S S E S S E E E E
|-----------------------||
|-----------------------||
|-(6)-----------------9-||
|-----------------4-----||
|-(4)-4-4-4-4-4-4-2---7-||
|-----2-2-2-2-2-2-------||


 Breakdown
            Bb5     A5      G5      E5          E5  Bb5 E5
                                            PM|   PM  PM
  +Q    E E  E       E       E      E   +E  E E E E E E E
|-------------------------------------|-------------------|
|-------------------------------------|-------------------|
|-------------------------------------|-------------------|
|-(9)\--------------------------------|---------9---------|
|-(7)\--x-x--8-------7-------5------2-|-(2)-x-x-7-x-8-x-2-|
|-------x-x--6-------5-------3------0-|-(0)-x-x---x-6-x-0-|
|
|                                           PM|   PM  PM
| +Q    E E  S  +S   S  +S   S  +S  E   +E  E E E E E E E
|-------------------------------------|-------------------|
|-------------------------------------|-------------------|
|-(9)\------15-(15)s14-(14)s12-(12)s9-|-(9)-----9---7---9-|
|-------------------------------------|-------------------|
|-(7)\--x-x-13-(13)s12-(12)s10-(10)s7-|-(7)-x-x-7-x-5-x-7-|
|-------x-x---------------------------|-----x-x---x---x---|


                         1.,2.,3.                 4.
            Bb5   A5      G     A G    BbA5G5F#5   G     A G    BbA5G5   F#5
      PM--|         PM|
  +E  E E E S +S  E E E   S +S  E E. S E E E E  4x S +S  E E. S E E E     E
|-----------------------|-----------------------||---------------------------||
|-----------------------|----------------------o||---------------------------||
|-----------------------|-----------------------||---------------------------||
|-----------------------|-----------------------||---------------------------||
|-(2)-x-x-x-8-(8)s7-x-x-|-2-(2)s4-2----8-7-5-4-o||-2-(2)s4-2----8-7-5-----4--||
|-(0)-x-x-x-6-(6)s5-x-x-|-3-(3)s5-3----6-5-3-2--||-3-(3)s5-3----6-5-3-----2--||
|
|     PM--|         PM|
| +E  E E E S +S  E E E   S +S  E E. S E E E E  4x S +S  E E. S E E E    +E
|-----------------------|-----------------------||---------------------------||
|-----------------------|----------------------o||---------------------------||
|-(9)-------7-(7)s9-----|-4-(4)s5-4-------------||-4-(4)s5-4-----------------||
|-----------------------|-----------------------||---------------------------||
|-(7)-x-x-x-5-(5)s7-x-x-|-2-(2)s4-2----8-7-5-4-o||-2-(2)s4-2----8-7----------||
|-----x-x-x---------x-x-|--------------6-5-3-2--||--------------6-5-3b6==(3)-||


 Outro
  F#5                                        E5G5F#5
       PM------------------------------------|           PM----------------|
  +E   S S E S S E S S E S S   E S S E S S E E E E   +E  S S E S S E S S E S S
|----------------------------|---------------------|---------------------------|
|----------------------------|---------------------|---------------------------|
|----------------------------|---------------------|---------------------------|
|----------------------------|---------------------|---------------------------|
|-(4)--4-4-4-4-4-4-4-4-4-4-4-|-4-4-4-4-4-4-4-2-5-4-|-(4)-4-4-4-4-4-4-4-4-4-4-4-|
|-(2)--2-2-2-2-2-2-2-2-2-2-2-|-2-2-2-2-2-2-2-0-3-2-|-(2)-2-2-2-2-2-2-2-2-2-2-2-|
|
|      PM------------------------------------|           PM------------------|
| +E   S S E S S E S S E S S   E S S E S S E E E E   +E  S S E S S E S S E S S
|----------------------------|---------------------|---------------------------|
|----------------------------|---------------------|---------------------------|
|----------------------------|---------------------|---------------------------|
|----------------------------|---------------------|---------------------------|
|------4-4-4-4-4-4-4-4-4-4-4-|-4-4-4-4-4-4-4-2-5-4-|-(4)-4-4-4-4-4-4-4-4-4-4-4-|
|-(3)r-2-2-2-2-2-2-2-2-2-2-2-|-2-2-2-2-2-2-2-0-3-2-|-(2)-2-2-2-2-2-2-2-2-2-2-2-|


                  E5C5F#5                 E5C5F#5                 E5C5F#5
      PM----------|           PM----------|           PM----------|
  +E  S S E S S E E E E   +E  S S E S S E E E E   +E  S S E S S E E E E
|-----------------------|-----------------------|------------------------|
|-----------------------|-----------------------|------------------------|
|-----------------------|-----------------------|------------------------|
|-------------------5---|-------------------5---|-------------------5----|
|-(4)-4-4-4-4-4-4-2-3-4-|-(4)-4-4-4-4-4-4-2-3-4-|-(4)-4-4-4-4-4-4-2-3-4--|
|-(2)-2-2-2-2-2-2-0---2-|-(2)-2-2-2-2-2-2-0---2-|-(2)-2-2-2-2-2-2-0---2--|
|
|     PM----------|           PM----------|           PM----------|
| +E  S S E S S E E E E   +E  S S E S S E E E E   +E  S S E S S E E E E
|-----------------------|-----------------------|------------------------|
|-----------------------|-----------------------|------------------------|
|-----------------------|-----------------------|------------------------|
|-------------------5---|-------------------5---|-------------------5----|
|-(4)-4-4-4-4-4-4-2-3-4-|-(4)-4-4-4-4-4-4-2-3-4-|-(4)-4-4-4-4-4-4-2-3-4--|
|-(2)-2-2-2-2-2-2-0---2-|-(2)-2-2-2-2-2-2-0---2-|-(2)-2-2-2-2-2-2-0---2--|


      E5C5F#5E5C5F#5     E5G5F#5E5C5E5
      PM     PM          PM     PM
  +E  E E Q  E E E   +E  E E Q  E E E
|------------------|------------------|
|------------------|------------------|
|------------------|------------------|
|-------5------5---|--------------5---|
|-(4)-2-3-4--2-3-4-|-(4)-2-5-4--2-3-2-|
|-(2)-0---2--0---2-|-(2)-0-3-2--0-----|
|
|     PM     PM          PM     PM
| +E  E E Q  E E E   +E  E E Q  E E E
|------------------|------------------|
|------------------|------------------|
|------------------|------------------|
|-------5------5---|--------------5---|
|-(4)-2-3-4--2-3-4-|-(4)-2-5-4--2-3-2-|
|-(2)-0---2--0---2-|-(2)-0-3-2--0---0-|


   S   S  S    S  S  S  +S   S  S  S  S  S  S  S  S  S
|------------------------------------------------------|
|------------------------------------------------------|
|------------------------------------------------16h19p|
|---------------------------------14h17p14-16h17-------|
|-------------13h17p13-(13)s15h17----------------------|
|-12h=14h15--------------------------------------------|
|
| +E      H..
|------------------------------------------------------|
|------------------------------------------------------|
|------------------------------------------------------|
|------------------------------------------------------|
|-(2)--------------------------------------------------|
|-(0)--------------------------------------------------|


                                               B5
                                                                   <
   S  S  S   S   S  S   S  S  Q         +Q      +E   Q   E H       W
|---------------------/19-22-22b24=====(22)--|-(22)r-x\---------|-14-----|
|-----------17-/20-19------------------------|-------x\---------|--------|
|-16s18-19-----------------------------------|------------------|--------|
|--------------------------------------------|------------------|--------|
|--------------------------------------------|------------------|--------|
|--------------------------------------------|------------------|--------|
|
|  E     Q.                   E     Q.           W                +W
|--------------------------------------------|------------------|--------|
|--------------------------------------------|------------------|--------|
|--------------------------------------------|---4--------------|-(4)----|
|--------------------------------------------|---4--------------|-(4)----|
|--2--------------------------3--------------|---2--------------|-(2)----|
|--0--------------------------1--------------|------------------|--------|


                                                          B5
   +W             W            +W            +W           H     H
|-(14)--------|-(14)--------|-(14)--------|-(14)--------|------------*|
|-------------|-------------|-------------|-------------|------------*|
|-------------|-(11)--------|-(11)--------|-(11)--------|-4\---------*|
|-------------|-------------|-------------|-------------|-4\---------*|
|-------------|-------------|-------------|-------------|-2\---------*|
|-------------|-------------|-------------|-------------|------------*|
|
|  +W            +W            +W            +W           H     H
|-------------|-------------|-------------|-------------|------------*|
|-------------|-------------|-------------|-------------|------------*|
|--(4)--------|--(4)--------|--(4)--------|--(4)--------|-4\---------*|
|--(4)--------|--(4)--------|--(4)--------|--(4)--------|-4\---------*|
|--(2)--------|--(2)--------|--(2)--------|--(2)--------|-2\---------*|
|-------------|-------------|-------------|-------------|------------*|



Duration Legend
---------------
W - whole; H - half; Q - quarter; E - 8th; S - 16th; T - 32nd; X - 64th; a - acciaccatura
+ - note tied to previous; . - note dotted; .. - note double dotted
Uncapitalized letters represent notes that are staccato (1/2 duration)
Irregular groupings are notated above the duration line
Duration letters will always appear directly above the note/fret number it represents the
duration for.  Duration letters with no fret number below them represent rests.  Multi-
bar rests are notated in the form Wxn, where n is the number of bars to rest for.  Low
melody durations appear below the staff

Tablature Legend
----------------
 h   - hammer-on
 p   - pull-off
 b   - bend
 pb  - pre-bend
 r   - bend release (if no number after the r, then release immediately)
 /\  - slide into or out of (from/to "nowhere")
 s   - legato slide
 S   - shift slide
 - natural harmonic
[n]  - artificial harmonic
n(n) - tapped harmonic
 ~   - vibrato
 tr  - trill
 T   - tap
 TP  - trem. picking
 PM  - palm muting
\n/  - tremolo bar dip; n = amount to dip
 \n  - tremolo bar down
 n/  - tremolo bar up
/n\  - tremolo bar inverted dip
 =   - hold bend; also acts as connecting device for hammers/pulls
 <> - volume swell (louder/softer)
 x   - on rhythm slash represents muted slash
 o   - on rhythm slash represents single note slash

Misc Legend
-----------
 |  - bar
||  - double bar
||o - repeat start
o|| - repeat end
*|  - double bar (ending)
 :  - bar (freetime)
 $  - Segno
 &  - Coda
Tempo markers -  = BPM(8/16=s8/s16), where s8 = swing 8ths, s16 = swing 16ths

comments
We did not receive enough feedback on this tab! Please rate:
print report bad tab
1 2 3 4 5
1 comment total.
0 reply
tones2SS wrote on March 27 2010, 02:53 pm

Awesome tab man!!
Good job.

I want to post or [tab]
guest
You may want to rate the tab now too:
select rating
Please do not post tabs as comments. Select "correction" instead!