Oops, an error
Loading. Please wait.

The Disintegrators Tab

ver5
ver5

Interactive

More versions @911Tabs.com
174 views 1 this week
no commentswrite comment
1 2 3 4 5
worth learning
x 1
Autoscroll
+/-
esc
set tempo
stop
Contributor
Difficulty
intermediate
Hey! There's an official Ultimate Guitar app which is ideal
for learning songs when you're away from computer. Get the app
WARNING: You are trying to view
                                    content from Ultimate-Guitar.com
                                    in an unauthorized application,
                                    which is prohibited.

                                    Please use an official Ultimate
                                    Guitar Tabs application for iPhone,
                                    iPad or Android to access legitimate
                                    chords, guitar, bass, and drum tabs
                                    from Ultimate-Guitar.com database.

                                    Type "ultimate guitar tabs" in Apple
                                    App Store's or Android Market's
                                    search to find the application.
                            The Disintegrators                             
                                 Megadeth

                                                                   
Tabbed by BlisteringDDj

Guitar 1: Dave Mustaine
Guitar 2: Marty Friedman


Guitar 1 & Guitar 2

     S S S S E  S S S S E  E  E     S S S S E  S S S S E  E  E    
E||------------------------------|-------------------------------|
B||------------------------------|-------------------------------|
G||------------------------------|-------------------------------|
D||--2-2-2-2----2-2-2-2----2--4--|--2-2-2-2----2-2-2-2----2------|
A||--3-3-3-3----3-3-3-3----3--5--|--3-3-3-3----3-3-3-3----3------|
E||------------------------------|---------------------------3b--|

Guitar 1 (alone):

  W                   W                 
-------------------|-------------------|
-------------------|-------------------|
-------------------|-------------------|
-------------------|-------------------|
-------------------|-------------------|
--L----------------|--L----------------|


Guitar 1 & 2:

    E  S S S S Q    S  S S  S S  S      E  S S S S Q    S  S S  S S  S  
-----------------------------------|-----------------------------------|
-----------------------------------|-----------------------------------|
--------------------7p-5-----------|--------------------7p-5-----------|
--5g7----------7---------7p-5------|--5g7----------7---------7p-5------|
----0--0-0-0-0-0--------------7h-8-|----0--0-0-0-0-0--------------7h-8-|
-----------------------------------|-----------------------------------|


    E  S S S S Q    S  S S  S S  S      E  S S S S Q    S  S S  S S  S  
-----------------------------------|-----------------------------------|
-----------------------------------|-----------------------------------|
--------------------7p-5-----------|--------------------7p-5-----------|
--5g7----------7---------7p-5------|--5g7----------7---------7p-5------|
----0--0-0-0-0-0--------------7h-8-|----0--0-0-0-0-0--------------7h-8-|
-----------------------------------|-----------------------------------|


    E  S S S S Q    S  S S  S S  S      E  S S S S Q    S  S S  S S  S  
-----------------------------------|-----------------------------------|
-----------------------------------|-----------------------------------|
--------------------7p-5-----------|--------------------7p-5-----------|
--5g7----------7---------7p-5------|--5g7----------7---------7p-5------|
----0--0-0-0-0-0--------------7h-8-|----0--0-0-0-0-0--------------7h-8-|
-----------------------------------|-----------------------------------|


    E  S S S S Q    S  S S  S S  S      E  S S S S Q    S  S S  S S  S  
-----------------------------------|-----------------------------------|
-----------------------------------|-----------------------------------|
--------------------7p-5-----------|--------------------7p-5-----------|
--5g7----------7---------7p-5------|--5g7----------7---------7p-5------|
----0--0-0-0-0-0--------------7h-8-|----0--0-0-0-0-0--------------7h-8-|
-----------------------------------|-----------------------------------|


  E  S E  S E  S E  S E  E      E  S S S S S S S S S S S S S S  
-----------------------------|---------------------------------|
-----------------------------|---------------------------------|
-------2---------0-----------|---------------------------------|
----------------------2------|--2------------------------------|
--4--x----x-4--x----x-0------|--0--x-x-x-x-x-x-x-x-x-x-x-x-x-x-|
--2--x----x-2--x----x----3b--|-----x-x-x-x-x-x-x-x-x-x-x-x-x-x-|


  E  S E  S E  S E  S E  E      E  S S S S S S S S S S S S S S  
-----------------------------|---------------------------------|
-----------------------------|---------------------------------|
-------2---------0-----------|---------------------------------|
----------------------2------|--2------------------------------|
--4--x----x-4--x----x-0------|--0--x-x-x-x-x-x-x-x-x-x-x-x-x-x-|
--2--x----x-2--x----x----3b--|-----x-x-x-x-x-x-x-x-x-x-x-x-x-x-|


  E  S E  S E  S E  S E  E      E  S S S S S S S S S S S S S S  
-----------------------------|---------------------------------|
-----------------------------|---------------------------------|
-------2---------0-----------|---------------------------------|
----------------------2------|--2------------------------------|
--4--x----x-4--x----x-0------|--0--x-x-x-x-x-x-x-x-x-x-x-x-x-x-|
--2--x----x-2--x----x----3b--|-----x-x-x-x-x-x-x-x-x-x-x-x-x-x-|


  E  S E  S E  S E  S E  E      E  S S S S S S S S S S S E.    
-----------------------------|--------------------------------|
-----------------------------|--------------------------------|
-------2---------0-----------|--------------------------------|
----------------------2------|--2-----------------------------|
--4--x----x-4--x----x-0------|--0--x-x-x-x-x-x-x-x-x-x-x------|
--2--x----x-2--x----x----3b--|-----x-x-x-x-x-x-x-x-x-x-x-3b---|


  E.  E.  E  H           E.  E.  E  H           E.  E.  E  E.  E.  E   
----------------------|----------------------|------------------------|
----------------------|----------------------|------------------------|
----------------------|----------------------|------------------------|
----------------------|--7---7---7--L--------|------------------------|
--2---2---2--L--------|--5---5---5--L--------|--5---5---x--5-------5--|
--0---0---0--L--------|----------------------|--3---3---x--3---0---3--|


  E.  E.  E  E.  E.  E     E.  E.  E  H           E.  E.  E  H         
------------------------|----------------------|----------------------|
------------------------|----------------------|----------------------|
------------------------|----------------------|----------------------|
------------------------|----------------------|--7---7---7--L--------|
--7---7---x--7---8---9--|--2---2---2--L--------|--5---5---5--L--------|
--5---5---x--5---6---7--|--0---0---0--L--------|----------------------|


  E.  E.  E  E.  E.  E     E.  E.  E  E.  E.  E   
------------------------|------------------------|
------------------------|------------------------|
------------------------|------------------------|
------------------------|------------------------|
--5---5---x--5-------5--|--7---7---x--7---8---9--|
--3---3---x--3---0---3--|--5---5---x--5---6---7--|


  E  S S S S S S E.  E.  E     E  S S S S S S E.  E.  E   
----------------------------|----------------------------|
----------------------------|----------------------------|
----------------------------|----------------------------|
--2--------------2---4---5--|--4--------------4---5---4--|
--2--x-x-x-x-x-x-2---2---2--|--5--x-x-x-x-x-x-5---5---5--|
--0--x-x-x-x-x-x------------|-----x-x-x-x-x-x------------|


  E  S S S S S S E.  E.  E     E  S S S S S S E.  E.  E   
----------------------------|----------------------------|
----------------------------|----------------------------|
----------------------------|----------------------------|
--2--------------2---4---5--|--2--------------2---4---5--|
--4--x-x-x-x-x-x-4---4---4--|--3--x-x-x-x-x-x-3---3---3--|
-----x-x-x-x-x-x------------|-----x-x-x-x-x-x------------|


  E  S S S S S S E.  E.  E     E  S S S S S S E.  E.  E   
----------------------------|----------------------------|
----------------------------|----------------------------|
----------------------------|----------------------------|
--2--------------2---4---5--|--4--------------4---5---4--|
--2--x-x-x-x-x-x-2---2---2--|--5--x-x-x-x-x-x-5---5---5--|
--0--x-x-x-x-x-x------------|-----x-x-x-x-x-x------------|


  E  S S S S S S E.  E.  E     S S S S E  S S S S E  E  E   
----------------------------|------------------------------|
----------------------------|------------------------------|
----------------------------|------------------------------|
--2--------------2---4---5--|--2-2-2-2----2-2-2-2----2--4--|
--4--x-x-x-x-x-x-4---4---4--|--3-3-3-3----3-3-3-3----3--5--|
-----x-x-x-x-x-x------------|------------------------------|

Guitar 1:

    E  S S S S Q    S  S S  S S  S    
-----------------------------------|
-----------------------------------|
--------------------7p-5-----------|
--5g7----------7---------7p-5------|
----0--0-0-0-0-0--------------7h-8-|
-----------------------------------|

Guitar 2 (Solo):

  PM PM PM PM PM PM PM PM PM PM PM PM          
  S  S  S  S  S  S  S  S  S  S  S  S  S S S S  
----------------------------------------------|
--1--3--4--5--5--5--5--5--5--5--5--5--5-5-5-5-|
----------------------------------------------|
----------------------------------------------|
----------------------------------------------|
----------------------------------------------|

Guitar 1:

    E  S S S S Q    S  S S  S S  S    
-----------------------------------|
-----------------------------------|
--------------------7p-5-----------|
--5g7----------7---------7p-5------|
----0--0-0-0-0-0--------------7h-8-|
-----------------------------------|

Guitar 2:

  T  T  S S S S S S S S  S S  S S  S  S  S  
-------------------------------------------|
--5h-6p-5---5------------------------------|
----------8---8-7-5---8h-9-5h-6------------|
--------------------7-----------7s-5s-7s-5-|
-------------------------------------------|
-------------------------------------------|

Guitar 1:

    E  S S S S Q    S  S S  S S  S    
-----------------------------------|
-----------------------------------|
--------------------7p-5-----------|
--5g7----------7---------7p-5------|
----0--0-0-0-0-0--------------7h-8-|
-----------------------------------|

Guitar 2:

  Q     E   E.  S S S  S S S  S  
--------------------------------|
--------------------------------|
-------------------------5------|
------------------5--------7p-5-|
------------6---7---6h-7--------|
--5~----L\----------------------|

Guitar 1:

    E  S S S S Q    S  S S  S S  S      E  S S S S Q    S  S S  S S  S  
-----------------------------------|-----------------------------------|
-----------------------------------|-----------------------------------|
--------------------7p-5-----------|--------------------7p-5-----------|
--5g7----------7---------7p-5------|--5g7----------7---------7p-5------|
----0--0-0-0-0-0--------------7h-8-|----0--0-0-0-0-0--------------7h-8-|
-----------------------------------|-----------------------------------|

Guitar 2:

  S  S S S  S S  S  S S  S S  S S   S  S  S      W                  
---------------------------------------------|---------------------|
---------------------------------------------|---------------------|
-------5-------------------7s-5-------11s-9s-|--12~----------------|
---------7p-5--------------------------------|---------------------|
--6h-7--------7p-6p-5-7s-9------7s-12--------|---------------------|
---------------------------------------------|---------------------|

Guitar 1:

    E  S S S S Q    S  S S  S S  S      E  S S S S Q    S  S S  S S  S  
-----------------------------------|-----------------------------------|
-----------------------------------|-----------------------------------|
--------------------7p-5-----------|--------------------7p-5-----------|
--5g7----------7---------7p-5------|--5g7----------7---------7p-5------|
----0--0-0-0-0-0--------------7h-8-|----0--0-0-0-0-0--------------7h-8-|
-----------------------------------|-----------------------------------|

Guitar 2:

   W                     H.            S   S  S   S   
---------------------|--17b------------Lh-15---------|
---------------------|-----------------------17p-15h-|
--19b----------------|-------------------------------|
---------------------|-------------------------------|
---------------------|-------------------------------|
---------------------|-------------------------------|

Guitar 1:

    E  S S S S Q    S  S S  S S  S    
-----------------------------------|
-----------------------------------|
--------------------7p-5-----------|
--5g7----------7---------7p-5------|
----0--0-0-0-0-0--------------7h-8-|
-----------------------------------|

Guitar 2:

   S  S  S   S   S   S  S  S   S   S   S  S  S   S  S  S  
-----17----------------15-------------------11h-12-11----|
--17----17p-15S-13h-15----15p-13S-10h-13-15-----------15-|
---------------------------------------------------------|
---------------------------------------------------------|
---------------------------------------------------------|
---------------------------------------------------------|

Guitar 1:

  E  S E  S E  S E  S E  E      E  S S S S S S S S S S S S S S  
-----------------------------|---------------------------------|
-----------------------------|---------------------------------|
-------2---------0-----------|---------------------------------|
----------------------2------|--2------------------------------|
--4--x----x-4--x----x-0------|--0--x-x-x-x-x-x-x-x-x-x-x-x-x-x-|
--2--x----x-2--x----x----3b--|-----x-x-x-x-x-x-x-x-x-x-x-x-x-x-|

Guitar 2:

   S  S  S   S   S  S  S  S  S  S  S  S  S  S  S  S     W                    
----------------------------------------------------|----------------------|
--14-13-12h-13p-12----12----------------------------|----------------------|
-------------------15----15-14-13-12----14----12-13-|--14b~----------------|
-------------------------------------14----14-------|----------------------|
----------------------------------------------------|----------------------|
----------------------------------------------------|----------------------|

Guitar 1 & 2:

  E  S E  S E  S E  S E  E      E  S S S S S S S S S S S S S S  
-----------------------------|---------------------------------|
-----------------------------|---------------------------------|
-------2---------0-----------|---------------------------------|
----------------------2------|--2------------------------------|
--4--x----x-4--x----x-0------|--0--x-x-x-x-x-x-x-x-x-x-x-x-x-x-|
--2--x----x-2--x----x----3b--|-----x-x-x-x-x-x-x-x-x-x-x-x-x-x-|


  E  S E  S E  S E  S E  E      E  S S S S S S S S S S S S S S  
-----------------------------|---------------------------------|
-----------------------------|---------------------------------|
-------2---------0-----------|---------------------------------|
----------------------2------|--2------------------------------|
--4--x----x-4--x----x-0------|--0--x-x-x-x-x-x-x-x-x-x-x-x-x-x-|
--2--x----x-2--x----x----3b--|-----x-x-x-x-x-x-x-x-x-x-x-x-x-x-|


  E  S E  S E  S E  S E  E      E  S S S S S S S S S S S E.    
-----------------------------|--------------------------------|
-----------------------------|--------------------------------|
-------2---------0-----------|--------------------------------|
----------------------2------|--2-----------------------------|
--4--x----x-4--x----x-0------|--0--x-x-x-x-x-x-x-x-x-x-x------|
--2--x----x-2--x----x----3b--|-----x-x-x-x-x-x-x-x-x-x-x-3b---|


  E.  E.  E  H           E.  E.  E  H           E.  E.  E  E.  E.  E   
----------------------|----------------------|------------------------|
----------------------|----------------------|------------------------|
----------------------|----------------------|------------------------|
----------------------|--7---7---7--L--------|------------------------|
--2---2---2--L--------|--5---5---5--L--------|--5---5---x--5-------5--|
--0---0---0--L--------|----------------------|--3---3---x--3---0---3--|


  E.  E.  E  E.  E.  E     E.  E.  E  H           E.  E.  E  H         
------------------------|----------------------|----------------------|
------------------------|----------------------|----------------------|
------------------------|----------------------|----------------------|
------------------------|----------------------|--7---7---7--L--------|
--7---7---x--7---8---9--|--2---2---2--L--------|--5---5---5--L--------|
--5---5---x--5---6---7--|--0---0---0--L--------|----------------------|


  E.  E.  E  E.  E.  E     E.  E.  E  E.  E.  E   
------------------------|------------------------|
------------------------|------------------------|
------------------------|------------------------|
------------------------|------------------------|
--5---5---x--5-------5--|--7---7---x--7---8---9--|
--3---3---x--3---0---3--|--5---5---x--5---6---7--|


  E  S S S S S S E.  E.  E     E  S S S S S S E.  E.  E   
----------------------------|----------------------------|
----------------------------|----------------------------|
----------------------------|----------------------------|
--2--------------2---4---5--|--4--------------4---5---4--|
--2--x-x-x-x-x-x-2---2---2--|--5--x-x-x-x-x-x-5---5---5--|
--0--x-x-x-x-x-x------------|-----x-x-x-x-x-x------------|


  E  S S S S S S E.  E.  E     E  S S S S S S E.  E.  E   
----------------------------|----------------------------|
----------------------------|----------------------------|
----------------------------|----------------------------|
--2--------------2---4---5--|--2--------------2---4---5--|
--4--x-x-x-x-x-x-4---4---4--|--3--x-x-x-x-x-x-3---3---3--|
-----x-x-x-x-x-x------------|-----x-x-x-x-x-x------------|


  E  S S S S S S E.  E.  E     E  S S S S S S E.  E.  E   
----------------------------|----------------------------|
----------------------------|----------------------------|
----------------------------|----------------------------|
--2--------------2---4---5--|--4--------------4---5---4--|
--2--x-x-x-x-x-x-2---2---2--|--5--x-x-x-x-x-x-5---5---5--|
--0--x-x-x-x-x-x------------|-----x-x-x-x-x-x------------|


  E  S S S S S S E.  E.  E     S S S S E  S S S S E  E  E   
----------------------------|------------------------------|
----------------------------|------------------------------|
----------------------------|------------------------------|
--2--------------2---4---5--|--2-2-2-2----2-2-2-2----2--4--|
--4--x-x-x-x-x-x-4---4---4--|--3-3-3-3----3-3-3-3----3--5--|
-----x-x-x-x-x-x------------|------------------------------|


  E.  E.  Q    S S S S S S    E.  E.  Q    S S S S S S  
---------------------------|---------------------------|
---------------------------|---------------------------|
---------------------------|---------------------------|
--2---2---2----------------|--2---2---2----------------|
--0---0---0----x-x-x-x-x-x-|--0---0---0----x-x-x-x-x-x-|
---------------x-x-x-x-x-x-|---------------x-x-x-x-x-x-|


  E.  E.  Q    E  E  E     E.  E.  Q    S S S E.    
------------------------|--------------------------|
------------------------|--------------------------|
------------------------|--------------------------|
--2---2---2-------------|--2---2---2---------------|
--0---0---0----3--5--6--|--0---0---0----x-x-x------|
------------------------|---------------x-x-x-3b---|

Guitar 1 (Solo):

Pickscrape  
                                                            
   S S S S H.      W                   W                 
-------------------------|-------------------|
-------------------------|-------------------|
-------------------------|-------------------|
-------------------------|-------------------|
---x-x-x-x---------------|-------------------|
---x-x-x-x-3b------------|--L----------------|

Guitar 2:

  E.  E.  Q    S S S S S S    E.  E.  Q    S S S S S S  
---------------------------|---------------------------|
---------------------------|---------------------------|
---------------------------|---------------------------|
--2---2---2----------------|--2---2---2----------------|
--0---0---0----x-x-x-x-x-x-|--0---0---0----x-x-x-x-x-x-|
---------------x-x-x-x-x-x-|---------------x-x-x-x-x-x-|

Guitar 1:

-------------------|
-------------------|
-------------------|
-------------------|
-------------------|
--L----------------|

Guitar 2:

  E.  E.  Q    E  E  E  
------------------------|
------------------------|
------------------------|
--2---2---2-------------|
--0---0---0----3--5--6--|
------------------------|

Guitar 1:

Pickscrape
                           
-------------------------------------------|
-------------------------------------------|
-------------------------------------------|
-------------------------------------------|
--x-x-x-x-x-x-x-x-x-x-x-x-x-x-x-x-x-x-x-x-x|
--x-x-x-x-x-x-x-x-x-x-x-x-x-x-x-x-x-x-x-x-x|

Guitar 2:

  E.  E.  Q    S S S E.    
--------------------------|
--------------------------|
--------------------------|
--2---2---2---------------|
--0---0---0----x-x-x------|
---------------x-x-x-3b---|

Guitar 1:

  S  S  S S  S  S S  S  S S  S  S S  S  E   
--3p-2p-0-3p-2p-0-3p-2p-0-3p-2p-0-3p-2p-0--|
-------------------------------------------|
-------------------------------------------|
-------------------------------------------|
-------------------------------------------|
-------------------------------------------|

Guitar 2:

  E.  E.  E  H         
----------------------|
----------------------|
----------------------|
----------------------|
--2---2---2--L--------|
--0---0---0--L--------|

Guitar 1:

  S  S  S S  S  S S  S  S S  S  S S  S  E   
--5p-3p-0-5p-3p-0-5p-3p-0-5p-3p-0-5p-3p-0--|
-------------------------------------------|
-------------------------------------------|
-------------------------------------------|
-------------------------------------------|
-------------------------------------------|

Guitar 2:

  E.  E.  E  H         
----------------------|
----------------------|
----------------------|
--7---7---7--L--------|
--5---5---5--L--------|
----------------------|

Guitar 1:

  S  S  S S  S  S S  S  S S  S  S S  S  E   
--7p-5p-0-7p-5p-0-7p-5p-0-7p-5p-0-7p-5p-0--|
-------------------------------------------|
-------------------------------------------|
-------------------------------------------|
-------------------------------------------|
-------------------------------------------|

Guitar 2:

  E.  E.  E  E.  E.  E   
------------------------|
------------------------|
------------------------|
------------------------|
--5---5---x--5-------5--|
--3---3---x--3---0---3--|

Guitar 1:

   S  S  S  S  S  S  S  S  S  S  S  S  S  S  E   
--10p-7p-0-10p-7p-0-10p-7p-0-10p-7p-0-10p-7p-0--|
------------------------------------------------|
------------------------------------------------|
------------------------------------------------|
------------------------------------------------|
------------------------------------------------|

Guitar 2:

  E.  E.  E  E.  E.  E   
------------------------|
------------------------|
------------------------|
------------------------|
--7---7---x--7---8---9--|
--5---5---x--5---6---7--|

Guitar 1:

                                           |---3--|  |---3--|  
   S   S  S  S   S  S  S   S  S  S   S  S  S   S  S  S   S  S  
--12p-10p-0-12p-10p-0-12p-10p-0-12p-10p-0-12p-10p-0-12p-10p-0-|
--------------------------------------------------------------|
--------------------------------------------------------------|
--------------------------------------------------------------|
--------------------------------------------------------------|
--------------------------------------------------------------|

Guitar 2:

  E.  E.  E  H         
----------------------|
----------------------|
----------------------|
----------------------|
--2---2---2--L--------|
--0---0---0--L--------|

Guitar 1:

                                           |---3--|  |---3--|  
   S   S  S  S   S  S  S   S  S  S   S  S  S   S  S  S   S  S  
--15p-14p-0-15p-14p-0-15p-14p-0-15p-14p-0-15p-14p-0-15p-14p-0-|
--------------------------------------------------------------|
--------------------------------------------------------------|
--------------------------------------------------------------|
--------------------------------------------------------------|
--------------------------------------------------------------|

Guitar 2:

  E.  E.  E  H         
----------------------|
----------------------|
----------------------|
--7---7---7--L--------|
--5---5---5--L--------|
----------------------|

Guitar 1:

                                           |---3--|  |---3--|  
   S   S  S  S   S  S  S   S  S  S   S  S  S   S  S  S   S  S  
--17p-15p-0-17p-15p-0-17p-15p-0-17p-15p-0-17p-15p-0-17p-15p-0-|
--------------------------------------------------------------|
--------------------------------------------------------------|
--------------------------------------------------------------|
--------------------------------------------------------------|
--------------------------------------------------------------|

Guitar 2:

  E.  E.  E  E.  E.  E   
------------------------|
------------------------|
------------------------|
------------------------|
--5---5---x--5-------5--|
--3---3---x--3---0---3--|

Guitar 1:

                       |---3--|                      |---3--|  
   S   S  S  S   S  S  S   S  S  S   S  S  S   S  S  S   S  S  
--19p-17p-0-19p-17p-0-19p-17p-0-22p-19p-0-22p-19p-0-22p-19p-0-|
--------------------------------------------------------------|
--------------------------------------------------------------|
--------------------------------------------------------------|
--------------------------------------------------------------|
--------------------------------------------------------------|

Guitar 2:

  E.  E.  E  E.  E.  E   
------------------------|
------------------------|
------------------------|
------------------------|
--7---7---x--7---8---9--|
--5---5---x--5---6---7--|

Guitar 1 (Solo ends):

   H         H           E  S S S S S S E.  E.  E   
--22b-----------------|----------------------------|
----------------------|----------------------------|
----------------------|----------------------------|
----------------------|--4--------------4---5---4--|
----------------------|--5--x-x-x-x-x-x-5---5---5--|
----------------------|-----x-x-x-x-x-x------------|

Guitar 2:

  E  S S S S S S E.  E.  E     E  S S S S S S E.  E.  E   
----------------------------|----------------------------|
----------------------------|----------------------------|
----------------------------|----------------------------|
--2--------------2---4---5--|--4--------------4---5---4--|
--2--x-x-x-x-x-x-2---2---2--|--5--x-x-x-x-x-x-5---5---5--|
--0--x-x-x-x-x-x------------|-----x-x-x-x-x-x------------|

Guitar 1 & 2:

  E  S S S S S S E.  E.  E     E  S S S S S S E.  E.  E   
----------------------------|----------------------------|
----------------------------|----------------------------|
----------------------------|----------------------------|
--2--------------2---4---5--|--2--------------2---4---5--|
--4--x-x-x-x-x-x-4---4---4--|--3--x-x-x-x-x-x-3---3---3--|
-----x-x-x-x-x-x------------|-----x-x-x-x-x-x------------|


  E  S S S S S S E.  E.  E     E  S S S S S S E.  E.  E   
----------------------------|----------------------------|
----------------------------|----------------------------|
----------------------------|----------------------------|
--2--------------2---4---5--|--4--------------4---5---4--|
--2--x-x-x-x-x-x-2---2---2--|--5--x-x-x-x-x-x-5---5---5--|
--0--x-x-x-x-x-x------------|-----x-x-x-x-x-x------------|


  E  S S S S S S E.  E.  E     E  S S S S S S E.  E.  E   
----------------------------|----------------------------|
----------------------------|----------------------------|
----------------------------|----------------------------|
--2--------------2---4---5--|--2--------------2---4---5--|
--4--x-x-x-x-x-x-4---4---4--|--3--x-x-x-x-x-x-3---3---3--|
-----x-x-x-x-x-x------------|-----x-x-x-x-x-x------------|


  E  S S S S S S E.  E.  E     E  S S S S S S E.  E.  E   
----------------------------|----------------------------|
----------------------------|----------------------------|
----------------------------|----------------------------|
--2--------------2---4---5--|--4--------------4---5---4--|
--2--x-x-x-x-x-x-2---2---2--|--5--x-x-x-x-x-x-5---5---5--|
--0--x-x-x-x-x-x------------|-----x-x-x-x-x-x------------|


  E  S S S S S S E.  E.  E     E  S S S S S S E.  E.  E   
----------------------------|----------------------------|
----------------------------|----------------------------|
----------------------------|----------------------------|
--2--------------2---4---5--|--2--------------2---4---5--|
--4--x-x-x-x-x-x-4---4---4--|--3--x-x-x-x-x-x-3---3---3--|
-----x-x-x-x-x-x------------|-----x-x-x-x-x-x------------|


  E  S S S S S S E.  E.  E     E  S S S S S S E.  E.  E   
----------------------------|----------------------------|
----------------------------|----------------------------|
----------------------------|----------------------------|
--2--------------2---4---5--|--4--------------4---5---4--|
--2--x-x-x-x-x-x-2---2---2--|--5--x-x-x-x-x-x-5---5---5--|
--0--x-x-x-x-x-x------------|-----x-x-x-x-x-x------------|


  E  S S S S S S E.  E.  E     E  S S S S S S E.  E.  E   
----------------------------|----------------------------|
----------------------------|----------------------------|
----------------------------|----------------------------|
--2--------------2---4---5--|--2--------------2---4---5--|
--4--x-x-x-x-x-x-4---4---4--|--3--x-x-x-x-x-x-3---3---3--|
-----x-x-x-x-x-x------------|-----x-x-x-x-x-x------------|


  S S S S E  S S S S E  E  E     S S S S E  S S S S E  E  E    
------------------------------|-------------------------------|
------------------------------|-------------------------------|
------------------------------|-------------------------------|
--2-2-2-2----2-2-2-2----2--4--|--2-2-2-2----2-2-2-2----2------|
--3-3-3-3----3-3-3-3----3--5--|--3-3-3-3----3-3-3-3----3------|
------------------------------|---------------------------3b--|


  E  H        Q.       
---------------------||
---------------------||
---------------------||
--2------------------||
--0------------------||
---------------------||




Duration Legend
---------------
W - whole
H - half
Q - quarter
E - 8th
S - 16th
T - 32nd
X - 64th
. - note dotted
|-n-|  - n-tuplets


Tablature Legend
----------------
L - tied note
x - dead note
g - grace note
(n) - ghost note
> - accentuded note
NH - natural harmonic
AH - artificial harmonic
TH - tapped harmonic
SH - semi harmonic
PH - pitch harmonic
h - hammer on
p - pull off
b - bend
br - bendRelease
pb - preBend
pbr - preBendRelease
brb - bendReleaseBend
\n/ - tremolo bar dip
\n - tremolo bar dive
-/n - tremolo bar Release up
/n\ - tremolo bar inverted dip
/n - tremolo bar return
-\n - tremolo bar Release down
S - shift slide
s - legato slide
/ -  slide into from below or out of upwards
\ -  slide into from above or out of downwards
~ - vibrato
W - wide vibrato
tr - trill
TP - tremolo picking
T - tapping
S - slap
P - pop
< - fade in
^ - brush up
v - brush down
comments
We did not receive enough feedback on this tab! Please rate:
print report bad tab
1 2 3 4 5
I want to post or [tab]
guest
You may want to rate the tab now too:
select rating
Please do not post tabs as comments. Select "correction" instead!