Oops, an error
Loading. Please wait.

These Boots Tab

ver1
ver1

Whole song

Interactive

More versions @911Tabs.com
4,079 views 6 this week
no commentswrite comment
1 2 3 4 5
accurate
x 2
Autoscroll
+/-
esc
set tempo
stop
Hey! There's an official Ultimate Guitar app which is ideal
for learning songs when you're away from computer. Get the app
WARNING: You are trying to view
                                    content from Ultimate-Guitar.com
                                    in an unauthorized application,
                                    which is prohibited.

                                    Please use an official Ultimate
                                    Guitar Tabs application for iPhone,
                                    iPad or Android to access legitimate
                                    chords, guitar, bass, and drum tabs
                                    from Ultimate-Guitar.com database.

                                    Type "ultimate guitar tabs" in Apple
                                    App Store's or Android Market's
                                    search to find the application.
         Title : These Boots
        Artist : Megadeth
         Album : Killing Is My Business...And Business Is Good!
Transcribed by : Skywalker  -  skywalker@infoguitar.com


Legend
------

 h  = hammer-on
 p  = pull-off
 b  = bend
 r  = bend release
 /  = slide up/down
<5> = natural harmonic
[5] = artifical harmonic
 ~  = vibrato
 tr = trill



   INTRO: BASS GUITAR

Eb-||------------------------------------------------|--------------
Bb-||*-----------------------------------------------|--------------
Gb-||------------------------------------------------|--------------
Db-||------------------------------------------------|--------------
Ab-||*--7-7---7---7-6----6---6-5----5---5-4----4---4-|-3----3---3-2-
Eb-||------------------------------------------------|--------------
   *  All guitars are detuned 1/4 step from normal.

Eb|---------------------------------|------------------------------
Bb|---------------------------------|------------------------------
Gb|---------------------------------|------------------------------
Db|---------------------------------|------------------------------
Ab|----2---2-1----1---1-0----0------|--------------------5---------
Eb|-----------------------------3---|---0---0-3--0-----0-----0-0---


Eb|--------------------|-------------------------------------------
Bb|--------------------|-------------------------------------------
Gb|--------------------|-------------------------------------------
Db|--------------------|-------------------------------------------
Ab|--------------5-----|------------------5----------------------5-
Eb|-0-3--0-----0----0--|-0---0-3--0-----0-----0-0---0-3--0-----0---



             INTRO: GUITAR 1

Eb|-------||-||-------0--------0--------0--------0----|-----0------
Bb|------*||-||*------0--------0--------0--------0----|-----0------
Gb|-------||-||---------------------------------------|------------
Db|-------||-||---------------------------------------|------------
Ab|------*||-||*--------------------------------------|------------
Eb|--0----||-||---------------------------------------|------------


Eb|---0--------0--------0-----|-------------------------------------
Bb|---0--------0--------0-----|-------------------------------------
Gb|---------------------------|-------------------------------------
Db|---------------------------|---2-----5--2-------0-----2-----5--2-
Ab|---------------------------|---2-----5--2-------0-----2-----5--2-
Eb|---------------------------|-------x----------x-----x-----x------


Eb|-------------|-------------------------------------------------||-
Bb|-------------|------------------------------------------------*||-
Gb|-------------|-------------------------------------------------||-
Db|-------0-----|-2-----5--2-------0-----2-----5--2-------0-------||-
Ab|-------0-----|-2-----5--2-------0-----2-----5--2-------0------*||-
Eb|-----x----x--|-----x----------x-----x-----x----------x----x----||-



   INTRO: GUITAR 2

Eb-||---------------0--------0--------0----|-----0--------0--------
Bb-||*--------------0--------0--------0----|-----0--------0--------
Gb-||--------------------------------------|-----------------------
Db-||--------------------------------------|-----------------------
Ab-||*-------------------------------------|-----------------------
Eb-||--------------------------------------|-----------------------


Eb|-0----------------|-------0--------0--------0--------0----|-----
Bb|-0----------------|-------0--------0--------0--------0----|-----
Gb|------------------|---------------------------------------|-----
Db|---------x-0--x---|---------------------------------------|-----
Ab|---------x-0--x---|---------------------------------------|-----
Eb|------------------|---------------------------------------|-----



                                         LEAD 1: GUITAR 2

Eb|-0--------0--------0--------0------||-------------------------24-
Bb|-0--------0--------0--------0-----*||----------------------------
Gb|-----------------------------------||----------------------------
Db|-----------------------------------||----------------------------
Ab|----------------------------------*||----------------------------
Eb|-----------------------------------||----------------------------


Eb--r--------|------------------------------------------------|----
Bb-----------|------------------------------------------------|----
Gb-----------|------------------------------------------------|----
Db-----------|-----------------4h5-4-2h4-2-0h2-0--------------|----
Ab-----------|----------------------------------------r-b-----|----
Eb-----------|-----------------------------------3b4----------|----


Eb-----------------------------------------------------------------
Bb-----------------------------------------------------------------
Gb-----------------------------------------------------------------
Db-----------------------------------------------------------------
Ab-----------------------------------------------------------------
Eb-----------------------------------------------------------------


Eb------------------------------------------------------------------
Bb----h5-10p5-8-5-0-5-10p5-8-5-0-5-10p5-8-5-0-5-10p5-8b10--r--\--12-
Gb------------------------------------------------------------------
Db------------------------------------------------------------------
Ab------------------------------------------------------------------
Eb------------------------------------------------------------------


Eb|--9-9-9----9-|--------------------------------------------------
Bb|----9-9-12---|-12p11--------------------------------------------
Gb|-------------|-------13p12-13p12----12h13-14-13-12--------------
Db|-------------|-------------------14----------------15-14-12-----
Ab|-------------|----------------------------------------------14--
Eb|-------------|--------------------------------------------------


Eb|-----------------12-------------r-----------|----------12----12-
Bb|-10--------r--12----15--17b19----/-18b22----|--15b17------15----
Gb|----12b14---/-------------------------------|-------------------
Db|--------------------------------------------|-------------------
Ab|--------------------------------------------|-------------------
Eb|--------------------------------------------|-------------------


Eb-------------------------------------------------------------------
Bb-15-14-12----14-12-----------r----12--------r---17b19--15----------
Gb----------15-------15-14b15---h15----14b15---12-----------16-15-14-
Db-------------------------------------------------------------------
Ab-------------------------------------------------------------------
Eb-------------------------------------------------------------------
                                                  *  A.H. on every note from here to end.


                                                           BRIDGE: GUITAR 1 (out of lead)

Eb------------------|-----------------------------------||---------
Bb------------------|-----------------------------------||---------
Gb------------------|-----------------------------------||---------
Db-16-15-14-13/-14~-|--\--------------------------------||---2-----
Ab------------------|-----------------------------------||---2-----
Eb------------------|-----------------------------------||---0-----


Eb|----------------------------|-----------------------------------
Bb|----------------------------|-----------------------------------
Gb|----------------------------|-----------------------------------
Db|----------------------------|--(2)------------------------------
Ab|----------------------------|--(2)------------------------------
Eb|----------------------------|--(0)------------------------------



                                       * Pick Slide SECTION A: BOTH GUITARS

Eb|---|-------------------|---------------------||------------------
Bb|---|-------------------|---------------------||*-----------------
Gb|---|---------|---------------------||---9---9---9-----\
Db|---|-------------------|--(2)----------------||---9---9---9-----\
Ab|---|-------------------|--(2)------\---------||*--7---7---7-----\
Eb|---|-------------------|--(0)------\---------||---0---0---0------



                                             SECTION B: BOTH GUITARS

Eb|---------------------------------------||-----------------------
Bb|--------------------------------------*||-----------------------
Gb|---------------------------------------||-----------------------
Db|---------------------------------------||-----------------------
Ab|-----x-------x-------x-------x--------*||---7-7-7-6-6-6-5-5-5-4-
Eb|-----x-x-x-x-x-x-x-x-x-x-x-x-x-x-x-x---||-----------------------
        * Upward Shimmering Harmonics 4x

Eb|---------------------------------------------|------------------
Bb|---------------------------------------------|------------------
Gb|---------------------------------------------|------------------
Db|---------------------------------------------|-2----------------
Ab|-4-4-3-3-2-2---------------------------------|-2----------------
Eb|-------------6-6-6-5-5-5-4-4-4-3-3-3-2-2-1-1-|-0----------------


Eb---------------------|-------------------------------------------
Bb---------------------|-------------------------------------------
Gb---------------------|-------------------------------------------
Db-(2)-----------------|-------------------------------------------
Ab-(2)-----------------|---7-7-7-6-6-6-5-5-5-4-4-4-3-3-2-2---------
Eb-(0)-----------------|-----------------------------------6-6-6-5-


Eb|-------------------------||--------------------------------------
Bb|-------------------------||*-------------------------------------
Gb|-------------------------||--------------------------------------
Db|-------------------------||--------------------------------------
Ab|-------------------------||*---7-7-7-7-7-7-7-7-7-7-7-7-7-7-7-7-7-
Eb|-5-5-4-4-4-3-3-3-2-2-1-1-||--0-----------------------------------
                                "You keep saying you've got something for me..."

Eb|----------------------------||----------------------------------
Bb|---------------------------*||----------------------------------
Gb|-----------7-9h7---7~--9\---||----------------------------------
Db|-----------7-9h7---7~--9\---||----------------------------------
Ab|-7-7-7-7-9-------9---------*||--0-0-0-0-0-0-0-0-0-0-0-0-0-0-0-0-
Eb|----------------------------||----------------------------------
                            4x     "You,ve been kissing when you ought-a-be-a screwing..."

Eb|-------------------------------|---------------------------------
Bb|-------------------------------|---------------------------------
Gb|-----------------2h0---0~------|---------------------------------
Db|---------------0-2h0---0~--2\--|---------------------------------
Ab|-0-0-0-0-0-0-2-------2-----2\--|-7-7-7-7-7-7-7-7-7-7-7-7-7-7-7-7-
Eb|-------------------------------|---------------------------------
                                4x  "And now someone else can kiss your ass..."


                                    CHORUS: BOTH GUITARS

Eb|-------------------------------|---------------------------------
Bb|-------------------------------|---------------------------------
Gb|---------------7-9h7---7~--9\--|------0--------------------------
Db|---------------7-9h7---7~--9\--|------0--------------------------
Ab|-7-7-7-7-7-7-9-------9---------|------x---------2----------------
Eb|-------------------------------|---3--3-3-2-1-0-0--0-0-0-0-0-0-0-


Eb|----------------0-----0------|----------------------------------
Bb|----------------0-----0------|----------------------------------
Gb|----0---------------x--------|-----0----------------------------
Db|----0---------------x--------|-----0--------2-------------------
Ab|----x---------2--------------|-----x--------2-------------------
Eb|-3--3-3-2-1-0-0----------0-2-|--3--3--3-2-1-0-------------------
    "And that's just what I'll do..." "One of these days these boots are gonna walk all over you"


           LEAD 2: GUITAR 2

Eb-------|------------------12----------------12-----------------12-
Bb-------|--15b17--------------15b17-------------15p12--------12----
Gb-------|---------------------------------------------14b15--------
Db-------|----------------------------------------------------------
Ab-------|----------------------------------------------------------
Eb-------|----------------------------------------------------------


Eb-------------------|-------------------------------------------------
Bb-15p12----12-------|-r---------------r-------------------------------
Gb-------14----14b15-|---12--14b16-------12----------------------------
Db-------------------|--------x-------------14-12---------------r------
Ab-------------------|----------------------------14-12-11b12-----(11)-
Eb-------------------|-------------------------------------------------


Eb----------------|------------------------------------------------
Bb----------------|-14-13-14-14-13-12--14--12----------------------
Gb----------------|----------------------------15--13--12--13--12--
Db----------------|------------------------------------------------
Ab-----\----------|------------------------------------------------
Eb----------------|------------------------------------------------


Eb----------------------------|--------------------------------------
Bb----------------------------|--------------------------------------
Gb-----12--13--14--13--12-----|--------------------------------------
Db-14----------------------14-|-14-12-15--14--12---------------------
Ab----------------------------|-------------------15--14--12---------
Eb----------------------------|-------------------------------15--14-



                                   LEAD 3: GUITAR 2

Eb------------------------------||----------10-------------------------
Bb------------------------------||-10h12-13----13-12-10----10----------
Gb------------------------------||----------------------12----12-11b12-
Db------------------------------||-------------------------------------
Ab------------------------r-----||-------------------------------------
Eb--12\-10/-12----\-5b6-----3b--||-------------------------------------


Eb--------------------------------------------------------------|----
Bb---------10---------------------------------------------------|----
Gb--11b12-----12-11-9----------------------------9------------9-|-10-
Db--------------------12-10-9------------9-10-12---12-10-9-12---|----
Ab----------------------------12-10-9-12------------------------|----
Eb--------------------------------------------------------------|----



                                                                 LEAD 4: GUITAR 2

Eb-------------10--------------------------r-------12b14----r-||-------
Bb----10-11-12----15b17----------------------(15)-------------||-13b15-
Gb-12---------------------------------------------------------||-------
Db------------------------------------------------------------||-------
Ab------------------------------------------------------------||-------
Eb------------------------------------------------------------||-------


Eb--------------------------------r----12----------------------|----
Bb-----------------15b17------15----15----15-14-12-------------|----
Gb-------------------------------------------------15-14-12----|----
Db----------------------------------------------------------15-|-14-
Ab-------------------------------------------------------------|----
Eb--------0----------------------------------------------------|----
                   *  Swift bar return to zero at this note.

Eb-------------------------------------------------------------------
Bb-------------------------------------------------------------------
Gb-------------------------------------------------------------------
Db-12----------------------------------------------------------------
Ab----15-14-12------------r------------r-----------------------------
Eb--------------15b16--------/-10b12-----12--12--12h13-12~--13p12-13p


Eb------|----------------------------------------------------------
Bb------|----------------------------------------------------------
Gb------|-12-12b14----12-13-12----12-13-14-13-12-------------------
Db------|----------------------14----------------15-14-12-15-14-12-
Ab------|----------------------------------------------------------
Eb--12~-|----------------------------------------------------------


Eb-------------------------------------------|---------------------
Bb-------------------------------------------|-----------------r---
Gb-------------------------------------------|-------12-11b12---12-
Db-------------------------------------12-14-|-12------------------
Ab-15-14-12-15-14-12----------12-14-15-------|----14---------------
Eb-------------------15-14-15----------------|---------------------


Eb----10---------r--10------r--10-----r10-----r10-----r------------
Bb-------13b15------13b15------13b15---13b15---13b15------15-------
Gb-14-----------------------------------------------------14b16----
Db-----------------------------------------------------------------
Ab-----------------------------------------------------------------
Eb-----------------------------------------------------------------


Eb---|--------------------------------------------------------------
Bb---|-15--------12h15--------12h15--------12h15--------12-------12~
Gb---|----14b16--------14b16--------14b16--------14b16-----14-15----
Db---|--------------------------------------------------------------
Ab---|--------------------------------------------------------------
Eb---|--------------------------------------------------------------


Eb------------12--------------------------|------------------------
Bb---15-12-15----16-15-12-----------------|------------------------
Gb-------------------------------16-15-14-|-12-15-14-12-11b12------
Db-------------------------13-12----------|------------------------
Ab----------------------------------------|------------------------
Eb----------------------------------------|------------------------


Eb-------------------------------------------------------------------
Bb-------------------------------------------------------------------
Gb--14-12-11---------------------------------12----------------14-12-
Db-----------14-12----12-14~--14-12----12-14----14-12----12-14-------
Ab-----------------14---------------14----------------14-------------
Eb-------------------------------------------------------------------


Eb-|-----------------------------------------------------------------
Bb-|-----------------------------------------------------------------
Gb-|----------------12-14----------------12-----------------12-14b16-
Db-|-14-12----12-14-------14-12----12-14----14-12----12/-14----------
Ab-|-------14-------------------14----------------14-----------------
Eb-|-----------------------------------------------------------------


Eb-----15------------------------|--12--------------------15b17----
Bb--12---------------------------|------15b17------17--------------
Gb----------------12h14-14b16----|---------------------------------
Db---------12--------------------|---------------------------------
Ab------------14-----------------|---------------------------------
Eb-------------------------------|---------------------------------



                     LEAD 4 RHYTHM: GUITAR 1

Eb----r------------|-||--------------------------------------------
Bb-----------------|-||*-------------------------------------------
Gb-----------------|-||--------------------------------------------
Db-----------------|-||--------------------------------------------
Ab-----------------|-||*-7~--------5-6-7~-------5-6-7~-------5-6-7~
Eb-----------------|-||------0---7---------0--7---------0--7-------


Eb|------------|----------------------------------------------------
Bb|------------|----------------------------------------------------
Gb|------------|----------------------------------------------------
Db|------------|----------------------------------------------------
Ab|--------5-6-|-7~--------5-6-7~-------5-6-7~-------5-6-7~-------5-
Eb|---0--7-----|-----0---7---------0--7---------0--7---------0--7---
                                                                  4x


          END: GUITAR 1

Eb|----||-------------------------------------------------------|---
Bb|---*||-------------------------------------------------------|---
Gb|----||-------------------------------------------------------|---
Db|----||-------------------------------------------------------|---
Ab|-6-*||--7~--------5-6-7~-------5-6-7~-------5-6-7~-------5-6-|-7~
Eb|----||------0---7---------0--7---------0--7---------0--7-----|---


Eb|----------------------------------------------------|------------
Bb|----------------------------------------------------|------------
Gb|----------------------------------------------------|------------
Db|----------------------------------------------------|------------
Ab|---------5-6-7~-------5-6-7~-------5-6-7~-------5-6-|--7~--------
Eb|---0---7---------0--7---------0--7---------0--7-----|------0---7-
                                                   4x

Eb|--------------------------------------------|-------------------
Bb|--------------------------------------------|-------------------
Gb|--------------------------------------------|-------------------
Db|--------------------------------------------|-------------------
Ab|-5-6-7~-------5-6-7~-------5-6-7~-------5-6-|-7~--------5-6-7~--
Eb|---------0--7---------0--7---------0--7-----|-----0---7---------



                                     END: GUITAR 2

Eb|--------------------0----------*|-------------------------------
Bb|--------------------0----------*|-------------------------------
Gb|----------9---------1----------*|-------------------------------
Db|----------9----9----2--/----\--*|-------------------------4-5-6~
Ab|------5-6-7----9----2--/----\--*|--7~--------5-6-7~-----7-------
Eb|-0--7-----0----7----0--/----\--*|------7---7---------7----------
                  "And you think I'm kidding don't ya...?!"

Eb|-------------------------|---------------------------------------
Bb|-------------------------|---------------------------------------
Gb|-------------------------|------------------------7-8-9~-------7-
Db|--------4-5-6~-----6-7-8-|-9~--6---6-7-8-9~--6--9---------9--9---
Ab|---7--7---------7--------|---------------------------------------
Eb|-------------------------|---------------------------------------


Eb|------------------|---------------------------------------------
Bb|------------------|---------------------------9-10-11-12~--9--9-
Gb|-8-9~-----9-11-12-|--13~--9---9-11-12-13~--9--------------------
Db|-------9----------|---------------------------------------------
Ab|------------------|---------------------------------------------
Eb|------------------|---------------------------------------------
               4x

Eb|------------------------|-12~----------------12~------12-14-15-15b17-
Bb|-10-11-12~--9--12-15-16-|------12---12-15-16------12-----------------
Gb|------------------------|--------------------------------------------
Db|------------------------|--------------------------------------------
Ab|------------------------|--------------------------------------------
Eb|------------------------|--------------------------------------------


Eb|----12~----12-----------*|-
Bb|-----------15b17--------*|-
Gb|------------------------*|-
Db|------------------------*|-
Ab|------------------------*|-
Eb|------------------r-----*|-



Full Lyrics :

(Solo: Poland)

You keep saying you got something for me
Something you call love, but I call sex
You've been kissing when you ought-a-be-a
Screwing and now someone else can
Kiss your ass
These boots are made for walking
Thats just what they'll do
And one of these days these boots
Are gonna walk all over you

(Solo: Poland)

You keep lieing and there ain't no believing
And you keep same'n when you ought-a-be-a
Leaving
Now whats right is right but you ain't been
Right yet
These boots...

(Solo: Poland)

You've keep dressing ways you shouldn't
Be dressing
And you keep thinking that you'll never
Get burned ha!
I just found me a brand new box spring
Mattress
What you know bitch you got a lot to learn
These boots... are you ready boots

(Solo: Poland)

And you think I'm kidding, don't ya?!
comments
We did not receive enough feedback on this tab! Please rate:
print report bad tab
1 2 3 4 5
I want to post or [tab]
guest
You may want to rate the tab now too:
select rating
Please do not post tabs as comments. Select "correction" instead!