Oops, an error
Loading. Please wait.

Truth Be Told Tab

ver2
ver2

Whole song

More versions @911Tabs.com
146 views 1 this week
no commentswrite comment
1 2 3 4 5
please rate
Autoscroll
+/-
esc
set tempo
stop
Contributor
WARNING: You are trying to view
                                    content from Ultimate-Guitar.com
                                    in an unauthorized application,
                                    which is prohibited.

                                    Please use an official Ultimate
                                    Guitar Tabs application for iPhone,
                                    iPad or Android to access legitimate
                                    chords, guitar, bass, and drum tabs
                                    from Ultimate-Guitar.com database.

                                    Type "ultimate guitar tabs" in Apple
                                    App Store's or Android Market's
                                    search to find the application.
#----------------------------------PLEASE NOTE---------------------------------#
#This file is the author's own work and represents their interpretation of the #
#song. You may only use this file for private study, scholarship, or research. #
#------------------------------------------------------------------------------#

TRUTH BE TOLD
As recorded by Megadeth
(From the 2004 Album THE SYSTEM HAS FAILED)

Transcribed by livingzombie, Abysslord (http://www.abysslord.com/)
        

Words and Music by Dave Mustaine

Gtr I (E A D G B E) - 'Dave Mustaine Rhythm'
Gtr II (E A D G B E) - 'Dave Mustaine Solo 1'
Gtr III (E A D G B E) - 'Acoustic 1'
Gtr IV (E A D G B E) - 'Acoustic 2'
Gtr V (E A D G B E) - 'Dave Mustaine Solo 2'

 Intro
  Q.=79
  A5        N.C.                F5        E5        D5        C5        G/B
 6/8
  Gtr I
  H.        H.        H.        H.        H.        H.        H.        H.
|---------|---------|---------|---------|---------|---------|---------|-------|
|---------|---------|---------|---------|---------|---------|---------|-------|
|---------|---------|---------|---------|---------|---------|---------|-------|
|-2-------|---------|---------|---------|-9-------|-7-------|-5-------|-5-----|
|-0-------|---------|---------|-3-------|-7-------|-5-------|-3-------|-2-----|
|---------|-3-------|-2-------|-1-------|---------|---------|---------|-------|


  A5        G/B       C5        G5   F#5
  H.        H.        H.        H    Q
|---------|---------|---------|---------|
|---------|---------|---------|---------|
|---------|---------|---------|---------|
|-2-------|-5-------|-5-------|---------|
|-0-------|-2-------|-3-------|-5----4--|
|---------|---------|---------|-3----2--|


  F5
  H.        H.        H.        +H.
|---------|---------|---------|--------||
|---------|---------|---------|--------||
|---------|---------|---------|--------||
|---------|---------|---------|--------||
|-3-------|-3-------|-3-------|-(3)----||
|-1-------|-1-------|-1-------|-(1)----||


 Verse
  Q=120
  N.C.
 3/4
  Gtrs I, III
  E  E E E E E   E  E E E E E   E  E E E E E   E  E E E E E   E E E E S S E
|--------------|--------------|--------------|--------------|----------------|
|--------------|--------------|--------------|------3-------|----------------|
|------2---4-5-|------2---4-5-|------2---4-5-|----2---2-5-2-|-4---2----------|
|----2---2-----|----2---2-----|----2---2-----|-0------------|---3---2-3p2----|
|-0------------|-2------------|-3------------|--------------|-------------3--|
|--------------|--------------|--------------|--------------|----------------|
|
| Gtr IV
| H.             H.             H.             H.             E E E E E   E
|--------------|--------------|--------------|--------------|-1-3-1-0--------|
|--------------|--------------|--------------|--------------|---------3---1--|
|--------------|--------------|--------------|--------------|----------------|
|--------------|--------------|--------------|--------------|----------------|
|--------------|--------------|--------------|--------------|----------------|
|--------------|--------------|--------------|--------------|----------------|


  E  E E E E E   E  E E E E E   E  E E E E E   E  E E E E E   E  E E E S S E
|--------------|--------------|--------------|--------------|----------------|
|--------------|--------------|--------------|------3-------|----------------|
|------2---4-5-|------2---4-5-|------2---4-5-|----2---2-5-2-|-4----2---------|
|----2---2-----|----2---2-----|----2---2-----|-0------------|----3---2-3p2---|
|-0------------|-2------------|-3------------|--------------|--------------3-|
|--------------|--------------|--------------|--------------|----------------|
|
| H.             H.             H.             H.             H.
|--------------|--------------|--------------|--------------|----------------|
|--------------|--------------|--------------|--------------|----------------|
|-2------------|--------------|--------------|--------------|----------------|
|--------------|--------------|--------------|--------------|----------------|
|--------------|--------------|--------------|--------------|----------------|
|--------------|--------------|--------------|--------------|----------------|


  Gtrs I, III
  E  E E E E E   E  E E E E E   E  E E E E E   E  E E E E E   E  E E E S S E
|--------------|--------------|--------------|--------------|----------------|
|--------------|--------------|--------------|------3-------|----------------|
|------2---4-5-|------2---4-5-|------2---4-5-|----2---2-5-2-|-4----2---------|
|----2---2-----|----2---2-----|----2---2-----|-0------------|----3---2-3p2---|
|-0------------|-2------------|-3------------|--------------|--------------3-|
|--------------|--------------|--------------|--------------|----------------|
|
| Gtr IV
| H.             H.             H.             H.             Q.     E S S E
|--------------|--------------|--------------|--------------|----------------|
|--------------|--------------|--------------|--------------|----------------|
|--------------|--------------|--------------|--------------|----------------|
|--------------|--------------|--------------|--------------|--------2-3p2---|
|--------------|--------------|--------------|--------------|--------------3-|
|--------------|--------------|--------------|--------------|----------------|


  E  E E E E E   E  E E E E E   E  E E E E E   E  E E E E E   E  E E E S S E
|--------------|--------------|--------------|--------------|----------------|
|--------------|--------------|--------------|------3-------|----------------|
|------2---4-5-|------2---4-5-|------2---4-5-|----2---2-5-2-|-4----2---------|
|----2---2-----|----2---2-----|----2---2-----|-0------------|----3---2-3p2---|
|-0------------|-2------------|-3------------|--------------|--------------3-|
|--------------|--------------|--------------|--------------|----------------|
|
| H.             H.             H.             H.             H.
|--------------|--------------|--------------|--------------|----------------|
|--------------|--------------|--------------|--------------|----------------|
|-2------------|--------------|--------------|--------------|----------------|
|--------------|--------------|--------------|--------------|----------------|
|--------------|--------------|--------------|--------------|----------------|
|--------------|--------------|--------------|--------------|----------------|


  E5             C5      G#5   G5      F#5   F5
  Gtr I
  PM---------|
  E  E E E E E   E E E E E E   E E E E E E   E  E E E E E
|--------------|-------------|-------------|---------------||
|--------------|-------------|-------------|---------------||
|--------------|-------------|-------------|---------------||
|--------------|-5-5-5-5-----|-------------|---------------||
|-2--2-2-2-2-2-|-3-3-3-3-6-6-|-5-5-5-5-4-4-|-3--3-3-3-3-3--||
|-0--0-0-0-0-0-|---------4-4-|-3-3-3-3-2-2-|-1--1-1-1-1-1--||
|
| Gtr II
| H.             H.            H.            H.
|--------------|-------------|-------------|---------------||
|--------------|-6s==========|=2s==========|=8/------------||
|--------------|-------------|-------------|---------------||
|--------------|-------------|-------------|---------------||
|--------------|-------------|-------------|---------------||
|--------------|-------------|-------------|---------------||


   Chorus
    Q=109
    F5E5        G5E5          A5E5        BbE5  A5Bb5
   4/4
    Gtr I
              PM          PM            PM    PM
    E E S S S S E E S S S S   E E S S S S E E S S E  4x
||--------------------------|------------------------||
||o-------------------------|-----------------------o||
||--------------------------|------------------------||
||--------------------------|------------------------||
||o-3-2-x-x-----5-2-x-x-----|-7-2-x-x-----8-2---7-8-o||
||--1-0-x-x---0-3-0-x-x---0-|-5-0-x-x---0-6-0-0-5-6--||


  F5  G5  A5  BbF5        G5  A5  BbF5        G5  A5  Bb5   F5
    PM  PM  PM          PM  PM  PM          PM  PM  PM  PM
  E E E E E E E E   +E  E E E E E E E   +E  E E E E E E E   W
|-----------------|-------------------|-------------------|------||
|-----------------|-------------------|-------------------|------||
|-----------------|-------------------|-------------------|------||
|-----------------|-------------------|-------------------|------||
|-3---5---7---8-3-|-(3)---5---7---8-3-|-(3)---5---7---8---|-3----||
|-1-0-3-0-5-0-6-1-|-(1)-0-3-0-5-0-6-1-|-(1)-0-3-0-5-0-6-1-|-1----||


 Verse
  Q=120
  N.C.
 3/4
  Gtrs I, III
  E E E E E E   E E E E E E   E E E E E E   E E E E E E   E E E E S S E
|-------------|-------------|-------------|-------------|----------------|
|-------------|-------------|-------------|-----3-------|----------------|
|-----2---4-5-|-----2---4-5-|-----2---4-5-|---2---2-5-2-|-4---2----------|
|---2---2-----|---2---2-----|---2---2-----|-0-----------|---3---2-3p2----|
|-0-----------|-2-----------|-3-----------|-------------|-------------3--|
|-------------|-------------|-------------|-------------|----------------|


  E  E  E  E  E  E    E E E E  E  E
|------------------|----------------|
|------------------|----------------|
|-------2-----4--5-|------2----4--5-|
|----2-----2-------|----2---2-------|
|-0----------------|--2-------------|
|------------------|----------------|
|
| Gtr IV
| E  E  E  E  E  E    H        E  E
|------------------|----------------|
|------------12-13-|-12-------12-13-|
|------12-14-------|----------------|
|---14-------------|----------------|
|------------------|----------------|
|------------------|----------------|


   E  E E E E E   E  E E E E E   E E  E  E  S S  E
|---------------|--------------|-------------------|
|---------------|------3-------|-------------------|
|-------2---4-5-|----2---2-5-2-|-4----2------------|
|-----2---2-----|-0------------|---3-----2--3p2----|
|--3------------|--------------|-----------------3-|
|---------------|--------------|-------------------|
|
|  H.             H.             Q    E  E  E    E
|-15------------|--------------|-------------------|
|---------------|--------------|-------------------|
|---------------|--------------|----------------12-|
|---------------|--------------|-----12-14-15------|
|---------------|--------------|-------------------|
|---------------|--------------|-------------------|


   E  E E E E E   E  E E E E E   E  E E E E E   E  E E E E E   E  E E E S S E
|---------------|--------------|--------------|--------------|----------------|
|---------------|--------------|--------------|------3-------|----------------|
|-------2---4-5-|------2---4-5-|------2---4-5-|----2---2-5-2-|-4----2---------|
|-----2---2-----|----2---2-----|----2---2-----|-0------------|----3---2-3p2---|
|--0------------|-2------------|-3------------|--------------|--------------3-|
|---------------|--------------|--------------|--------------|----------------|
|
|  H.             H.             H.             H.             H.
|---------------|--------------|--------------|--------------|----------------|
|---------------|--------------|--------------|--------------|----------------|
|---------------|--------------|--------------|--------------|----------------|
|-14------------|--------------|--------------|--------------|----------------|
|---------------|--------------|--------------|--------------|----------------|
|---------------|--------------|--------------|--------------|----------------|


   E  E     E  E  E   E    E E E E E E
|-----------------------|--------------|
|-----------------------|--------------|
|-----------2-----4---5-|------2---4-5-|
|-----2--------2--------|----2---2-----|
|--0--------------------|--2-----------|
|-----------------------|--------------|
|
|  E.    E.    E  E   E    E E H
|-10----10-----8--7-^-8-|--7-----------|
|-10----10----10-10-^10-|-10-----------|
|-----------------------|--------------|
|-----------------------|--------------|
|-----------------------|--------------|
|-----------------------|--------------|


  E  E E E E E   E  E E E E E   E  E E E S S E
|--------------|--------------|-----------------|
|--------------|------3-------|-----------------|
|------2---4-5-|----2---2-5-2-|-4----2----------|
|----2---2-----|-0------------|----3---2-3p2----|
|-3------------|--------------|--------------3--|
|--------------|--------------|-----------------|
|
| H.             H.             H.
|--------------|--------------|-----------------|
|--------------|--------------|-----------------|
|--------------|--------------|-----------------|
|--------------|--------------|-----------------|
|--------------|--------------|-----------------|
|--------------|--------------|-----------------|


  E5             C5      G#5   G5      F#5   F5
  Gtr I
  PM---------|
  E  E E E E E   E E E E E E   E E E E E E   E  E E E E E
|--------------|-------------|-------------|---------------||
|--------------|-------------|-------------|---------------||
|--------------|-------------|-------------|---------------||
|--------------|-5-5-5-5-----|-------------|---------------||
|-2--2-2-2-2-2-|-3-3-3-3-6-6-|-5-5-5-5-4-4-|-3--3-3-3-3-3--||
|-0--0-0-0-0-0-|---------4-4-|-3-3-3-3-2-2-|-1--1-1-1-1-1--||
|
| Gtr II
| H.             H.            H.            H.
|--------------|-------------|-------------|---------------||
|--------------|-6s==========|=2s==========|=8/------------||
|--------------|-------------|-------------|---------------||
|--------------|-------------|-------------|---------------||
|--------------|-------------|-------------|---------------||
|--------------|-------------|-------------|---------------||


   Chorus
    Q=109
    F5E5        G5E5          A5E5        BbE5  A5Bb5
   4/4
              PM          PM            PM    PM
    E E S S S S E E S S S S   E E S S S S E E S S E  8x
||--------------------------|------------------------||
||o-------------------------|-----------------------o||
||--------------------------|------------------------||
||--------------------------|------------------------||
||o-3-2-x-x-----5-2-x-x-----|-7-2-x-x-----8-2---7-8-o||
||--1-0-x-x---0-3-0-x-x---0-|-5-0-x-x---0-6-0-0-5-6--||


  F5  G5  A5  BbF5        G5  A5  BbF5        G5  A5  Bb5
    PM  PM  PM          PM  PM  PM          PM  PM  PM
  E E E E E E E E   +E  E E E E E E E   +E  E E E E E Q
|-----------------|-------------------|------------------||
|-----------------|-------------------|------------------||
|-----------------|-------------------|------------------||
|-----------------|-------------------|------------------||
|-3---5---7---8-3-|-(3)---5---7---8-3-|-(3)---5---7---8--||
|-1-0-3-0-5-0-6-1-|-(1)-0-3-0-5-0-6-1-|-(1)-0-3-0-5-0-6--||


 Solo (Mustaine)
  Q=120
  E5      N.CE5       E5     E5           E5    N.CE5N.C.
  Gtr I
   Q       E E +E   E E  E     Q        E E +E   E E  E
|--------------------------|----------------------------|
|--------------------------|----------------------------|
|--------------------------|----------------------------|
|--------------------------|----------------------------|
|--2---------2-(2)----2----|---2----------2-(2)----2----|
|--0------/3-0-(0)-/5-0-/3-|---0-------/3-0-(0)-/5-0-/6-|
|
| Gtr II
|  \1__________________________/
|  W                          +W
|-12tr17-------------------|-(12tr17)-------------------|
|--------------------------|----------------------------|
|--------------------------|----------------------------|
|--------------------------|----------------------------|
|--------------------------|----------------------------|
|--------------------------|----------------------------|


  E5             N.C.  E5              N.C.  E5    N.C.
   Q              E     E    +E         E     E      E
|----------------------------------------------------------|
|----------------------------------------------------------|
|----------------------------------------------------------|
|----------------------------------------------------------|
|--2--------------------2----(2)--------------2------------|
|--0-------------/3-----0----(0)-------/5-----0-----/3-----|
|
|  E     S  E        S  E     S   E        S  E     +E
|-------12----------12-------12-----------12---------------|
|-15b17----15b17-------15b17-----15b17-------15b17r(15)b17r|
|----------------------------------------------------------|
|----------------------------------------------------------|
|----------------------------------------------------------|
|----------------------------------------------------------|


  E5                N.C.     E5                N.C.     E5  N.C.
   Q                 E        E       +E        E        E   E
|--------------------------------------------------------------|
|--------------------------------------------------------------|
|--------------------------------------------------------------|
|--------------------------------------------------------------|
|--2--------------------------2-------(2)----------------2-----|
|--0----------------/3--------0-------(0)------/5--------0--/6-|
|
|  |------6-------|  |------6-------|  |------6-------|
|  S  S  S  S  S  S  S  S  S  S  S  S  S  S  S  S  S  S  Q
|-12h15p12----12h15p12----12h17p12----12h15p12----12h17p12\----|
|----------15----------15----------15----------15--------------|
|--------------------------------------------------------------|
|--------------------------------------------------------------|
|--------------------------------------------------------------|
|--------------------------------------------------------------|


  E5      N.C. E5        N.C.  E5    N.C.
  Q        E   E   +E     E     E     E
|------------------------------------------|
|------------------------------------------|
|------------------------------------------|
|------------------------------------------|
|-2------------2---(2)----------2----------|
|-0-------/3---0---(0)---/5-----0----/3----|
|
| S S S S  S S S S  S  S  S  S  S  S  S  S
|------------------------------------------|
|------------------------------------------|
|-9-9-9-9--9-9-9-9--9s10-10-10-10-10-10-10-|
|------------------------------------------|
|-7-7-7-7--7-7-7-7--7s=8--8--8--8--8--8--8-|
|------------------------------------------|


  E5          N.C.  E5          N.C.  E5    N.C.
   Q           E     E    +E     E     E     E
|--------------------------------------------------|
|--------------------------------------------------|
|--------------------------------------------------|
|--------------------------------------------------|
|--2-----------------2----(2)----------2-----------|
|--0----------/3-----0----(0)---/5-----0----/6-----|
|
|  S  S  S  S  S  S  S  S  S  S  S  S  S  S  S  S
|--------------------------------------------------|
|--------------------------------------------------|
|-10s11-11-11-11-11-11-11-11s12-12-12-12-12-12-12s=|
|--------------------------------------------------|
|--8s=9--9--9--9--9--9--9--9s10-10-10-10-10-10-10s=|
|--------------------------------------------------|


  E5 N.CE5    N.CE5N.C. E5   N.CE5    N.CE5N.C.
  Q   E E +E   E E  E    Q    E E +E   E E  E
|---------------------|-----------------------||
|---------------------|-----------------------||
|---------------------|-----------------------||
|---------------------|-----------------------||
|-2-----2-(2)----2----|--2------2-(2)----2----||
|-0--/3-0-(0)-/5-0-/3-|--0---/3-0-(0)-/5-0-/6-||
|
|                        \2
| W                     +W
|---------------------|-----------------------||
|---------------------|-----------------------||
|-9-------------------|-(9)-------------------||
|---------------------|-----------------------||
|-7-------------------|-(7)-------------------||
|---------------------|-----------------------||


   Bridge
    N.C.
    Gtr I
        PM----| ~~~~~~PM--------------|
                      |-3-| |----6----|
    S S S S S S E +E  S S S S S S S S S
||--------------------------------------|
||o-------------------------------------|
||--------------------------------------|
||--------------------------------------|
||o-7h8---------------------------------|
||------0-8-7-0-6-(6)-0-0-0-0-0-0-0-0-0-|


 1.,2.,3.
      PM----| ~~~~~~PM--------------|
                    |-3-| |----6----|
  S S S S S S E +E  S S S S S S S S S   4x
|---------------------------------------||
|--------------------------------------o||
|---------------------------------------||
|---------------------------------------||
|-7h8----------------------------------o||
|-----0-8-7-0-6-(6)-0-0-0-0-0-0-0-0-0---||


  4.=H                          Q=60
                    Bb5
 7/8               4/4         2/4
      PM--------|
  |-3-|
  E E E E E E E E   H    H      H
|-----------------|-----------|------||
|-----------------|-----------|------||
|-----------------|-----------|------||
|-----------------|-----------|------||
|-7h8-------------|-8----8----|-8----||
|-----0-8-7-6-0-8-|-6----6----|-6----||


 Solo (Mustaine)
  Q=182
  N.C.
 4/4
  Gtr I
        PM---|                PM---|
   E    E     E    E     E    E     E    E
|---------------------------------------------|
|---------------------------------------------|
|---------------------------------------------|
|---------------------------------------------|
|---------------------------------------------|
|--3----0-----0----5----------0-----0----6----|
|
| Gtr II
|  |---3---|  |---3---|  |---3---|  |---3---|
|  E  E    E  E  E    E  E  E    E  E  E    E
|-19-19---19-17-17---17-20-20---20-19-19---19-|
|---------------------------------------------|
|---------------------------------------------|
|---------------------------------------------|
|---------------------------------------------|
|---------------------------------------------|


        PM-------------------------------|
   E    E     E    E     E    E     E    E
|----------------------------------------------|
|----------------------------------------------|
|----------------------------------------------|
|----------------------------------------------|
|----------------------------------------------|
|-------0-----0----0-----0----0-----0----0-----|
|
|  |---3---|  |---3---|  |---3---|  |---3---|
|  E  E    E  E  E    E  E  E    E  E  E    E
|-20p19p==17-19p17p==15-17p15------15----------|
|-------------------------------18----18p==17--|
|----------------------------------------------|
|----------------------------------------------|
|----------------------------------------------|
|----------------------------------------------|


        PM---|                PM---|
   E    E     E    E     E    E     E    E
|---------------------------------------------|
|---------------------------------------------|
|---------------------------------------------|
|---------------------------------------------|
|---------------------------------------------|
|--3----0-----0----5----------0-----0----6----|
|
|  |---3---|  |---3---|  |---3---|  |---3---|
|  E  E    E  E  E    E  E  E    E  E  E    E
|---------------------------------------------|
|-17-17---17-15-15---15-18-18---18-17-17---17-|
|---------------------------------------------|
|---------------------------------------------|
|---------------------------------------------|
|---------------------------------------------|


        PM-------------------------------|
   E    E     E    E     E    E     E    E
|---------------------------------------------|
|---------------------------------------------|
|---------------------------------------------|
|---------------------------------------------|
|---------------------------------------------|
|-------0-----0----0-----0----0-----0----0----|
|
|  |---3---|  |---3---|  |---3---|  |---3---|
|  E  E    E  E  E    E  E  E    E  E  E    E
|---------------------------------------------|
|-18p17p==15-17p15p==13-15p13------13---------|
|-------------------------------16----16p==14-|
|---------------------------------------------|
|---------------------------------------------|
|---------------------------------------------|


        PM---|                PM---|
   E    E     E    E     E    E     E    E
|---------------------------------------------|
|---------------------------------------------|
|---------------------------------------------|
|---------------------------------------------|
|---------------------------------------------|
|--3----0-----0----5----------0-----0----6----|
|
|  |---3---|  |---3---|  |---3---|  |---3---|
|  E  E    E  E  E    E  E  E    E  E  E    E
|---------------------------------------------|
|---------------------------------------------|
|-16-16---16-14-14---14-17-17---17-16-16---16-|
|---------------------------------------------|
|---------------------------------------------|
|---------------------------------------------|


        PM----------------------------|
   E    E     E    E     E    E     E  E
|-----------------------------------------|
|-----------------------------------------|
|-----------------------------------------|
|-----------------------------------------|
|-----------------------------------------|
|-------0-----0----0-----0----0-----0--0--|
|
|  |---3---|  |---3---|  |---3---|
|  E  E    E  E  E    E  E  E    E  E  E
|-----------------------------------------|
|-----------------------------------------|
|-17p16p==14-16p14p==12-14p12-------------|
|-------------------------------15-15p14--|
|-----------------------------------------|
|-----------------------------------------|


  Gtr I
        PM---|                PM---|
   E    E     E    E     E    E     E  E
|----------------------------------------|
|----------------------------------------|
|----------------------------------------|
|----------------------------------------|
|----------------------------------------|
|--3----0-----0----5----------0-----0--6-|
|
| Gtr II
|  |---3---|  |---3---|  |---3---|
|  E  E    E  E  E    E  E  E    E  E  E
|----------------------------------------|
|----------------------------------------|
|----------------------------------------|
|-15p14p==12-14p12------12---------------|
|--------------------15----15p==14-15-14-|
|----------------------------------------|
|
| Gtr V
|  W
|----------------------------------------|
|----------------------------------------|
|----------------------------------------|
|----------------------------------------|
|----------------------------------------|
|----------------------------------------|


        PM----------------------------|
   E    E     E    E     E    E     E  E
|----------------------------------------||
|----------------------------------------||
|----------------------------------------||
|----------------------------------------||
|----------------------------------------||
|-------0-----0----0-----0----0-----0--0-||
|
|  |---3---|  |---3---|  |---3---|
|  E  E    E  E  E    E  E  E    E  E  E
|----------------------------------------||
|----------------------------------------||
|----------------------------------------||
|----------------------------------------||
|-15p14p==12-14p12------12---------------||
|--------------------16----16p==13-16p12-||
|
|  H.                               E  E
|----------------------------------------||
|----------------------------------------||
|-------------------------------------14-||
|----------------------------------------||
|----------------------------------------||
|----------------------------------------||


  Gtr I
      PM|              PM---|                  PM------------------------|
   E  E  E     E  E    E     E    E       E    E     E  E     E  E     E  E
|--------------------------------------|------------------------------------|
|--------------------------------------|------------------------------------|
|--------------------------------------|------------------------------------|
|--------------------------------------|------------------------------------|
|--------------2------------------3----|------------------------------------|
|--5--2--2-------------2-----2---------|-------2-----2--2-----2--2-----2--2-|
|
| Gtr V
|                 |---3---|  |---3---|    |---3---|
|  E  E  S  S  E  E  E    E  E  E    E    E  E    E  E  S  S  E  S  E.    e
|----14--------------------------------|------------------14-------------14-|
|-------17-----------------------------|---------------------17-------------|
|-16-------17p16-17p16p==14-17p16p==14-|-17p16p==14-16-17-------14-16-------|
|--------------------------------------|------------------------------------|
|--------------------------------------|------------------------------------|
|--------------------------------------|------------------------------------|


              PM---|         PM---|           PM-------------------|
   E          E    E    E  E E    E    E    E E    E    E  E E  E  E
|----------------------------------------|---------------------------||
|----------------------------------------|---------------------------||
|----------------------------------------|---------------------------||
|----------------------------------------|---------------------------||
|-----------------------2--------------3-|---------------------------||
|--5----------2----2---------2----2------|----2----2----2--2-2--2--2-||
|
|  |--------3---------|    |----3----|      |----3----|
|  e      +E     q    q    q    q    q      q    q    q    q    Q
|-18b20==(18)r==18---18---18---18---18---|-18---18---18---18---18r---||
|----------------------------------------|---------------------------||
|----------------------------------------|---------------------------||
|----------------------------------------|---------------------------||
|----------------------------------------|---------------------------||
|----------------------------------------|---------------------------||


  Gtr I
        PM---|                PM---|
   E    E     E    E     E    E     E    E
|---------------------------------------------|
|---------------------------------------------|
|---------------------------------------------|
|---------------------------------------------|
|---------------------------------------------|
|--3----0-----0----5----------0-----0----6----|
|
| Gtr II
|  |---3---|  |---3---|  |---3---|  |---3---|
|  E  E    E  E  E    E  E  E    E  E  E    E
|---------------------------------------------|
|-15p12------16p12------17p12------16p12------|
|---------14---------14---------14---------14-|
|---------------------------------------------|
|---------------------------------------------|
|---------------------------------------------|


        PM-------------------------------|
   E    E     E    E     E    E     E    E
|---------------------------------------------|
|---------------------------------------------|
|---------------------------------------------|
|---------------------------------------------|
|---------------------------------------------|
|-------0-----0----0-----0----0-----0----0----|
|
|  |---3---|  |---3---|  |---3---|  |---3---|
|  E  E    E  E  E    E  E  E    E  E  E    E
|---------------------------------------------|
|-15p12------16p12------17p12------16p12------|
|---------14---------14---------14---------14-|
|---------------------------------------------|
|---------------------------------------------|
|---------------------------------------------|


        PM---|                PM---|
   E    E     E    E     E    E     E    E
|---------------------------------------------|
|---------------------------------------------|
|---------------------------------------------|
|---------------------------------------------|
|---------------------------------------------|
|--3----0-----0----5----------0-----0----6----|
|
|  |---3---|  |---3---|  |---3---|  |---3---|
|  E  E    E  E  E    E  E  E    E  E  E    E
|---------------------------------------------|
|-15p12------16p12------17p14------18p14------|
|---------14---------16---------17---------18-|
|---------------------------------------------|
|---------------------------------------------|
|---------------------------------------------|


        PM-------------------------------|
   E    E     E    E     E    E     E    E
|---------------------------------------------||
|---------------------------------------------||
|---------------------------------------------||
|---------------------------------------------||
|---------------------------------------------||
|-------0-----0----0-----0----0-----0----0----||
|
|  |---3---|  |---3---|  |---3---|  |---3---|
|  E  E    E  E  E    E  E  E    E  E  E    E
|---------------------------------------------||
|-19p15------20p16------21p16------21p16------||
|---------18---------19---------19---------19-||
|---------------------------------------------||
|---------------------------------------------||
|---------------------------------------------||


  Gtr I
        PM---|                PM---|
   E    E     E    E     E    E     E    E
|---------------------------------------------|
|---------------------------------------------|
|---------------------------------------------|
|---------------------------------------------|
|------------------2---------------------3----|
|--5----2-----2---------------2-----2---------|
|
| Gtr V
|  |---3---|  |---3---|  |---3---|  |---3---|
|  E  E    E  E  E    E  E  E    E  E  E    E
|-17-19p==14----------------------------------|
|------------17-19p==14----14h==17p14-19p==14-|
|-----------------------17--------------------|
|---------------------------------------------|
|---------------------------------------------|
|---------------------------------------------|


        PM-------------------------------|
   E    E     E    E     E    E     E    E
|---------------------------------------------|
|---------------------------------------------|
|---------------------------------------------|
|---------------------------------------------|
|---------------------------------------------|
|-------2-----2----2-----2----2-----2----2----|
|
|  |---3---|  |---3---|  |---3---|  |---3---|
|  E  E    E  E  E    E  E  E    E  E  E    E
|-17-19p==14----------------------------------|
|------------17-19p==14----14h==17p14-19p==14-|
|-----------------------17--------------------|
|---------------------------------------------|
|---------------------------------------------|
|---------------------------------------------|


  Gtr I
        PM---|                PM---|
   E    E     E    E     E    E     E    E
|---------------------------------------------|
|---------------------------------------------|
|---------------------------------------------|
|---------------------------------------------|
|------------------2---------------------3----|
|--5----2-----2---------------2-----2---------|
|
| Gtr V
|  |---3---|  |---3---|  |---3---|  |---3---|
|  E  E    E  E  E    E  E  E    E  E  E    E
|-17-19p==14----------------------------------|
|------------17-19p==14----14h==17p14-19p==14-|
|-----------------------17--------------------|
|---------------------------------------------|
|---------------------------------------------|
|---------------------------------------------|
|
| Gtr II
|  W
|---------------------------------------------|
|---------------------------------------------|
|---------------------------------------------|
|---------------------------------------------|
|---------------------------------------------|
|---------------------------------------------|


         PM-------------------------------|
   E     E     E    E     E    E     E     E
|-----------------------------------------------||
|-----------------------------------------------||
|-----------------------------------------------||
|-----------------------------------------------||
|-----------------------------------------------||
|--------2-----2----2-----2----2-----2-----2----||
|
|  |---3----|  |---3---|  |---3---|  |---3----|
|  E   E    E  E  E    E  E  E    E  E  E     E
|-17--19p==14-----------------------------------||
|-------------17-19p==14----14h==17p14-19p===14-||
|------------------------17---------------------||
|-----------------------------------------------||
|-----------------------------------------------||
|-----------------------------------------------||
|
|  H.                                E     E
|-----------------------------------------------||
|-----------------------------------------------||
|-----------------------------------------12----||
|-----------------------------------------------||
|-----------------------------------------------||
|-----------------------------------------------||


  Gtr I
      PM|              PM---|
   E  E  E     E  E    E     E    E
|--------------------------------------|
|--------------------------------------|
|--------------------------------------|
|--------------------------------------|
|--------------------------------------|
|--3--0--0-----5-------0-----0----6----|
|
| Gtr II
|                 |---3---|  |---3---|
|  E  E  S  S  E  E  E    E  E  E    E
|---------------------------15p12------|
|-12-17p15p12----17p12-----------------|
|-------------12---------12---------12-|
|--------------------------------------|
|--------------------------------------|
|--------------------------------------|


        PM-------------------------------|
   E    E     E    E     E    E     E    E
|---------------------------------------------|
|---------------------------------------------|
|---------------------------------------------|
|---------------------------------------------|
|---------------------------------------------|
|-------0-----0----0-----0----0-----0----0----|
|
|  |---3---|  |---3---|  |---3---|  |---3---|
|  E  E    E  E  E    E  E  E    E  E  E    E
|-17p12------15p12----------------------------|
|-----------------------17p15p==12-15p12h==15-|
|---------12---------12-----------------------|
|---------------------------------------------|
|---------------------------------------------|
|---------------------------------------------|


         PM|        PM|          PM----------|
   E     E   E  E E E E E     E  E E E E E E E
|-------------------------|--------------------||
|-------------------------|--------------------||
|-------------------------|--------------------||
|-------------------------|--------------------||
|-------------------------|--------------------||
|--3-----0---0--5---0-0-6-|------0-0-0-0-0-0-0-||
|
|  TP        TP               TP
|  Q        +H.              +W
|-------------------------|--------------------||
|-15b17====(15)r==========|=(15)r==============||
|-------------------------|--------------------||
|-------------------------|--------------------||
|-------------------------|--------------------||
|-------------------------|--------------------||


 Solo (Mustaine)
  Q.=79
  E5                     D5
 6/8
   H.                     H.
|----------------------|------------------------|
|----------------------|------------------------|
|----------------------|------------------------|
|--9-------------------|--7---------------------|
|--7-------------------|--5---------------------|
|----------------------|------------------------|
|
|  ~~~~~~~~~~~
|              |--3--|                  |--3--|
|  H      +E   S  S  S    E     +H      S  S  S
|----------------------|------------------------|
|----------------------|------------------------|
|-12-----(12)----12h14-|-14b16-(14)-------12h14-|
|-------------14-------|---------------14-------|
|----------------------|------------------------|
|----------------------|------------------------|


  C5                              G/B
   H.                              H.
|-------------------------------|------------------------------|
|-------------------------------|------------------------------|
|-------------------------------|------------------------------|
|--5----------------------------|--5---------------------------|
|--3----------------------------|--2---------------------------|
|-------------------------------|------------------------------|
|
|                                      ~~~~~~~
|  e      e  e  S  S  E  +S   S    S   S  +Q    S. T  S.  T  E
|-------------------------------|------------------------12----|
|-------------------------------|--------------------12-----15-|
|-14b16==14-14-14-14-14r(14)p12-|-14--14-(14)--12h14-----------|
|-------------------------------|------------------------------|
|-------------------------------|------------------------------|
|-------------------------------|------------------------------|


  A5                                   N.C.
   H.                                    H.
|------------------------------------|-----------------------|
|------------------------------------|-----------------------|
|------------------------------------|-----------------------|
|--2---------------------------------|-----------------------|
|--0---------------------------------|-----------------------|
|------------------------------------|---3-------------------|
|
|                    |---6----|
|  Q      +S   T  T  S  S  S  Q.        +H      +E   +S    S
|----------------------------17b19===|=(17)----(17)-(17)r-12-|
|-15b17--(15)-15p12----12h15---------|-----------------------|
|-------------------14---------------|-----------------------|
|------------------------------------|-----------------------|
|------------------------------------|-----------------------|
|------------------------------------|-----------------------|


                                            F5
   H.                                        H.
|-----------------------------------------|---------------------------------------------------|
|-----------------------------------------|---------------------------------------------------|
|-----------------------------------------|---------------------------------------------------|
|-----------------------------------------|---------------------------------------------------|
|-----------------------------------------|--3------------------------------------------------|
|--2--------------------------------------|--1------------------------------------------------|
|
|  |--3---|     |------6-------|  |--3--|    |-------6-------|  |------6-------|  |--3--|
|  e   e  E  E  S  S  S  S  S  S  S  S  S    S   S  S  S  S  S  S  S  S  S  S  S  S  S  S  E
|-17--15-12----12-------------------------|---------------------------------------------------|
|-----------15----17-17S15-12-15-15p12----|-----12--------------------------------------------|
|--------------------------------------15p|=12-----15p14p12-14p12p10-12----12----12p10--------|
|-----------------------------------------|-----------------------------14----14-------14-----|
|-----------------------------------------|---------------------------------------------------|
|-----------------------------------------|-----------------------------------------------12--|


  E5
   H.         +H.               +H.         +H.
|----------|-----------------|-----------|---------||
|----------|-----------------|-----------|---------||
|----------|-----------------|-----------|---------||
|----------|-----------------|-----------|---------||
|--2-------|--(2)------------|--(2)------|--(2)----||
|--0-------|--(0)------------|--(0)------|--(0)----||
|
|                     \4.5
|  H.         +Q.    +Q.        +H.         +H.
|----------|-----------------|-----------|---------||
|----------|-----------------|-----------|---------||
|----------|-----------------|-----------|---------||
|----------|-----------------|-----------|---------||
|-11-------|-(11)---(11)-----|-(11)------|-(11)----||
|----------|-----------------|-----------|---------||


   Verse/Outro
    Q=153
    N.C.
   4/4
    Gtr I
    PM--------------------------------------------------------------|
    S S S S S S S S S S S S S S S S   S S S S S S S S S S S S S S S S  3x
||----------------------------------|----------------------------------||
||o---------------------------------|---------------------------------o||
||----------------------------------|----------------------------------||
||----------------------------------|----------------------------------||
||o---------------------------------|---------------------------------o||
||--0-0-0-0-2-3-0-0-0-0-3-5-0-0-2-3-|-0-0-0-0-2-3-0-0-0-0-3-5-0-0-5-6--||


  Gtr I
  PM-----------------------------------------------------------------|
  S S S S S S S S S S S S S S S S   S S S S S S S S S S  S  S S  S S S
|---------------------------------|------------------------------------|
|---------------------------------|------------------------------------|
|---------------------------------|------------------------------------|
|---------------------------------|------------------------------------|
|---------------------------------|------------------------------------|
|-0-0-0-0-2-3-0-0-0-0-3-5-0-0-2-3-|-0-0-0-0-2-3-0-0-0-0--3--5-0--0-5-6-|
|
| Gtr II
| W                                 H               E    S  S S  S S S
|---------------------------------|------------------------------------|
|---------------------------------|---------------------11-10-8--------|
|---------------------------------|-----------------------------10-9-7-|
|---------------------------------|------------------------------------|
|---------------------------------|------------------------------------|
|---------------------------------|------------------------------------|


         PM-----|  ~   PM----------|        PM-----|  ~   PM----------|
    S  S S  S S  S Q   S  S S  S S S   S  S S  S S  S Q   S  S S  S S S
||-----------------------------------|-----------------------------------||
||o----------------------------------|----------------------------------o||
||-----------------------------------|-----------------------------------||
||-----------------------------------|-----------------------------------||
||o-7h=8-----------------------------|-7h=8-----------------------------o||
||-------0--8-7--0-6---0--0-0--0-0-0-|------0--8-7--0-6---0--0-0--0-0-0--||
|
|                  ~                                  ~
|   S  S S  e    S Q   S  S S  S S S   S  S S  e    S Q   S  S S  S S S
||-----------------------------------|-----------------------------------||
||o-------------------11-10-8--------|-------------------11-10-8--------o||
||--9h10p9--------------------10-9-7-|-9h10p9--------------------10-9-7--||
||---------10---10s8-----------------|--------10---10s8------------------||
||o----------------------------------|----------------------------------o||
||-----------------------------------|-----------------------------------||


  PM----------------------------------------------------------------|
  S  S S S S  S S S S S S S S S S S   S S S S S S S S S S S S S S S S
|-----------------------------------|---------------------------------|
|-----------------------------------|---------------------------------|
|-----------------------------------|---------------------------------|
|-----------------------------------|---------------------------------|
|-----------------------------------|---------------------------------|
|-0--0-0-0-2--3-0-0-0-0-3-5-0-0-2-3-|-0-0-0-0-2-3-0-0-0-0-3-5-0-0-5-6-|
|
| ~~
| Q        H.                         W
|-----------------------------------|---------------------------------|
|-8\--------------------------------|---------------------------------|
|-----------------------------------|---------------------------------|
|-----------------------------------|---------------------------------|
|-----------------------------------|---------------------------------|
|-----------------------------------|---------------------------------|


    Gtr I
    PM--------------------------------------------------------------|
    S S S S S S S S S S S S S S S S   S S S S S S S S S S S S S S S S
||----------------------------------|-----------------------------------||
||o---------------------------------|----------------------------------o||
||----------------------------------|-----------------------------------||
||----------------------------------|-----------------------------------||
||o---------------------------------|----------------------------------o||
||--0-0-0-0-2-3-0-0-0-0-3-5-0-0-2-3-|-0-0-0-0-2-3-0-0-0-0-3-5-0-0-5-6---||


  Gtr I
  PM-----------------------------------------------------------------|
  S S S S S S S S S S S S S S S S   S S S S S S S S S S  S  S S  S S S
|---------------------------------|------------------------------------|
|---------------------------------|------------------------------------|
|---------------------------------|------------------------------------|
|---------------------------------|------------------------------------|
|---------------------------------|------------------------------------|
|-0-0-0-0-2-3-0-0-0-0-3-5-0-0-2-3-|-0-0-0-0-2-3-0-0-0-0--3--5-0--0-5-6-|
|
| Gtr II
| W                                 H               E    S  S S  S S S
|---------------------------------|------------------------------------|
|---------------------------------|---------------------11-10-8--------|
|---------------------------------|-----------------------------10-9-7-|
|---------------------------------|------------------------------------|
|---------------------------------|------------------------------------|
|---------------------------------|------------------------------------|


         PM-----|  ~   PM----------|        PM-----|  ~   PM----------|
    S  S S  S S  S Q   S  S S  S S S   S  S S  S S  S Q   S  S S  S S S
||-----------------------------------|-----------------------------------||
||o----------------------------------|----------------------------------o||
||-----------------------------------|-----------------------------------||
||-----------------------------------|-----------------------------------||
||o-7h=8-----------------------------|-7h=8-----------------------------o||
||-------0--8-7--0-6---0--0-0--0-0-0-|------0--8-7--0-6---0--0-0--0-0-0--||
|
|                  ~                                  ~
|   S  S S  e    S Q   S  S S  S S S   S  S S  e    S Q   S  S S  S S S
||-----------------------------------|-----------------------------------||
||o-------------------11-10-8--------|-------------------11-10-8--------o||
||--9h10p9--------------------10-9-7-|-9h10p9--------------------10-9-7--||
||---------10---10s8-----------------|--------10---10s8------------------||
||o----------------------------------|----------------------------------o||
||-----------------------------------|-----------------------------------||


  $
  PM------------------------------------------------------------------|
  S  S S S S S S S S S S S  S   S S S   S S S S S S S S S S S S S S S S
|-------------------------------------|---------------------------------|
|-------------------------------------|---------------------------------|
|-------------------------------------|---------------------------------|
|-------------------------------------|---------------------------------|
|-------------------------------------|---------------------------------|
|-0--0-0-0-2-3-0-0-0-0-3-5--0---0-2-3-|-0-0-0-0-2-3-0-0-0-0-3-5-0-0-5-6-|
|
| ~~~~~~~~~~~~~~~~~~~~~~~~~~~~~~
| H.                       +Q           W
|-------------------------------------|---------------------------------|
|-------------------------------------|---------------------------------|
|-------------------------------------|---------------------------------|
|-9------------------------(9)\-------|---------------------------------|
|-------------------------------------|---------------------------------|
|-------------------------------------|---------------------------------|


    Gtr I
    PM--------------------------------------------------------------|
    S S S S S S S S S S S S S S S S   S S S S S S S S S S S S S S S S
||----------------------------------|-----------------------------------||
||o---------------------------------|----------------------------------o||
||----------------------------------|-----------------------------------||
||----------------------------------|-----------------------------------||
||o---------------------------------|----------------------------------o||
||--0-0-0-0-2-3-0-0-0-0-3-5-0-0-2-3-|-0-0-0-0-2-3-0-0-0-0-3-5-0-0-5-6---||


  Gtr I
  PM-----------------------------------------------------------------|
  S S S S S S S S S S S S S S S S   S S S S S S S S S S  S  S S  S S S
|---------------------------------|------------------------------------|
|---------------------------------|------------------------------------|
|---------------------------------|------------------------------------|
|---------------------------------|------------------------------------|
|---------------------------------|------------------------------------|
|-0-0-0-0-2-3-0-0-0-0-3-5-0-0-2-3-|-0-0-0-0-2-3-0-0-0-0--3--5-0--0-5-6-|
|
| Gtr II
| W                                 H               E    S  S S  S S S
|---------------------------------|------------------------------------|
|---------------------------------|---------------------11-10-8--------|
|---------------------------------|-----------------------------10-9-7-|
|---------------------------------|------------------------------------|
|---------------------------------|------------------------------------|
|---------------------------------|------------------------------------|


                                                                  D.S.
         PM-----|  ~   PM----------|        PM-----|  ~   PM----------|
    S  S S  S S  S Q   S  S S  S S S   S  S S  S S  S Q   S  S S  S S S
||-----------------------------------|-----------------------------------||
||o----------------------------------|----------------------------------o||
||-----------------------------------|-----------------------------------||
||-----------------------------------|-----------------------------------||
||o-7h=8-----------------------------|-7h=8-----------------------------o||
||-------0--8-7--0-6---0--0-0--0-0-0-|------0--8-7--0-6---0--0-0--0-0-0--||
|
|                  ~                                  ~
|   S  S S  e    S Q   S  S S  S S S   S  S S  e    S Q   S  S S  S S S
||-----------------------------------|-----------------------------------||
||o-------------------11-10-8--------|-------------------11-10-8--------o||
||--9h10p9--------------------10-9-7-|-9h10p9--------------------10-9-7--||
||---------10---10s8-----------------|--------10---10s8------------------||
||o----------------------------------|----------------------------------o||
||-----------------------------------|-----------------------------------||


       PM-----|  ~   PM----------|
  S  S S  S S  S Q   S  S S  S S S
|----------------------------------|
|----------------------------------|
|----------------------------------|
|----------------------------------|
|-7h=8-----------------------------|
|------0--8-7--0-6---0--0-0--0-0-0-|
|
|                ~
| S  S S  e    S Q   S  S S  S S S
|----------------------------------|
|-------------------11-10-8--------|
|-9h10p9--------------------10-9-7-|
|--------10---10s8-----------------|
|----------------------------------|
|----------------------------------|


                                     E5
       PM-----|  ~   PM----------|
  S  S S  S S  S Q   S  S S  S S S   Q   H.
|----------------------------------|-----------*|
|----------------------------------|-----------*|
|----------------------------------|-----------*|
|----------------------------------|-----------*|
|-7h=8-----------------------------|-2---------*|
|------0--8-7--0-6---0--0-0--0-0-0-|-0---------*|
|
|                ~
| S  S S  e    S Q   S  S S  S S S   Q   H.
|----------------------------------|-----------*|
|-------------------11-10-8--------|-----------*|
|-9h10p9--------------------10-9-7-|-9\--------*|
|--------10---10s8-----------------|-----------*|
|----------------------------------|-----------*|
|----------------------------------|-----------*|



Duration Legend
---------------
W - whole; H - half; Q - quarter; E - 8th; S - 16th; T - 32nd; X - 64th; a - acciaccatura
+ - note tied to previous; . - note dotted; .. - note double dotted
Uncapitalized letters represent notes that are staccato (1/2 duration)
Irregular groupings are notated above the duration line
Duration letters will always appear directly above the note/fret number it represents the
duration for.  Duration letters with no fret number below them represent rests.  Multi-
bar rests are notated in the form Wxn, where n is the number of bars to rest for.  Low
melody durations appear below the staff

Tablature Legend
----------------
 h   - hammer-on
 p   - pull-off
 b   - bend
 pb  - pre-bend
 r   - bend release (if no number after the r, then release immediately)
 /\  - slide into or out of (from/to "nowhere")
 s   - legato slide
 S   - shift slide
 - natural harmonic
[n]  - artificial harmonic
n(n) - tapped harmonic
 ~   - vibrato
 tr  - trill
 T   - tap
 TP  - trem. picking
 PM  - palm muting
\n/  - tremolo bar dip; n = amount to dip
 \n  - tremolo bar down
 n/  - tremolo bar up
/n\  - tremolo bar inverted dip
 =   - hold bend; also acts as connecting device for hammers/pulls
 <> - volume swell (louder/softer)
 x   - on rhythm slash represents muted slash
 o   - on rhythm slash represents single note slash

Misc Legend
-----------
 |  - bar
||  - double bar
||o - repeat start
o|| - repeat end
*|  - double bar (ending)
 :  - bar (freetime)
 $  - Segno
 &  - Coda
Tempo markers -  = BPM(8/16=s8/s16), where s8 = swing 8ths, s16 = swing 16ths

comments
We did not receive enough feedback on this tab! Please rate:
1 2 3 4 5
I want to post or [tab]
guest
You may want to rate the tab now too:
select rating
Please do not post tabs as comments. Select "correction" instead!