Oops, an error
Loading. Please wait.

United Abominations Tab

ver1
ver1

Album

Whole song

Interactive

More versions @911Tabs.com
17,495 views 1 this week
5 commentsread comments
1 2 3 4 5
excellent!
x 7
add to favorites launch autoscroll
font size
0
reset
Autoscroll
+/-
esc
set tempo
stop
Difficulty
advanced
WARNING: You are trying to view
                                    content from Ultimate-Guitar.com
                                    in an unauthorized application,
                                    which is prohibited.

                                    Please use an official Ultimate
                                    Guitar Tabs application for iPhone,
                                    iPad or Android to access legitimate
                                    chords, guitar, bass, and drum tabs
                                    from Ultimate-Guitar.com database.

                                    Type "ultimate guitar tabs" in Apple
                                    App Store's or Android Market's
                                    search to find the application.
Band: Megadeth
Album: United Abominations
 All songs tuned in standard tuning

           1. Sleepwalker

Intro
  
E||---------------------------|--------------------------|
B||------------0--------------|-----0-----------------0--|
G||*--------0-----0-----------|--0-----0-----------0-----|
D||*-----2-----------0-----0--|-----------0-----2--------|
A||---0-----------------2-----|--------------3-----------|
E||---------------------------|--------------------------|
  
--------------------------|--------------------------|
--------------------------|-----------0--------------|
--0-----------0--------0--|--------0-----0-----------|
-----2-----2-----2--3-----|-----2-----------0-----0--|
--------0-----------------|--0-----------------2-----|
--------------------------|--------------------------|
    
--------------------------|---------------------------||
-----0-----------------0--|---------------------------||
--0-----0-----------0-----|--0-----------0-----------*||
-----------0-----2--------|-----0-----0--------------*||
--------------3-----------|--------2------------------||
--------------------------|-----------------3--2--0---||

Build Up  
--------------------------|--------------------------|
--------------------------|--------------------------|
--------------------------|--------------------------|
--------------------------|--3--3--3--3--3--3--3--3--|
--1--1--1--1--1--1--1--1--|--1--1--1--1--1--1--1--1--|
--------------------------|--------------------------|

                            Riff1  
--------------------------||-------------------------------|
--------------------------||-------------------------------|
--3--3--3--3--3--3--3--3--||*------------------------------|
--3--3--3--3--3--3--3--3--||*------------------------------|
--1--1--1--1--1--1--1--1--||-------------------------------|
--------------------------||---0--0--0-0-0-0-0-0-0-0-0--0--|
   
--------------------------------|-------------------------------||
--------------------------------|-------------------------------||
--------------------------------|------------------------------*||
--------------------------------|---------------------------4--*||
--------------------------------|---------------------------2---||
--0-0-0-0-0-0-0-0-0--0--0-0-0-0-|--0-0-0-0-0--0--0-0-0-0-0------||


Verse Riff 
------------------------------------|----------------------------------|
------------------------------------|----------------------------------|
*-----------------------------------|----------------------------------|
*---------------------------9-8-9---|------------8---------------------|
---5-7---------10-7---------7-6-7---|------5-7---6----5-7---------10-7-|
-------0-0-0-0------0-0-0-0-------0-|--0-0-----0----0-----0-0-0-0------|
   
----------------------------------||------------------------------|
----------------------------------||------------------------------|
---------------------------------*||------------------------------|
----------9-8-9-------------8----*||------------------------------|
----------7-6-7-------5-7---6-----||------------------------------|
--0-0-0-0-------0-0-0-----0----0--||--2--2--2-0-2-0-2-3-2-0-2--2--|
     
--------------------------------|-----------------------------|
--------------------------------|-----------------------------|
--------------------------------|-----------------------------|
--------------------------------|-----------------------------|
--------------------------------|------------------------5----|
--2-0-2-0-2-3-2-0-2--2--2-0-2-0-|--2-3-2-0-2--2--2-0-2-0-3----|
  
------------------------------|----------------------------------|
------------------------------|----------------------------------|
------------------------------|----------------------------------|
------------------------------|----------------------------------|
------------------------------|------------------------4---------|
--2--2--2-0-2-0-2-3-2-0-2--2--|--2-0-2-0-2-3-2-0-2-0-2---2-0-2-0-|

    
---------------------------------|
---------------------------------|
---------------------------------|
----------------------------2--L-|
----5-----------6----------------|
--2---2-0-2-0-2---2-0-2-0-2------|


Chorus

Drover Chorus 
|------------------------------|
|------------------------------|
|------------------------------|
|------------------------------|
|------------------------------|
|--2--2--2-0-2-0-2-3-2-0-2--2--|

--------------------------------|--------------------------------|
--------------------------------|--------------------------------|
--------------------------------|--------------------------------|
--------------------------------|--------------------------------|
--------------------------------|--------------------------------|
--2-0-2-0-2-3-2-0-5--5--5-3-5-3-|--5-6-5-3-5--5--5-3-5-3-5-6-5-3-|
 
--------------------------------|---------------------------------|
--------------------------------|---------------------------------|
--------------------------------|---------------------------------|
------------------------2-3---2-|------------------4--------------|
--2--2--2-0-2-0-2-3-2-0-----5---|--3-5-2-3---2-----4--------------|
--------------------------------|----------5---3-5-2--2-2-2-2-2-2-|

---------------------------------|--------------------------------|
---------------------------------|--------------------------------|
---------------------------------|--------------------------------|
----------2----------------------|--4----------------------7------|
----------2----------------------|--4----------------------7------|
--2-2-2-2-0--0-0-0-0-0-0-0-0-0-0-|--2--2-2-2-2-2-2-2-2-2-2-5--5-5-|

---------------------------------|---------------------------------|
---------------------------------|---------------------------------|
------------------4--------------|----------7----------------------|
------------------4--------------|----------7----------------------|
------------------2--2-2-2-2-2-2-|--2-2-2-2-5--5-5-5-5-5-5-5-5-5-5-|
--5-5-5-5-5-5-5-5----------------|---------------------------------|

Mustaine Chorus   
|------------------------------|
|------------------------------|
|------------------------------|
|------------------------------|
|------------------------------|
|--2--2--2-0-2-0-2-3-2-0-2--2--|

--------------------------------|--------------------------------|
--------------------------------|--------------------------------|
--------------------------------|--------------------------------|
--------------------------------|--------------------------------|
--------------------------------|--------------------------------|
--2-0-2-0-2-3-2-0-5--5--5-3-5-3-|--5-6-5-3-5--5--5-3-5-3-5-6-5-3-|
    
--------------------------------|---------------------------|
--------------------------------|---------------------------|
--------------------------------|---------------------------|
------------------------2-3---2-|------------------4--------|
--2--2--2-0-2-0-2-3-2-0-----5---|--3-5-2-3---2-----4--------|
--------------------------------|----------5---3-5-2--------|
  
--0--------------0-----|-----------0----------|-------0--------------|
-----0--------------0--|--------------0-------|----------0-----------|
-----------------------|----------------------|-------------4--------|
--------2--------------|--4--------------7----|--L----------4--------|
--------2--------------|--4--------------7----|--L----------2--------|
--------0--------------|--2--------------5----|--L-------------------|

--0--------------0-----|
-----0--------------0--|
--------7--------------|
--------7--------------|
--------5--------------|
-----------------------|

Riff Under Drover 1st Solo
|------------------------------|
|------------------------------|
|------------------------------|
|------------------------------|
|------------------------------|
|--2--2--2-0-2-0-2-3-2-0-2--2--|
  
--------------------------------|--------------------------------|
--------------------------------|--------------------------------|
--------------------------------|--------------------------------|
--------------------------------|--------------------------------|
--------------------------------|--------------------------------|
--2-0-2-0-2-3-2-0-2--2--2-0-2-0-|--2-3-2-0-2--2--2-0-2-0-2-3-2-0-|
 
------------------------------|--------------------------------|
------------------------------|--------------------------------|
------------------------------|--------------------------------|
------------------------------|--------------------------------|
------------------------------|--------------------------------|
--2--2--2-0-2-0-2-3-2-0-2--2--|--2-0-2-0-2-3-2-0-2--2--2-0-2-0-|

--------------------------------|
--------------------------------|
--------------------------------|
--------------------------------|
--------------------------------|
--2-3-2-0-2--2--2-0-2-0-2-3-2-0-|

Solo Drover
----------------------14----14-|
--17b---------L----17----17----|
-------------------------------|
-------------------------------|
-------------------------------|
-------------------------------|

-----------17----14-------------------------------|
--17-14-17----17----17-14----14----14-14----------|
--------------------------17----17-------17-14----|
-----------------------------------------------16-|
--------------------------------------------------|
--------------------------------------------------|

--------------------------------------------|
--------------------------------------------|
--16----14-13----14-------------------------|
-----16-------16----16-14----------16-16----|
--------------------------16-15-14----------|
--------------------------------------------|

--------------------------------------------------|
--13-12-13-12-------13-12-13-12-------13-12-13-12-|
--------------14-11-------------14-11-------------|
--------------------------------------------------|
--------------------------------------------------|
--------------------------------------------------|

------------------------------12-14-12-|
--12brb-----------------14-16----------|
---------------17-16-17----------------|
---------------------------------------|
---------------------------------------|
---------------------------------------|

--14-12h-14-17p-14-19p-14-19h-20p-19-17----------|
----------------------------------------19-----L-|
-------------------------------------------------|
-------------------------------------------------|
-------------------------------------------------|
-------------------------------------------------|

Fast Riff Pre Solo 		     X8
|------------------------------------|   
|------------------------------------|   
|*----------------------------------*|   
|*----------------------------------*|   
|------------------------------------|   
|---4-3-2-1-0-3-2-0-3-2-1-0-5-4-3-2--|   


Riff Under Mustaine Solo
|----------------------------------|
|----------------------------------|
|*---------------------------------|
|*---------------------------------|
|----------------------------------| 
|--0-2-2-0-2-2-0-2-2-0-2-0-3-3-3-3-|

----------------------------------|----------------------------------|
----------------------------------|----------------------------------|
----------------------------------|----------------------------------|
----------------------------------|----------------------------------|
--------------------------3-3-3-3-|----------------------------------|
--0-2-2-0-2-2-0-2-2-0-2-0---------|--0-2-2-0-2-2-0-2-2-0-2-0-3-3-3-3-|

                           X2    
----------------------------|
----------------------------|
---------------------------*|
---------------------------*|
------------------5----7----|
--0-2-2-0-2-2-0-2-3----5----|

Drover Solo
|----------------17--16-17-16--13-16-13--|
|--18--17-18-17--------------------------|
|----------------------------------------|
|----------------------------------------|
|----------------------------------------|
|----------------------------------------|

------------------------------------------------|
--17-18-17--------17----------------------------|
------------19-18----19-18-19-18-18-14-12-15-14-|
------------------------------------------------|
------------------------------------------------|
------------------------------------------------|

--------------------------------------------|
--------------------------------------------|
--14----------------------------------------|
-----15-15-14-12-15-14-12-14-12-14-12-13----|
--------------------------------------------|
--------------------------------------------|

--------------------------------------------------|
-----------------------------------------------14-|
--------------------14----------------14-15-17----|
-----------14-15-17----17-15-14-15-17-------------|
--17-16-17----------------------------------------|
--------------------------------------------------|

------------------------------------|
-----------------14-15-17-----------|
--17-15-14-15-17----------15--------|
------------------------------------|
------------------------------------|
------------------------------------|

--17-17-17-17-17-18-17-15----17-15----------------|
--------------------------18-------18-17-15-18-17-|
--------------------------------------------------|
--------------------------------------------------|
--------------------------------------------------|
--------------------------------------------------|

--------------------------------------------------|
--15-18-17-15----17-15-------15-------------------|
--------------18-------18-16----18-16-15-18-16-15-|
--------------------------------------------------|
--------------------------------------------------|
--------------------------------------------------|
                                      
                                        End Solo Riff
                                                                          3x
------------------------------------||------------------------------------||
--------------------15--------------||------------------------------------||
--18-16-15-15-16-18----18-18--------||*----------------------------------*||
------------------------------------||*----------------------------------*||
------------------------------------||------------------------------------||
------------------------------------||---4-3-2-1-0-3-2-0-3-2-1-0-5-4-3-2--||

---------------------------------|--------------------------|
---------------------------------|--------------------------|
---------------------------------|--------------------------|
---------------------------------|--------------------------|
---------------------------------|--4-----------------------|
--4-3-2-1-0-3-2-0-3-2-1-0-5-3-2--|--2-----------------------|

Order Of Play:
Intro
Build Up
Verse Riffs 2 X
Chorus
Drover 1st Solo
Verse Riffs 2 X
Fast Pre Solo Riff
Mustaine Solo
Drover 2nd Solo
End Solo Riff
Verse Riffs 
Chorus Repeat Until Fade

         2. Washington is Next!

Note: The X's are partial palmmutes on the open e string.
Just palmmute it enough so that you hear the note but dosen't
really ring)

e|-3p0-x--<3>p0-3p0-x-2p0-xx-3p0-2p0--3p0-x-5p0-x-3p0-x-2p0-xx-3p0-2p0-|
B|---------------------------------------------------------------------|
G|--(artifical---------------------------------------------------------|
D|------harmonic)------------------------------------------------------|
A|---------------------------------------------------------------------|
E|---------------------------------------------------------------------|
 |								       |
 |								       |
 |								       |
e|---------------------------------------------------------------------|
B|---------------------------------------------------------------------|
G|---------------------------------------------------------------------|
D|-8-----------------------------------10------------------------------|
A|-5------------------------------------7------------------------------|
E|---------------------------------------------------------------------|

e|-3p0-x-5p0-x-3p0-x-2p0-x-3p0-2p0-3p0-x-5p0-x-7p0-x-8p0-x-7p0-5p0--|
B|------------------------------------------------------------------|
G|------------------------------------------------------------------|
D|------------------------------------------------------------------|
A|------------------------------------------------------------------|
E|------------------------------------------------------------------|
 |								    |
 |								    |
 |								    |
e|------------------------------------------------------------------|
B|------------------------------------------------------------------|
G|------------------------------------------------------------------|
D|-7---------------------------------9------------------------------|
A|-5---------------------------------7------------------------------|
E|------------------------------------------------------------------|

e|-3p0-x-5p0-x-3p0-x-2p0-x-3p0-2p0-3p0-x-5p0-x-3p0-x-2p0-x-3p0-2p0--|
B|------------------------------------------------------------------|
G|------------------------------------------------------------------|
D|------------------------------------------------------------------|
A|------------------------------------------------------------------|
E|------------------------------------------------------------------|
 |         							    |
 |								    |
 |								    |
e|------------------------------------------------------------------|
B|------------------------------------------------------------------|
G|------------------------------------------------------------------|
D|-5--------------------------------10---------------9--------------|
A|-3---------------------------------7---------------7--------------|
E|------------------------------------------------------------------|

e|-3p0-x-5p0-x-3p0-x-2p0-x-3p0-2p0-3p0-x-5p0-x-7p0-x-8p0-x-7p0-5p0--|
B|------------------------------------------------------------------|
G|------------------------------------------------------------------|
D|------------------------------------------------------------------|
A|------------------------------------------------------------------|
E|------------------------------------------------------------------|
 |							            |
 |							            |
 |								    |
e|------------------------------------------------------------------|
B|------------------------------------------------------------------|
G|------------------------------------------------------------------|
D|-2---------------------------------0--2---------------------------|
A|-2---------------------------------0--2---------------------------|
E|-0--------------------------------(0)-0---------------------------|

Here's the part where the third guitar kicks in.

e|-3--x--5--x--3--x--2--x--3--2---3--x--5---x--3---x--2-x---3--2----|
B|-3--x--5--x--3--x--2--x--3--2---3--x--5---x--3---x--2-x---3--2----|
G|------------------------------------------------------------------|
D|------------------------------------------------------------------|
A|------------------------------------------------------------------|
E|------------------------------------------------------------------|
 |								    |
 |								    |
 |								    |
e|-3p0-x-5p0-x-3p0-x-2p0-x-3p0-2p0-3p0-x-5p0-x-3p0-x-2p0-x-3p0-2p0--|
B|------------------------------------------------------------------|
G|------------------------------------------------------------------|
D|------------------------------------------------------------------|
A|------------------------------------------------------------------|
E|------------------------------------------------------------------|
 |								    |
 |								    |
 |							            |
e|------------------------------------------------------------------|
B|------------------------------------------------------------------|
G|------------------------------------------------------------------|
D|-8-------------------------------10-------------------------------|
A|-5--------------------------------7-------------------------------|
E|------------------------------------------------------------------|


e|-3--x--5--x--3--x--2--x--3--2----3--x--5---x--7--x-8---x--7--5----|
B|-3--x--5--x--3--x--2--x--3--2----3--x--5---x--7--x-8---x--7--5----|
G|------------------------------------------------------------------|
D|------------------------------------------------------------------|
A|------------------------------------------------------------------|
E|------------------------------------------------------------------|
 |								    |
 |								    |
 |                                                                  |
e|-3p0-x-5p0-x-3p0-x-2p0-x-3p0-2p0-3p0-x-5p0-x-7p0-x-8p0-x-7p0-5p0--|
B|------------------------------------------------------------------|
G|------------------------------------------------------------------|
D|------------------------------------------------------------------|
A|------------------------------------------------------------------|
E|------------------------------------------------------------------|
 |								    |
 |								    |
 |								    |
e|------------------------------------------------------------------|
B|------------------------------------------------------------------|
G|------------------------------------------------------------------|
D|-7-------------------------------9--------------------------------|
A|-5-------------------------------7--------------------------------|
E|------------------------------------------------------------------|


e|-3--x--5--x--3--x--2--x--3--2----3----x-5---x--2----x--3---x---2---0--|
B|-3--x--5--x--3--x--2--x--3--2----3----x-5---x--2----x--3---x---2---0--|
G|----------------------------------------------------------------------|
D|----------------------------------------------------------------------|
A|----------------------------------------------------------------------|
E|----------------------------------------------------------------------|
 |									|
 |									|
 |									|
e|-3p0-x-5p0-x-3p0-x-2p0-x-3p0-2p0--3p0-x-5p0-x--2p0--x--3p0--x--2p0-0--|
B|----------------------------------------------------------------------|
G|----------------------------------------------------------------------|
D|----------------------------------------------------------------------|
A|----------------------------------------------------------------------|
E|----------------------------------------------------------------------|
 |									|
 |									|
 |									|
e|----------------------------------------------------------------------|
B|----------------------------------------------------------------------|
G|----------------------------------------------------------------------|
D|-5--------------------------------10-----------9----------------------|
A|-3---------------------------------7-----------7----------------------|
E|----------------------------------------------------------------------|


e|-12p0-x-8p0-x-10p0-x-6p0-xx-8p0-4p0-6p0-x-2p0-x-3p0-x-0-xx-2p0-0--|
B|------------------------------------------------------------------|
G|------------------------------------------------------------------|
D|------------------------------------------------------------------|
A|------------------------------------------------------------------|
E|------------------------------------------------------------------|
 |								    |
 |								    |
 |								    |
e|------------------------------------------------------------------|
B|------------------------------------------------------------------|
G|------------------------------------------------------------------|
D|-12-----8------10-----6-----8----4----6----2-----3----0------2--0-|
A|-12-----8------10-----6-----8----4----6----2-----3----0------2--0-|
E|------------------------------------------------------------------|

MAIN RIFF

e|---------------------------------------------------------------------------|
B|---------------------------------------------------------------------------|
G|---------------------------------------------------------------------------|
D|-9-----9-----9-----9-----9---9---10-----10-----10-----10-------------------|
A|-7-----7-----7-----7-----7---7----7------7------7------7-------------------|
E|---0-0---0-0---0-0---0-0---0---0----0-0----0-0----0-0----0-0--3-2-0--------|
pm   . .   . .   . .   . .   .   .    . .    . .    . .    . .  . .


e|----------------------------------------------------------------------|
B|----------------------------------------------------------------------|
G|----------------------------------------------------------------------|
D|-7-----7-----7-----7-----7---7---9-----9-----9------------------------|
A|-5-----5-----5-----5-----5---5---7-----7-----7------------------------|
E|---0-0---0-0---0-0---0-0---0---0---0-0---0-0---0-0---0h7-0-0h5-0-0h3--|
     . .   . .   . .   . .   .   .   . .   . .   . .       .     .

e|------------------------------------------------------------------------|
B|------------------------------------------------------------------------|
G|------------------------------------------------------------------------|
D|-5-----5-----5-----5-----5---5--10-----10-----10-----10-----------------|
A|-3-----3-----3-----3-----3---3---7------7------7------7-----------------|
E|---0-0---0-0---0-0---0-0---0-------0-0----0-0----0-0----0-0--6\8--7--5--|
     . .   . .   . .   . .   .       . .    . .    . .    . .

e|----------------------------------------------------------------|
B|----------------------------------------------------------------|
G|----------------------------------------------------------------|
D|-2-----0-----2-----3-----2---0---2-----0-----2-----3-----2---0--|
A|-2-----0-----2-----3-----2---0---2-----0-----2-----3-----2---0--|
E|---0-0---0-0---0-0---0-0---0---0---0-0---0-0---0-0---0-0---0----|

e|---------------------------------------------------------------------------|
B|---------------------------------------------------------------------------|
G|---------------------------------------------------------------------------|
D|-9-----9-----9-----9-----9---9---10-----10-----10-----10-------------------|
A|-7-----7-----7-----7-----7---7----7------7------7------7-------------------|
E|---0-0---0-0---0-0---0-0---0---0----0-0----0-0----0-0----0-0--3-2-0--------|
pm   . .   . .   . .   . .   .   .    . .    . .    . .    . .  . .


e|----------------------------------------------------------------------|
B|----------------------------------------------------------------------|
G|----------------------------------------------------------------------|
D|-7-----7-----7-----7-----7---7---9-----9-----9------------------------|
A|-5-----5-----5-----5-----5---5---7-----7-----7------------------------|
E|---0-0---0-0---0-0---0-0---0---0---0-0---0-0---0-0---0h7-0-0h5-0-0h3--|
     . .   . .   . .   . .   .   .   . .   . .   . .       .     .

e|---------------------------------------------------------------------------|
B|---------------------------------------------------------------------------|
G|---------------------------------------------------------------------------|
D|-9-----9-----9-----9-----9---9---10-----10-----10-----10-------------------|
A|-7-----7-----7-----7-----7---7----7------7------7------7-------------------|
E|---0-0---0-0---0-0---0-0---0---0----0-0----0-0----0-0----0-0--0-1-1--------|
pm   . .   . .   . .   . .   .   .    . .    . .    . .    . .  . . .

CHORUS

(NOTE: IN THIS PART, GUITAR 1 IS THE KEYBOARD)

e|------------------------------------------------------|
B|-5---4--5--7---5--4--5---5---4--5---7---5--4---5---4--|
G|------------------------------------------------------|
D|------------------------------------------------------|
A|------------------------------------------------------|
E|------------------------------------------------------|
 |							|
 |							|
 |							|
e|------------------------------------------------------|
B|------------------------------------------------------|
G|-9------------------------9---------------------------|
D|-9-----------------------10---------------------------|
A|-7------------------------7---------------------------|
E|------------------------------------------------------|

e|------------------------------------------------------|
B|------------------------------------------------------|
G|-5-----------------------(5)-\-6---7------------------|
D|-5-----------------------(5)-\-6---7----5H7P5---------|
A|-3-----------------------(3)-\-4---5--5-------7P5-----|
E|------------------------------------------------------|

e|------------------------------------------------------|
B|-5---4--5--7---5--4--5---5---4--5---7---5--4---5---4--|
G|------------------------------------------------------|
D|------------------------------------------------------|
A|------------------------------------------------------|
E|------------------------------------------------------|
 |							|
 |							|
 |							|
e|------------------------------------------------------|
B|------------------------------------------------------|
G|-9------------------------9---------------------------|
D|-9-----------------------10---------------------------|
A|-7------------------------7---------------------------|
E|------------------------------------------------------|

e|------------------------------------------------------|
B|------------------------------------------------------|
G|-5-----------------------(5)-\-6---7------------------|
D|-5-----------------------(5)-\-6---7----5H7P5---------|
A|-3-----------------------(3)-\-4---5--5-------7P5-----|
E|------------------------------------------------------|

e|-3--x--5--x--3--x--2--x--3--2---3--x--5---x--3---x--2-x---3--2----|
B|-3--x--5--x--3--x--2--x--3--2---3--x--5---x--3---x--2-x---3--2----|
G|------------------------------------------------------------------|
D|------------------------------------------------------------------|
A|------------------------------------------------------------------|
E|------------------------------------------------------------------|
 |								    |
 |								    |
 |								    |
e|-3p0-x-5p0-x-3p0-x-2p0-x-3p0-2p0-3p0-x-5p0-x-3p0-x-2p0-x-3p0-2p0--|
B|------------------------------------------------------------------|
G|------------------------------------------------------------------|
D|------------------------------------------------------------------|
A|------------------------------------------------------------------|
E|------------------------------------------------------------------|
 |								    |
 |								    |
 |							            |
e|------------------------------------------------------------------|
B|------------------------------------------------------------------|
G|------------------------------------------------------------------|
D|-8-------------------------------10-------------------------------|
A|-5--------------------------------7-------------------------------|
E|------------------------------------------------------------------|


e|-3--x--5--x--3--x--2--x--3--2----3--x--5---x--7--x-8---x--7--5----|
B|-3--x--5--x--3--x--2--x--3--2----3--x--5---x--7--x-8---x--7--5----|
G|------------------------------------------------------------------|
D|------------------------------------------------------------------|
A|------------------------------------------------------------------|
E|------------------------------------------------------------------|
 |								    |
 |								    |
 |                                                                  |
e|-3p0-x-5p0-x-3p0-x-2p0-x-3p0-2p0-3p0-x-5p0-x-7p0-x-8p0-x-7p0-5p0--|
B|------------------------------------------------------------------|
G|------------------------------------------------------------------|
D|------------------------------------------------------------------|
A|------------------------------------------------------------------|
E|------------------------------------------------------------------|
 |								    |
 |								    |
 |								    |
e|------------------------------------------------------------------|
B|------------------------------------------------------------------|
G|------------------------------------------------------------------|
D|-7-------------------------------9--------------------------------|
A|-5-------------------------------7--------------------------------|
E|------------------------------------------------------------------|


e|-3--x--5--x--3--x--2--x--3--2----3----x-5---x--2----x--3---x---2---0--|
B|-3--x--5--x--3--x--2--x--3--2----3----x-5---x--2----x--3---x---2---0--|
G|----------------------------------------------------------------------|
D|----------------------------------------------------------------------|
A|----------------------------------------------------------------------|
E|----------------------------------------------------------------------|
 |									|
 |									|
 |									|
e|-3p0-x-5p0-x-3p0-x-2p0-x-3p0-2p0--3p0-x-5p0-x--2p0--x--3p0--x--2p0-0--|
B|----------------------------------------------------------------------|
G|----------------------------------------------------------------------|
D|----------------------------------------------------------------------|
A|----------------------------------------------------------------------|
E|----------------------------------------------------------------------|
 |									|
 |									|
 |									|
e|----------------------------------------------------------------------|
B|----------------------------------------------------------------------|
G|----------------------------------------------------------------------|
D|-5--------------------------------10-----------9----------------------|
A|-3---------------------------------7-----------7----------------------|
E|----------------------------------------------------------------------|


e|-12p0-x-8p0-x-10p0-x-6p0-xx-8p0-4p0-6p0-x-2p0-x-3p0-x-0-xx-2p0-0--|
B|------------------------------------------------------------------|
G|------------------------------------------------------------------|
D|------------------------------------------------------------------|
A|------------------------------------------------------------------|
E|------------------------------------------------------------------|
 |								    |
 |								    |
 |								    |
e|------------------------------------------------------------------|
B|------------------------------------------------------------------|
G|------------------------------------------------------------------|
D|-12-----8------10-----6-----8----4----6----2-----3----0------2--0-|
A|-12-----8------10-----6-----8----4----6----2-----3----0------2--0-|
E|------------------------------------------------------------------|


MAIN RIFF 2

e|---------------------------------------------------------------------------|
B|---------------------------------------------------------------------------|
G|---------------------------------------------------------------------------|
D|-9-----9-----9-----9-----9---9---10-----10-----10-----10-------------------|
A|-7-----7-----7-----7-----7---7----7------7------7------7-------------------|
E|---0-0---0-0---0-0---0-0---0---0----0-0----0-0----0-0----0-0--3-2-0--------|
pm   . .   . .   . .   . .   .   .    . .    . .    . .    . .  . .


e|----------------------------------------------------------------------|
B|----------------------------------------------------------------------|
G|----------------------------------------------------------------------|
D|-7-----7-----7-----7-----7---7---9-----9-----9------------------------|
A|-5-----5-----5-----5-----5---5---7-----7-----7------------------------|
E|---0-0---0-0---0-0---0-0---0---0---0-0---0-0---0-0---0h7-0-0h5-0-0h3--|
     . .   . .   . .   . .   .   .   . .   . .   . .       .     .

e|------------------------------------------------------------------------|
B|------------------------------------------------------------------------|
G|------------------------------------------------------------------------|
D|-5-----5-----5-----5-----5---5--10-----10-----10-----10-----------------|
A|-3-----3-----3-----3-----3---3---7------7------7------7-----------------|
E|---0-0---0-0---0-0---0-0---0-------0-0----0-0----0-0----0-0--6\8--7--5--|
     . .   . .   . .   . .   .       . .    . .    . .    . .

e|----------------------------------------------------------------|
B|----------------------------------------------------------------|
G|----------------------------------------------------------------|
D|-2-----0-----2-----3-----2---0---2-----0-----2-----3-----2---0--|
A|-2-----0-----2-----3-----2---0---2-----0-----2-----3-----2---0--|
E|---0-0---0-0---0-0---0-0---0---0---0-0---0-0---0-0---0-0---0----|

e|---------------------------------------------------------------------------|
B|---------------------------------------------------------------------------|
G|---------------------------------------------------------------------------|
D|-9-----9-----9-----9-----9---9---10-----10-----10-----10-------------------|
A|-7-----7-----7-----7-----7---7----7------7------7------7-------------------|
E|---0-0---0-0---0-0---0-0---0---0----0-0----0-0----0-0----0-0--3-2-0--------|
pm   . .   . .   . .   . .   .   .    . .    . .    . .    . .  . .


e|----------------------------------------------------------------------|
B|----------------------------------------------------------------------|
G|----------------------------------------------------------------------|
D|-7-----7-----7-----7-----7---7---9-----9-----9------------------------|
A|-5-----5-----5-----5-----5---5---7-----7-----7------------------------|
E|---0-0---0-0---0-0---0-0---0---0---0-0---0-0---0-0---0h7-0-0h5-0-0h3--|
     . .   . .   . .   . .   .   .   . .   . .   . .       .     .

e|---------------------------------------------------------------------------|
B|---------------------------------------------------------------------------|
G|---------------------------------------------------------------------------|
D|-9-----9-----9-----9-----9---9---10-----10-----10------------3-2-0---------|
A|-7-----7-----7-----7-----7---7----7------7------7------3-2-0-------2-0-----|
E|---0-0---0-0---0-0---0-0---0---0----0-0----0-0----0-0----------------------|
pm   . .   . .   . .   . .   .   .    . .    . .    . .

e|------------------------------------------------------|
B|-5---4--5--7---5--4--5---5---4--5---7---5--4---5---4--|
G|------------------------------------------------------|
D|------------------------------------------------------|
A|------------------------------------------------------|
E|------------------------------------------------------|
 |							|
 |							|
 |							|
e|------------------------------------------------------|
B|------------------------------------------------------|
G|-9------------------------9---------------------------|
D|-9-----------------------10---------------------------|
A|-7------------------------7---------------------------|
E|------------------------------------------------------|

e|------------------------------------------------------|
B|------------------------------------------------------|
G|-5-----------------------(5)-\-6---7------------------|
D|-5-----------------------(5)-\-6---7----5H7P5---------|
A|-3-----------------------(3)-\-4---5--5-------7P5-----|
E|------------------------------------------------------|

e|------------------------------------------------------|
B|-5---4--5--7---5--4--5---5---4--5---7---5--4---5---4--|
G|------------------------------------------------------|
D|------------------------------------------------------|
A|------------------------------------------------------|
E|------------------------------------------------------|
 |							|
 |							|
 |							|
e|------------------------------------------------------|
B|------------------------------------------------------|
G|-9------------------------9---------------------------|
D|-9-----------------------10---------------------------|
A|-7------------------------7---------------------------|
E|------------------------------------------------------|

e|------------------------------------------------------|
B|------------------------------------------------------|
G|-5-----------------------(5)-\-6---7------------------|
D|-5-----------------------(5)-\-6---7----5H7P5---------|
A|-3-----------------------(3)-\-4---5--5-------7P5-----|
E|------------------------------------------------------|

e|-3--x--5--x--3--x--2--x--3--2---3--x--5---x--3---x--2-x---3--2----|
B|-3--x--5--x--3--x--2--x--3--2---3--x--5---x--3---x--2-x---3--2----|
G|------------------------------------------------------------------|
D|------------------------------------------------------------------|
A|------------------------------------------------------------------|
E|------------------------------------------------------------------|
 |								    |
 |								    |
 |								    |
e|-3p0-x-5p0-x-3p0-x-2p0-x-3p0-2p0-3p0-x-5p0-x-3p0-x-2p0-x-3p0-2p0--|
B|------------------------------------------------------------------|
G|------------------------------------------------------------------|
D|------------------------------------------------------------------|
A|------------------------------------------------------------------|
E|------------------------------------------------------------------|
 |								    |
 |								    |
 |							            |
e|------------------------------------------------------------------|
B|------------------------------------------------------------------|
G|------------------------------------------------------------------|
D|-8-------------------------------10-------------------------------|
A|-5--------------------------------7-------------------------------|
E|------------------------------------------------------------------|


e|-3--x--5--x--3--x--2--x--3--2----3--x--5---x--7--x-8---x--7--5----|
B|-3--x--5--x--3--x--2--x--3--2----3--x--5---x--7--x-8---x--7--5----|
G|------------------------------------------------------------------|
D|------------------------------------------------------------------|
A|------------------------------------------------------------------|
E|------------------------------------------------------------------|
 |								    |
 |								    |
 |                                                                  |
e|-3p0-x-5p0-x-3p0-x-2p0-x-3p0-2p0-3p0-x-5p0-x-7p0-x-8p0-x-7p0-5p0--|
B|------------------------------------------------------------------|
G|------------------------------------------------------------------|
D|------------------------------------------------------------------|
A|------------------------------------------------------------------|
E|------------------------------------------------------------------|
 |								    |
 |								    |
 |								    |
e|------------------------------------------------------------------|
B|------------------------------------------------------------------|
G|------------------------------------------------------------------|
D|-7-------------------------------9--------------------------------|
A|-5-------------------------------7--------------------------------|
E|------------------------------------------------------------------|


e|-3--x--5--x--3--x--2--x--3--2----3----x-5---x--2----x--3---x---2---0--|
B|-3--x--5--x--3--x--2--x--3--2----3----x-5---x--2----x--3---x---2---0--|
G|----------------------------------------------------------------------|
D|----------------------------------------------------------------------|
A|----------------------------------------------------------------------|
E|----------------------------------------------------------------------|
 |									|
 |									|
 |									|
e|-3p0-x-5p0-x-3p0-x-2p0-x-3p0-2p0--3p0-x-5p0-x--2p0--x--3p0--x--2p0-0--|
B|----------------------------------------------------------------------|
G|----------------------------------------------------------------------|
D|----------------------------------------------------------------------|
A|----------------------------------------------------------------------|
E|----------------------------------------------------------------------|
 |									|
 |									|
 |									|
e|----------------------------------------------------------------------|
B|----------------------------------------------------------------------|
G|----------------------------------------------------------------------|
D|-5--------------------------------10-----------9----------------------|
A|-3---------------------------------7-----------7----------------------|
E|----------------------------------------------------------------------|


e|-12p0-x-8p0-x-10p0-x-6p0-xx-8p0-4p0-6p0-x-2p0-x-3p0-x-0-xx-2p0-0--|
B|------------------------------------------------------------------|
G|------------------------------------------------------------------|
D|------------------------------------------------------------------|
A|------------------------------------------------------------------|
E|------------------------------------------------------------------|
 |								    |
 |								    |
 |								    |
e|------------------------------------------------------------------|
B|------------------------------------------------------------------|
G|------------------------------------------------------------------|
D|-12-----8------10-----6-----8----4----6----2-----3----0------2--0-|
A|-12-----8------10-----6-----8----4----6----2-----3----0------2--0-|
E|------------------------------------------------------------------|

PRE SOLO (THE TAPPING PART)

e|-----------------------------------------------------------------|
B|-t12p5p3-t12p5p3-t12p5p3-t12p5p3-t13p5p3-t13p5p3-t13p5p3-t13p5p3-|
G|-----------------------------------------------------------------|
D|-----------------------------------------------------------------|
A|-----------------------------------------------------------------|
E|-----------------------------------------------------------------|

e|-t14p7p5-t14p7p5-t14p7p5-t14p7p5-t15p7p5-t15p7p5-t15p7p5-t15p7p5-|
B|-----------------------------------------------------------------|
G|-----------------------------------------------------------------|
D|-----------------------------------------------------------------|
A|-----------------------------------------------------------------|
E|-----------------------------------------------------------------|

e|-t15p9p7-t15p9p7-t15p9p7-t15p9p7-t17p9p7-t17p9p7-t17p9p7-t17p9p7-|
B|-----------------------------------------------------------------|
G|-----------------------------------------------------------------|
D|-----------------------------------------------------------------|
A|-----------------------------------------------------------------|
E|-----------------------------------------------------------------|

e|-t19p15p12-t19p15p12-t19p15p12-t19p15p12-t19p15p12-t19p15p12-----|
B|-----------------------------------------------------------------|
G|-----------------------------------------------------------------|
D|-----------------------------------------------------------------|
A|-----------------------------------------------------------------|
E|-----------------------------------------------------------------|

e|-t19p15p12---19b21--|
B|-------------19b21--|
G|--------------------|
D|--------------------|
A|--------------------|
E|--------------------|

GUITAR SOLO 1 (DROVER)

e|-----------------------------------19B21----17-19-17----15-----------|
B|---------17--16H17--17H19--21--19--------------------17----17-17B18--|
G|---------------------------------------------------------------------|
D|-12~~~~~~------------------------------------------------------------|
A|---------------------------------------------------------------------|
E|---------------------------------------------------------------------|

e|----------------------------------------------------------|
B|-15-17-15----15--------------------17-------18------------|
G|----------15----15-15B16--15-16-15----17-16----15---------|
D|--------------------------------------------------15-15~~~|
A|----------------------------------------------------------|
E|----------------------------------------------------------|

e|-------------------------------------------------------------------------|
B|-------------------------------------------------------------------------|
G|-------------------------------------------------------------------------|
D|-17-16-15-15-14-13----------15-14-13-17-16-15-15-14-13----------15-14-13-|
A|-------------------15-14-13----------------------------15-14-13----------|
E|-------------------------------------------------------------------------|

e|-------------------------------------21b22-~~~~~-|
B|-19-17-15----------19-17-15-21-19-17-------------|
G|----------19-17-15-------------------------------|
D|-------------------------------------------------|
A|-------------------------------------------------|
E|-------------------------------------------------|

e|-21p19p17\12/13\12-17p15p12\7/8\7-9p8p7\5/6\5-7p5p4-0h1p0--|
B|-----------------------------------------------------------|
G|-----------------------------------------------------------|
D|-----------------------------------------------------------|
A|-----------------------------------------------------------|
E|-----------------------------------------------------------|

e|-----4-----5-----6----|
B|-2h3---3h4---4h5------|
G|----------------------|
D|----------------------|
A|----------------------|
E|----------------------|

SOLO #2 (MUSTAINE)

e|-17b19r17-\-17b21r17-\-21b23r21------------------------------------------|
B|-------------------------------------------------------------------------|
G|------------------------------------------------------------15-13-15p13--|
D|-------------------------------------------17p16p15----------------------|
A|----------------------------------14-15-16----------15-16----------------|
E|-------------------------------------------------------------------------|

e|-----------------------------------------------------------------|
B|-----------------------------------------------------------------|
G|------------------------------------15-13-15p13------------------|
D|----13-14-----------17p16p15-----------------------14------------|
A|-15--------14-15-16----------15-16--------------15------12-------|
E|-----------------------------------------------------------------|
END SOLO 2

FILL BETWEEN SOLO 2 AND SOLO 3

e|--------------------------|
B|-------------------3-2-0--|
G|-------------3-2-0--------|
D|-------3-2-0--------------|
A|-3-2-0--------------------|
E|--------------------------|

SOLO #3 (DROVER)

e|-------------------------------------------------15P12-------------------|
B|------------------------15~~~~-15P12-15P12-------------15P12-------------|
G|-15-~~~~~~~~~--14-15-14--------------------15P12-------------13P12-12~~~-|
D|-15-~~~~~~~~~------------------------------------------------------------|
A|-------------------------------------------------------------------------|
E|-------------------------------------------------------------------------|

e|-------------------------------------------------------------------------|
B|-------------------------------------------------------------------------|
G|-------------------------------------------------------------------------|
D|-------------------------------------------------------------------------|
A|-3-4-3-4-5-4-5-6-5-6-7-6-7-8-7-8-9-8-9-10-9-10-11-10-11-12-11-12-13-12---|
E|-------------------------------------------------------------------------|

e|-------------------------------------------------------------------------|
B|-------------------------------------------------------------------------|
G|----------------------------------------------------------15-16-15-------|
D|-12-12-15-12----------13-14-13-14-15-14----------15-16-15----------------|
A|-------------13-14-13-------------------14-15-14-------------------------|
E|-------------------------------------------------------------------------|

e|-------------------------------------------------------------------------|
B|-------------------------------------------------------14-15-14-15-16-15-|
G|-------------------16-17-16-17-18-17----------17-18-17-------------------|
D|-16-17-16-17-18-17-------------------17-18-17----------------------------|
A|-------------------------------------------------------------------------|
E|-------------------------------------------------------------------------|

e|----------------------------17H19P17--21B23-|
B|-17-18-17-18-19-18-19-20-19-----------------|
G|--------------------------------------------|
D|--------------------------------------------|
A|--------------------------------------------|
E|--------------------------------------------|

MAIN RIFF

e|------------------------------------------------------|
B|-5---4--5--7---5--4--5---5---4--5---7---5--4---5---4--|
G|------------------------------------------------------|
D|------------------------------------------------------|
A|------------------------------------------------------|
E|------------------------------------------------------|
 |							|
 |							|
 |							|
e|------------------------------------------------------|
B|------------------------------------------------------|
G|-9------------------------9---------------------------|
D|-9-----------------------10---------------------------|
A|-7------------------------7---------------------------|
E|------------------------------------------------------|
 |						        |
 |							|
 |							|
e|------------------------------------------------------|
B|------------------------------------------------------|
G|------------------------------------------------------|
D|---------------5----------------5---------------------|
A|---7--5--5--7-----7-------5--7-----7--7--5--7---------|
E|------------------------------------------------------|

e|------------------------------------------------------|
B|------------------------------------------------------|
G|-5-----------------------(5)-\-6---7------------------|
D|-5-----------------------(5)-\-6---7----5H7P5---------|
A|-3-----------------------(3)-\-4---5--5-------7P5-----|
E|------------------------------------------------------|
 |							|
 |							|
 |							|
e|------------------------------------------------------|
B|------------------------------------------------------|
G|------------------------------------------------------|
D|---------------5----------------5---------------------|
A|---7--5--5--7-----7-------5--7-----7--7--5--7---------|
E|------------------------------------------------------|


e|------------------------------------------------------|
B|-5---4--5--7---5--4--5---5---4--5---7---5--4---5---4--|
G|------------------------------------------------------|
D|------------------------------------------------------|
A|------------------------------------------------------|
E|------------------------------------------------------|
 |							|
 |							|
 |							|
e|------------------------------------------------------|
B|------------------------------------------------------|
G|-9------------------------9---------------------------|
D|-9-----------------------10---------------------------|
A|-7------------------------7---------------------------|
E|------------------------------------------------------|
 |						        |
 |							|
 |							|
e|------------------------------------------------------|
B|------------------------------------------------------|
G|------------------------------------------------------|
D|---------------5----------------5---------------------|
A|---7--5--5--7-----7-------5--7-----7--7--5--7---------|
E|------------------------------------------------------|

e|------------------------------------------------------|
B|------------------------------------------------------|
G|-5-----------------------(5)-\-6---7------------------|
D|-5-----------------------(5)-\-6---7----5H7P5---------|
A|-3-----------------------(3)-\-4---5--5-------7P5-----|
E|------------------------------------------------------|
 |							|
 |							|
 |							|
e|------------------------------------------------------|
B|------------------------------------------------------|
G|------------------------------------------------------|
D|---------------5----------------5---------------------|
A|---7--5--5--7-----7-------5--7-----7--7--5--7---------|
E|------------------------------------------------------|


e|-3--x--5--x--3--x--2--x--3--2---3--x--5---x--3---x--2-x---3--2----|
B|-3--x--5--x--3--x--2--x--3--2---3--x--5---x--3---x--2-x---3--2----|
G|------------------------------------------------------------------|
D|------------------------------------------------------------------|
A|------------------------------------------------------------------|
E|------------------------------------------------------------------|
 |								    |
 |								    |
 |								    |
e|-3p0-x-5p0-x-3p0-x-2p0-x-3p0-2p0-3p0-x-5p0-x-3p0-x-2p0-x-3p0-2p0--|
B|------------------------------------------------------------------|
G|------------------------------------------------------------------|
D|------------------------------------------------------------------|
A|------------------------------------------------------------------|
E|------------------------------------------------------------------|
 |								    |
 |								    |
 |							            |
e|------------------------------------------------------------------|
B|------------------------------------------------------------------|
G|------------------------------------------------------------------|
D|-8-------------------------------10-------------------------------|
A|-5--------------------------------7-------------------------------|
E|------------------------------------------------------------------|

(W/ FILL 1)

e|-3--x--5--x--3--x--2--x--3--2----3--x--5---x--7--x-8---x--7--5----|
B|-3--x--5--x--3--x--2--x--3--2----3--x--5---x--7--x-8---x--7--5----|
G|------------------------------------------------------------------|
D|------------------------------------------------------------------|
A|------------------------------------------------------------------|
E|------------------------------------------------------------------|
 |								    |
 |								    |
 |                                                                  |
e|-3p0-x-5p0-x-3p0-x-2p0-x-3p0-2p0-3p0-x-5p0-x-7p0-x-8p0-x-7p0-5p0--|
B|------------------------------------------------------------------|
G|------------------------------------------------------------------|
D|------------------------------------------------------------------|
A|------------------------------------------------------------------|
E|------------------------------------------------------------------|
 |								    |
 |								    |
 |								    |
e|------------------------------------------------------------------|
B|------------------------------------------------------------------|
G|------------------------------------------------------------------|
D|-7-------------------------------9--------------------------------|
A|-5-------------------------------7--------------------------------|
E|------------------------------------------------------------------|


W/ FILL2

e|-3--x--5--x--3--x--2--x--3--2---3--x--5---x--3---x--2-x---3--2----|
B|-3--x--5--x--3--x--2--x--3--2---3--x--5---x--3---x--2-x---3--2----|
G|------------------------------------------------------------------|
D|------------------------------------------------------------------|
A|------------------------------------------------------------------|
E|------------------------------------------------------------------|
 |								    |
 |								    |
 |								    |
e|-3p0-x-5p0-x-3p0-x-2p0-x-3p0-2p0-3p0-x-5p0-x-3p0-x-2p0-x-3p0-2p0--|
B|------------------------------------------------------------------|
G|------------------------------------------------------------------|
D|------------------------------------------------------------------|
A|------------------------------------------------------------------|
E|------------------------------------------------------------------|
 |								    |
 |								    |
 |							            |
e|------------------------------------------------------------------|
B|------------------------------------------------------------------|
G|------------------------------------------------------------------|
D|-8-------------------------------10-------------------------------|
A|-5--------------------------------7-------------------------------|
E|------------------------------------------------------------------|

e|-3--x--5--x--3--x--2--x--3--2----3--x--5---x--7--x-8---x--7--5----|
B|-3--x--5--x--3--x--2--x--3--2----3--x--5---x--7--x-8---x--7--5----|
G|------------------------------------------------------------------|
D|------------------------------------------------------------------|
A|------------------------------------------------------------------|
E|------------------------------------------------------------------|
 |								    |
 |								    |
 |                                                                  |
e|-3p0-x-5p0-x-3p0-x-2p0-x-3p0-2p0-3p0-x-5p0-x-7p0-x-8p0-x-7p0-5p0--|
B|------------------------------------------------------------------|
G|------------------------------------------------------------------|
D|------------------------------------------------------------------|
A|------------------------------------------------------------------|
E|------------------------------------------------------------------|
 |								    |
 |								    |
 |								    |
e|------------------------------------------------------------------|
B|------------------------------------------------------------------|
G|------------------------------------------------------------------|
D|-7-------------------------------9--------------------------------|
A|-5-------------------------------7--------------------------------|
E|------------------------------------------------------------------|


OUTRO (x16)

e|------------------------------------------------------|
B|------------------------------------------------------|
G|------------------------------------------------------|
D|---------------5----------------5---------------------|
A|---7--5--5--7-----7-------5--7-----7--7--5--7---------|
E|------------------------------------------------------|

Now, before we end, I have to give you the fills from above.

FILL 1

e|-17-15-13-17-15-13-------------------------------------------------------|
B|-------------------17-15-13-17-15-13----------17-15-13----------17-15-13-|
G|-------------------------------------17-15-13----------17-15-13----------|
D|-------------------------------------------------------------------------|
A|-------------------------------------------------------------------------|
E|-------------------------------------------------------------------------|

e|-------------------------------------|
B|-17-15-13----------------------------|
G|----------17-15-13-------------------|
D|-------------------17-15-13--15~~~---|
A|-------------------------------------|
E|-------------------------------------|

FILL 2

e|--------------------------------|
B|-17B19R17-----------------------|
G|----------WHAMMY BAR DIVEBOMB---|
D|--------------------------------|
A|--------------------------------|
E|--------------------------------|


| /  slide up
| \  slide down
| h  hammer-on
| p  pull-off
| ~  vibrato
| < > harmonic
| x  Mute note
===============================================================================
            3.Never walk alone.... A call to arms

        Intro
  Guitar 2
|------------------------------------------------------------------|
|------------------------------------------------------------------|
|------------------------------------------------------------------|
|-4-------------------------------5--------------------------------|
|-2-------------------------------3--------------------------------|
|------------------------------------------------------------------|

  Guitar 1
|------------------------------------------------------------------|
|------------------------------------------------------------------|
|------------------------------------------------------------------|
|-4-----3-----2-------------------4-----3-----2--------------------|
|---0-2---0-2---2-5-3-2-0-2~--0-3---0-2---0-2---2-5-3-2-0-2~--0-4--|
|------------------------------------------------------------------|
    * *   * *   *   * * *     * *   * *   * *   *   * * *     * *

  Guitar 2
|------------------------------------------------------------------|
|------------------------------------------------------------------|
|------------------------------------------------------------------|
|-6-----3-----2-------------------4-----3-----2--------------------|
|-4-0-2---0-2---2-5-3-2-0-2~--0-3---0-2---0-2---2-5-3-2-0-2-----2--|
|-----------------------------------------------------------0-2----|
    * *   * *   *   * * *     * *   * *   * *   *   * * *

   Guitar 1
|------------------------------------------------------------------|
|------------------------------------------------------------------|
|------------------------------------------------------------------|
|-4-----3-----2-------------------4-----3-----2--------------------|
|---0-2---0-2---2-5-3-2-0-2~--0-3---0-2---0-2---2-5-3-2-0-2-----2--|
|-----------------------------------------------------------0-2----|
    * *   * *   *   * * *     * *   * *   * *   *   * * *

Verse
  Guitar 1 & 2
|------------------------------------------------------------------|
|------------------------------------------------------------------|
|------------------------------------------------------------------| x4
|-4-----3-----2-------------------4-----3-----2--------------------|
|---0-2---0-2---2-5-3-2-0-2~--0-3---0-2---0-2---2-5-3-2-0-2-----2--|
|-----------------------------------------------------------0-2----|
    * *   * *   *   * * *     * *   * *   * *   *   * * *

Pre - Chorus
  Guitar 1 & 2
|-------------------------------------|
|-------------------------------------|
|-------------------------------------|
|-4--3--2-----0--2--4--3--2-----0--2--|
|-4--3--2--2--0--2--4--3--2--2--0--2--|
|----------2-----------------2--------|
           *                 *

Chorus
  Guitar 1 & 2
|----------------------------------------------------------|
|----------------------------------------------------------|
|----------------------------------------------------------| x4
|---------4---------------------5h7------------------------|
|-2~--0-2-----5------5-4--5h7---------5h7--9-8----7h9------|
|-----------5-3--2-3---2------0-----0----------9~-----10\--|
      * *   *    * *          *     *

|-------------------|
|-------------------|
|-------------------|
|----------------5--|
|-5--------2-----3--|
|-3--------0--------|

Pre - Verse (Drover)
  Guitar 2
|--------------------------------------------------------------------|
|-12~~~~~~~~~~~~~~~~~~~~~~15--13~~~~~~~~~~~~----17b----17-15-12--13--|
|--------------------------------------------------------------------|
|--------------------------------------------------------------------|
|--------------------------------------------------------------------|
|--------------------------------------------------------------------|

  Guitar 1
|--------------------------------------------------------------------|
|--------------------------------------------------------------------|
|--------------------------------------------------------------------|
|-4-----3-----2-------------------4-----3-----2----------------------|
|---0-2---0-2---2-5-3-2-0-2~--0-3---0-2---0-2---2-5-3-2--0-2~---0-4--|
|--------------------------------------------------------------------|
    * *   * *   *   * * *     * *   * *   * *   *   * *         * *

  Guitar 2
|------------------14b-14b~------------------------------------------|
|-14~~~~~~~~~~~~~------------14-13~~~~~~~~~~~~~---15b-15b~-----12h15-|
|--------------------------------------------------------------------|
|--------------------------------------------------------------------|
|--------------------------------------------------------------------|
|--------------------------------------------------------------------|


  Guitar 1
|--------------------------------------------------------------------|
|--------------------------------------------------------------------|
|--------------------------------------------------------------------|
|-4-----3-----2-------------------4-----3-----2----------------------|
|---0-2---0-2---2-5-3-2-0-2~--0-3---0-2---0-2---2-5-3-2--0-2~---0-2--|
|--------------------------------------------------------------------|
    * *   * *   *   * * *     * *   * *   * *   *   * *         * *

  Guitar 2
|------------------------------------------------------------------|
|-12~~~~~~~~~~~~~~~\\\\\-------------------------------------------|
|------------------------------------------------------------------|
|------------------------------------------------------------------|
|------------------------------------------------------------------|
|------------------------------------------------------------------|


  Guitar 1
|------------------------------------------------------------------|
|------------------------------------------------------------------|
|------------------------------------------------------------------|
|-4-----3-----2-------------------4-----3-----2--------------------|
|---0-2---0-2---2-5-3-2-0-2~--0-3---0-2---0-2---2-5-3-2-0-2-----2--|
|-----------------------------------------------------------0-2----|
    * *   * *   *   * * *     * *   * *   * *   *   * * *


Verse x3

Pre - Chorus x3

|--------------------|
|--------------------|
|--------------------|
|-4a-4a--------------|
|---------4-------7--|
|---------2-------5--|

Chorus x4

|-------------------|
|-------------------|
|-------------------|
|----------------5--|
|-5--------2-----3--|
|-3--------0--------|

(Solo - Drover)
  Guitar 2
|------------------------------------------------------------------|
|------------------------------------------------------------------|
|-12a-(Pull up on dive bomb)-------------------4b-4p2--4a~~~~------|
|-------------------------------------------------------------2/4--|
|------------------------------------------------------------------|
|------------------------------------------------------------------|

  Guitar 1
|------------------------------------------------------------------|
|------------------------------------------------------------------|
|------------------------------------------------------------------|
|------------------------------------------------------------------|
|-------4-----------3---------3---------4-----------3---------3----|
|-2-0-2---2-0-2-0-2---2-0-2-0---0-2-0-2---2-0-2-0-2---2-0-2-0---0--|
  * * *   * * * * *   * * * *     * * *   * * * * *   * * * *

  Guitar 2
|------------------------------------------------------------------|
|------------------------------------------------------------------|
|-6p4-----7p4-7p4-----6p4-6p4-----7p4-----6p4-----6p4-----6p4---4--|
|-----7p4---------7p4---------7p4-----7p4-----7p4-----7p4-----7----|
|------------------------------------------------------------------|
|------------------------------------------------------------------|

  Guitar 1
|------------------------------------------------------------------|
|------------------------------------------------------------------|
|------------------------------------------------------------------|
|------------------------------------------------------------------|
|-------------4-----------------------3-------------------3--------|
|-2---0---2-------2---0---2---0---2-------2---0---2---0-------0----|
  *   *   *       *   *   *   *   *       *   *   *   *

  Guitar 2
|-------------------------------------------------------------------------------------------|
|-------------------------------------------------------------------------------------------|
|-11p9------11p9-11p9----9-11p9-11p9-------14p11----11-14p11-------16p14----------16b---14--|
|------11p9-----------11-------------11-11-------14----------14p11-------16p14--------------|
|-------------------------------------------------------------------------------------------|
|-------------------------------------------------------------------------------------------|

  Guitar 1
|------------------------------------------------------------------|
|------------------------------------------------------------------|
|------------------------------------------------------------------|
|------------------------------------------------------------------|
|-------------4-----------------------3-------------------3--------|
|-2---0---2-------2---0---2---0---2-------2---0---2---0-------0----|
  *   *   *       *   *   *   *   *       *   *   *   *

(Solo - Mustaine)
  Guitar
|----------------------------------------------------------------------------------------|
|----------------------------------------------------------------------------------------|
|----------------------------------------------------------------------------------------|
|-------------------------------------------------------------------14h16p14-------------|
|----------------------------13h14p13----14h161616161617p1616161616------------------16--|
|-12h141414141415p1414141414----------15-------------------------------------------------|

  Guitar 1
|------------------------------------------------------------------|
|------------------------------------------------------------------|
|------------------------------------------------------------------|
|------------------------------------------------------------------|
|-------------4-----------------------3-------------------3--------|
|-2---0---2-------2---0---2---0---2-------2---0---2---0-------0----|
  *   *   *       *   *   *   *   *       *   *   *   *

  Guitar 2
|--------------------------------------------------------------------19222323\-----------|
|-------------------------------------------------------161719171920---------------------|
|--------------------------------15h16p15----1516181618----------------------------------|
|-14h1616161616161617p1616161617----------17---------------------------------------------|
|----------------------------------------------------------------------------------------|
|----------------------------------------------------------------------------------------|

  Guitar 1
|------------------------------------------------------------------|
|------------------------------------------------------------------|
|------------------------------------------------------------------|
|------------------------------------------------------------------|
|-------------4-----------------------3-------------------3--------|
|-2---0---2-------2---0---2---0---2-------2---0---2---0-------0----|
  *   *   *       *   *   *   *   *       *   *   *   *

  Guitar 2
|--------------------------19171414------------------------------------|
|-191919191714191919191714----------191919191714191919191714-----------|
|------------------------------------------------------------18161618--|
|----------------------------------------------------------------------|
|----------------------------------------------------------------------|
|----------------------------------------------------------------------|

  Guitar 1
|------------------------------------------------------------------|
|------------------------------------------------------------------|
|------------------------------------------------------------------|
|------------------------------------------------------------------|
|-------------4-----------------------3-------------------3--------|
|-2---0---2-------2---0---2---0---2-------2---0---2---0-------0----|
  *   *   *       *   *   *   *   *       *   *   *   *

  Guitar 2
|--------------------------19171414-----------------------------------|
|-191919191714191919191714----------19191919171419191919171419191714--|
|---------------------------------------------------------------------|
|---------------------------------------------------------------------|
|---------------------------------------------------------------------|
|---------------------------------------------------------------------|

  Guitar 1
|------------------------------------------------------------------|
|------------------------------------------------------------------|
|------------------------------------------------------------------|
|------------------------------------------------------------------|
|-------------4-----------------------3-------------------3--------|
|-2---0---2-------2---0---2---0---2-------2---0---2---0-------0----|

  Guitar 2
|-19-17p14---------------------------------------------------------|
|----------17-19-17p14---------------------------------------------|
|----------------------16-14~~~~~~~~~~~~~~~~~~~~~~~~~~~~~~~~~~~~~--|
|------------------------------------------------------------------|
|------------------------------------------------------------------|
|------------------------------------------------------------------|

  Guitar 1
|------------------------------------------------------------------|
|------------------------------------------------------------------|
|------------------------------------------------------------------|
|-/4---------------------------------------------------------------|
|-/5-----------4----------2----------------------------------------|
|--------------5----------3----------------------------------------|

Interlude
  Guitar 2
|-------------------------------------------------------------------------|
|-------------------------------------------------------------------------|
|-/12~~~~-16--14~~~~~~~~~~~------------------12--11~~~~~--11/16--14~~~~~--|
|----------------------------12-------14~~~~------------------------------|
|-------------------------------------------------------------------------|
|-------------------------------------------------------------------------|

  Guitar 3
|-------------------------------------------------------------------------|
|-------------------------------------------------------------------------|
|-/9~~~~~-12--11~~~~~~~~~~~------------------9------------9/12---11~~~~~--|
|----------------------------9--------10~~~~-----12~~~~~------------------|
|-------------------------------------------------------------------------|
|-------------------------------------------------------------------------|

  Guitar 1
|----------------------------------------------------------------0--------|
|----------------------------0-------------------------------------0------|
|-------0-----------0----------0-------------0-----------0-----------0----|
|-----4---4-------4---4----------4---------4---4-------4----4----------4--|
|---2-------2---3-------3----------3-----2-------2---3--------3-----------|
|-0-----------0-----------0------------0-----------0----------------------|

  Guitar 2
|------------------------------------------------------------------------|
|---------------------------13/15----13~~~~-15--17~~~~~--15----13--------|
|-12~~~~-14--16~~~~~~~~~~~----------------------------------------16-14--|
|------------------------------------------------------------------------|
|------------------------------------------------------------------------|
|------------------------------------------------------------------------|

  Guitar 3
|------------------------------------------------------------------------|
|---------------------------10/12----10~~~~-12--13~~~~~--12----10--------|
|-9~~~~~-11--12~~~~~~~~~~~----------------------------------------12-11--|
|------------------------------------------------------------------------|
|------------------------------------------------------------------------|
|------------------------------------------------------------------------|

  Guitar 1
|----------------------------------------------------------------0--------|
|----------------------------0-------------------------------------0------|
|-------0-----------0----------0-------------0-----------0-----------0----|
|-----4---4-------4---4----------4---------4---4-------4----4----------4--|
|---2-------2---3-------3----------3-----2-------2---3--------3-----------|
|-0-----------0-----------0------------0-----------0----------------------|

  Guitar 2
|------------------------------------------------------------------------|
|------------------------------------------------------------------------|
|-12~~~~-16--14~~~~~~~~~~~------------------12--11~~~~~--11/16--14~~~~~--|
|---------------------------12-------14~~~~------------------------------|
|------------------------------------------------------------------------|
|------------------------------------------------------------------------|

  Guitar 3
|------------------------------------------------------------------------|
|------------------------------------------------------------------------|
|-9~~~~~-12--11~~~~~~~~~~~------------------9------------9/12---11~~~~~--|
|---------------------------9--------10~~~~-----12~~~~~------------------|
|------------------------------------------------------------------------|
|------------------------------------------------------------------------|

  Guitar 1
|----------------------------------------------------------------0--------|
|----------------------------0-------------------------------------0------|
|-------0-----------0----------0-------------0-----------0-----------0----|
|-----4---4-------4---4----------4---------4---4-------4----4----------4--|
|---2-------2---3-------3----------3-----2-------2---3--------3-----------|
|-0-----------0-----------0------------0-----------0----------------------|

  Guitar 2
|------------19~~~~~~~~~~~--20--22---20~~~~-22--24~~~~~--22----20-19-----|
|-20~~~~-22----------------------------------------------------------22--|
|------------------------------------------------------------------------|
|------------------------------------------------------------------------|
|------------------------------------------------------------------------|
|------------------------------------------------------------------------|

  Guitar 3
|---------------------------8-//10---8-~~~~-10--12~~~~~--10----8---------|
|-8~~~~~-10--12~~~~~~~~~~~--10//12---10~~~~-12--13~~~~~--12----10-12-10--|
|-9~~~~~-11--12~~~~~~~~~~~----------------------------------------12-11--|
|------------------------------------------------------------------------|
|------------------------------------------------------------------------|
|------------------------------------------------------------------------|

  Guitar 1
|----------------------------------------------------------------0--------|
|----------------------------0-------------------------------------0------|
|-------0-----------0----------0-------------0-----------0-----------0----|
|-----4---4-------4---4----------4---------4---4-------4----4----------4--|
|---2-------2---3-------3----------3-----2-------2---3--------3-----------|
|-0-----------0-----------0------------0-----------0----------------------|

Bridge
  Guitar 2
|-14h15p14p12/11-12h14h15p14p12p11-12h14h15p14p12p11-12h14h15p14p12p1112h14p12p11|
|--------------------------------------------------------------------------------|
|--------------------------------------------------------------------------------|
|--------------------------------------------------------------------------------|
|--------------------------------------------------------------------------------|
|--------------------------------------------------------------------------------|

--------------------------------------|
------1310h12h13p12p10----------------|
-----------------------12p11p9h11h12--|
--------------------------------------|
--------------------------------------|
--------------------------------------|

  Guitar 1
|--------------------------------------------------------|
|--------------------------------------------------------|
|--------------------------------------------------------|
|--------------------------------------------------------|
|-9---------------9---------------9---------------9---7--|
|-7---7---7---7---7---7---7---7---7---7---7---7---7---5--|
      *   *   *       *   *   *       *   *   *

  Guitar 2
|----------------------------------------------------------------------|
|-10h12h13p12p10----10-------------------------------------------------|
|----------------12----12p11p9\8h9h11p9p8------------------------------|
|-----------------------------------------10-9---7---------------------|
|----------------------------------------------------9----7-6~~~~~~\\--|
|----------------------------------------------------------------------|

  Guitar 1
|-----------------------------------------------------------|
|-----------------------------------------------------------|
|-----------------------------------------------------------|
|-----------------------------------------------------------|
|-9---------------9---------------9---------------9---10\\--|
|-7---7---7---7---7---7---7---7---7---7---7---7---7---8-\\--|
      *   *   *       *   *   *       *   *   *


Chorus x4

Outro Chorus (PLAY x4)
  Guitar 2
|------------------------------------------------------------------|
|------------------------------------------------------------------|
|------------------------------------------------------------------|
|---------4----------------------9h10------------------------------|
|-2~--0-2-----5------5-4--9h10----------9h10--12-11-----10h12------|
|-----------5-3--2-3---2-------0------0-------------13~-------14\--|
      * *   *    * *           *      *


  Guitar 1
|----------------------------------------------------------|
|----------------------------------------------------------|
|----------------------------------------------------------|
|---------4---------------------5h7------------------------|
|-2~--0-2-----5------5-4--5h7---------5h7--9-8----7h9------|
|-----------5-3--2-3---2------0-----0----------9~-----10\--|
      * *   *    * *          *     *

|---------------------------|
|---------------------------|
|---------------------------|
|----------------5----4\\---|
|-5--------2-----3----2\\---|
|-3--------0----------------|


    
         4.United Abominations


 Intro)

   (Less Distortion) Riff 1
|---------------------------------------------------------------------|
|-------3-2-----------3-5---------3-2---------3-5------3-5----3-2-----|
|-------0-0-----------0-0---------0-0---------0-0------0-0----0-0-----|
|----2-------------2-----------2-----------2--------------------------|
|--0-------------0-----------0-----------0----------------------------|
|---------------------------------------------------------------------|

   (More Distortion)  Riff 2 [Repeated through out song]
|--------------------------------|
|--------------------------------|
|--------------------------------|
|----0------------0--------------|
|----3---6-5------3---6-8--------|
|--4-----7-7----4-----7-9--------|

    Riff 3
PM...................................................................................|
|------------------|-----------------|-----------------|------------------------------|
|------------------|-----------------|-----------------|------------------------------|
|-----------------*|----------------*|----------------*|------------------------------|
|-----------------*|----------------*|----------------*|------------------------------|
|------------------|-----------------|-----------------|------------------------------|
|-0-000-0-000-000--|-1-111-1-111-111-|-0-000-0-000-000-|/3-3-0-2-3-2-0-/5-5-3-4-5-4-0-|

    Riff 4

  PM...|                    PM..............|
|--------------------------------------------------------------------------|
|--------------------------------------------------------------------------|
|--------------------------------------------------------------------------|
|------------------------5------------------------------------5--------7-7-|
|----------5---7---------------------------------5---7-----------------x-x-|
|-0-0-0-/7---7---7---2\3---3-2-3-2-1---0-0-0-/7---7---7---2\3---3-3/5--5-5-|

     Riff 5             (Riff 4 and 5 are the pre-chorus/chorus)
|--------------------------------------------------------------------------|
|--------------------------------------------------------------------------|
|--------------------------------------------------------------------------|
|----------5---7-------------7-----------------5---7-----------------------|
|-3-3-3-/7---7---7--5-5-5-/9---9-9----3-3-3-/7---7---7\--5-3-2---3-2---3---|
|----------------------------------7\--------------------------5-----5-----|


    Solos


     Drover          (Bend Full, drop 1/2 then bend 1 step higher)
|-----------------21-22---------------------------------------|
|-19p18-19v-19-22-------22-19v----17br15--17v\----------------|
|-------------------------------------------------------------|
|-------------------------------------------------------------|
|-------------------------------------------------------------|
|-------------------------------------------------------------|
    Mustaine
|-----7-10p7-------------9-12p9-----------------10---------------------------|
|---8--------8---10---10---------10---10-10-------10---------9-7--7b---------|
|-7------------7----9---------------9--------9b-----9--7-----9-7--7b---------|
|--------------------------------------------------------9-------9---9-7-----|
|------------------------------------------------------------------------10v-|
|----------------------------------------------------------------------------|

    Drover
|-16/17-14--------------------------------------------------|
|----------15---------------------------12v-14v-15v-17v-19v-|
|-------------14\11---------------11-14---------------------|
|-------------------12---------12---------------------------|
|----------------------14-9-14------------------------------|
|-----------------------------------------------------------|


    Mustaine
|----12-------------------------------------------12--8-----------------|
|-------12-----------------------------10---------------10--------------|
|-9v-------12-11v--9-----9-12--9----9-----9-----9----------12p11--9-----|
|--------------------12----------12---------12----------------------12--|
|-----------------------------------------------------------------------|
|-----------------------------------------------------------------------|


|----12----------------15-15-15-15-15-14-12-15-15--15-15-15-15p14-|
|------12----12v--------------------------------------------------|
|-9v-----12--11v--9-8---------------------------------------------|
|-----------------------------------------------------------------|
|-----------------------------------------------------------------|
|-----------------------------------------------------------------|

|-14-12-12-12/17-17-17-15-14-19-19-19-19-19-19-17-15-15-20-20-20-|
|----------------------------------------------------------------|
|----------------------------------------------------------------|
|----------------------------------------------------------------|
|----------------------------------------------------------------|
|----------------------------------------------------------------|

|-20-20-19-19-17-22-22-22-20-20-19-19-|
|-------------------------------------|
|-------------------------------------|
|-------------------------------------|
|-------------------------------------|
|-------------------------------------|

    Drover
|-----22b--22-22p19--19h20--19--19--19--19--19------------------------------------|
|-24v--------------22-----22--20--19--20--20---18v--18bv-18p17h18p17--17----------|
|-------------------------------------------------------------------19--19b--17---|
|------------------------------------------------------------------------------19-|
|---------------------------------------------------------------------------------|
|---------------------------------------------------------------------------------|


|------------------------------------------------------|
|------------------------------------------------------|
|-17p16--17p16---17-16v-----16-------------------------|
|------19-----19---------19---18v--15h18p15-14--15-14v-|
|---------------------------------------------17-------|
|------------------------------------------------------|


|---------------------------------------------------------17h20p19h20-----------19h22p20h22-24v-|
|----------------------------------------------17h20p19h20-----------19h22p20h22----------------|
|-----------------------14h17p16h17-16h19p18h19-------------------------------------------------|
|------------14h17p16h17------------------------------------------------------------------------|
|-14h17p16h17-----------------------------------------------------------------------------------|
|-----------------------------------------------------------------------------------------------|

                5.Gears of war

Intro
    Q=76
   4/4
    Gtr II
    E  E E E  E  E E E   E  E E E  E  E E E
||-----2-3-------2-3---|--------------------|
||o-5------4--5------4-|----3-5----5--4-----|
||---------------------|-5------4-----------|
||---------------------|----------------5-4-|
||o--------------------|--------------------|
||---------------------|--------------------|
|
|   Gtr I
|   Q.     E +H          Q.     E +Q    E E
||---------------------|--------------------|
||o--------------------|--------------------|
||---------------------|--------------------|
||---------8-(8)-------|-5------4-(4)-------|
||o-2------6-(6)-------|-3------2-(2)---2-1-|
||--0------6-(6)-------|----------------3-2-|


  E  E E E  E  E E E   E  E E E  E  E E E
|----2-3-------2-3---|---------------------||
|-5------4--5------4-|----3-5----5--4-----o||
|--------------------|-5------4------------||
|--------------------|----------------5-4--||
|--------------------|--------------------o||
|--------------------|---------------------||
|
| Q.     E +H          Q.     E +Q    E E
|--------------------|---------------------||
|--------------------|--------------------o||
|--------------------|---------------------||
|--------8-(8)-------|-5------4-(4)--------||
|-2------6-(6)-------|-3------2-(2)---2-1-o||
|-0------6-(6)-------|----------------3-2--||


    Gtr III
    E   E   E   E   E   E   E   E
||----------------------------------|
||o-----0---------------------------|
||----------------------0-----------|
||----------------------------------|
||o-2-------2-------1-------1-------|
||--------------0---------------0---|
|
|   Gtr I
|   PM-------------------------------
|   S S S S S S S S S S S S S S S S
||----------------------------------|
||o---------------------------------|
||----------------------------------|
||----------------------------------|
||o---------------------------------|
||--0-0-0-0-0-0-0-0-0-0-0-0-0-0-0-0-|


  1.,2.                               3.
  E   E   E   E   E   E   E   E    3x E   E   E   E   E   E   E   E
|----------------------------------||---------------------------------||
|---------------------------------o||---------------------------------||
|---------------------0------------||---------------------------------||
|-----4----------------------------||-----4---------------2-----------||
|-0-------0-------1-------1-------o||-0-------0-----------------------||
|-------------0---------------0----||-------------0---0-------0---0---||
|
|-------------------------------------------------------------------|
| S S S S S S S S S S S S S S S S  3x S S S S S S S S S S S S S S S S
|----------------------------------||---------------------------------||
|---------------------------------o||---------------------------------||
|----------------------------------||---------------------------------||
|----------------------------------||---------------------------------||
|---------------------------------o||---------------------------------||
|-0-0-0-0-0-0-0-0-0-0-0-0-0-0-0-0--||-0-0-0-0-0-0-0-0-0-0-0-0-0-0-0-0-||


 Pre-Verse
  Q=128
  Gtr I
                                     PM--|
  W          +H     +E  E E E   +Q   E E E E E E
|----------|------------------|------------------|
|----------|------------------|------------------|
|----------|------------------|------------------|
|----------|------------0-1-2-|-(2)--------0-1-2-|
|-2--------|-(2)----(2)-0-1-2-|-(2)--------0-1-2-|
|-0--------|-(0)----(0)-------|------0-0-0-------|


       PM--|              PM--|              PM--|
  +Q   E E E E E E   +Q   E E E E E E   +Q   E E E E E E
|------------------|------------------|-------------------|
|------------------|------------------|-------------------|
|------------------|------------------|-------------------|
|-(2)--------0-1-2-|-(2)--------0-2-3-|-(3)--------0-1-2--|
|-(2)--------0-1-2-|-(2)--------0-2-3-|-(3)--------0-1-2--|
|------0-0-0-------|------0-0-0-------|------1-1-1--------|


  $
       PM--|              PM--|              PM--|              PM--|
  +Q   E E E E E E   +Q   E E E E E E   +Q   E E E E E E   +Q   E E E E E E
|------------------|------------------|------------------|------------------||
|------------------|------------------|------------------|------------------||
|------------------|------------------|------------------|------------------||
|-(2)--------0-1-2-|-(2)--------0-1-2-|-(2)--------0-2-3-|-(3)--------0-1-2-||
|-(2)--------0-1-2-|-(2)--------0-1-2-|-(2)--------0-2-3-|-(3)--------0-1-2-||
|------0-0-0-------|------0-0-0-------|------0-0-0-------|------1-1-1-------||


 Verse
       PM--|              PM--|              PM--|              PM--|
  +Q   E E E E E E   +Q   E E E E E E   +Q   E E E E E E   +Q   E E E E E E
|------------------|------------------|------------------|------------------|
|------------------|------------------|------------------|------------------|
|------------------|------------------|------------------|------------------|
|-(2)--------0-1-2-|-(2)--------0-1-2-|-(2)--------0-2-3-|-(3)--------0-1-2-|
|-(2)--------0-1-2-|-(2)--------0-1-2-|-(2)--------0-2-3-|-(3)--------0-1-2-|
|------0-0-0-------|------0-0-0-------|------0-0-0-------|------1-1-1-------|


       PM--|              PM--|              PM--|              PM--|
  +Q   E E E E E E   +Q   E E E E E E   +Q   E E E E E E   +Q   E E E E E E
|------------------|------------------|------------------|------------------|
|------------------|------------------|------------------|------------------|
|------------------|------------------|------------------|------------------|
|-(2)--------0-1-2-|-(2)--------0-1-2-|-(2)--------0-2-3-|-(3)--------2-3-4-|
|-(2)--------0-1-2-|-(2)--------0-1-2-|-(2)--------0-2-3-|-(3)--------2-3-4-|
|------0-0-0-------|------0-0-0-------|------0-0-0-------|------1-1-1-------|


       PM--|              PM--|              PM--|              PM--|
  +Q   E E E E E E   +Q   E E E E E E   +Q   E E E E E E   +Q   E E E E E E
|------------------|------------------|------------------|------------------|
|------------------|------------------|------------------|------------------|
|------------------|------------------|------------------|------------------|
|-(4)--------2-3-4-|-(4)--------2-3-4-|-(4)--------2-4-5-|-(5)--------0-1-2-|
|-(4)--------2-3-4-|-(4)--------2-3-4-|-(4)--------2-4-5-|-(5)--------0-1-2-|
|------2-2-2-------|------2-2-2-------|------2-2-2-------|------3-3-3-------|


       PM--|              PM--|              PM--|             PM----------|
  +Q   E E E E E E   +Q   E E E E E E   +Q   E E E E E E   +E  E E E E E E E
|------------------|------------------|------------------|-------------------||
|------------------|------------------|------------------|-------------------||
|------------------|------------------|------------------|-------------------||
|-(2)--------0-1-2-|-(2)--------0-1-2-|-(2)--------0-2-3-|-(3)---------------||
|-(2)--------0-1-2-|-(2)--------0-1-2-|-(2)--------0-2-3-|-(3)---------------||
|------0-0-0-------|------0-0-0-------|------0-0-0-------|-----1-1-1-1-1-1-1-||


   Chorus
      PM|      PM|   PM|              PM|      PM|   PM|
    E S S S  S S S E S S S  S E   +E  S S S  S S S E S S S  S E
||------------------------------|-------------------------------|
||o-----------------------------|-------------------------------|
||------------------------------|-------------------------------|
||--9-----9s10-----9-----9s10---|-----------------------------9-|
||o-7-7-7-7s=8-7-7-7-7-7-7s=8-9-|-(9)-----9s10-----9-----9s10-7-|
||----------------------------7-|-(7)-7-7-7s=8-7-7-7-7-7-7s=8---|


                                                    To Coda
      PM|      PM|   PM|              PM|      PM--------|
  +E  S S S  S S S E S S S  S E   +E  S S S  S S S E E E E
|-------------------------------|----------------------------||
|-------------------------------|---------------------------o||
|-------------------------------|----------------------------||
|-(9)-----9s10-----9-----9s10---|----------------------------||
|-(7)-7-7-7s=8-7-7-7-7-7-7s=8-9-|-(9)-----9s10-----9-8-7-5--o||
|-----------------------------7-|-(7)-7-7-7s=8-7-7-7-6-5-3---||


 Pre-Verse
                                                            D.S. al Coda
     PM--|              PM--|              PM--|              PM--|
  Q  E E E E E E   +Q   E E E E E E   +Q   E E E E E E   +Q   E E E E E E
|----------------|------------------|------------------|------------------||
|----------------|------------------|------------------|------------------||
|----------------|------------------|------------------|------------------||
|-2--------0-1-2-|-(2)--------0-1-2-|-(2)--------0-2-3-|-(3)--------0-1-2-||
|-2--------0-1-2-|-(2)--------0-1-2-|-(2)--------0-2-3-|-(3)--------0-1-2-||
|----0-0-0-------|------0-0-0-------|------0-0-0-------|------1-1-1-------||


 Bridge
  Q=132
  &
     ~
  Q  Q  S S E +E      E   +E  E S S E E S S E E
|-----------------------|-----------------------|
|-----------------------|-----------------------|
|-----------------------|-----------------------|
|-----------2-(2)b2.5---|-----------4-2---------|
|-4--4--2h4-----------4-|-(4)-4-2h4---------2-5-|
|-----------------------|---------------2h4-----|


     ~
  Q  Q  S S E +E      E   +E  E S S E E S S E E
|-----------------------|-----------------------|
|-----------------------|-----------------------|
|-----------------------|-----------------------|
|-----------2-(2)b2.5---|-----------4-2---------|
|-4--4--2h4-----------4-|-(4)-4-2h4---------2-5-|
|-----------------------|---------------2h4-----|


     ~
  Q  Q  S S E +E      E   +E  E S S E E S S E E
|-----------------------|-----------------------|
|-----------------------|-----------------------|
|-----------------------|-----------------------|
|-----------2-(2)b2.5---|-----------4-2---------|
|-4--4--2h4-----------4-|-(4)-4-2h4---------2-4-|
|-----------------------|---------------2h4-----|


      ~
   Q  Q  S S E +E      E   +E  E S S E E S S E  E
|------------------------|------------------------||
|------------------------|------------------------||
|------------------------|------------------------||
|------------4-(4)b4.5---|-----------6-4----------||
|-/6--6--4h6-----------6-|-(6)-6-4h6---------7-10-||
|------------------------|---------------7h9------||


 Guitar Solo (Drover)
  Gtr II
|-----------------------|------------------------|
|-----------------------|------------------------|
|-----------------------|------------------------|
|-----------------------|------------------------|
|-----------------------|------------------------|
|-----------------------|------------------------|
|
| Gtr I
|    ~
| Q  Q  S S E +E      E   +E  E S S E E S S E  E
|-----------------------|------------------------|
|-----------------------|------------------------|
|-----------------------|------------------------|
|-----------7-(7)b7.5---|-----------9-7----------|
|-9--9--7h9-----------9-|-(9)-9-7h9---------7-10-|
|-----------------------|---------------7h9------|


|-----------------------|------------------------|
|-----------------------|------------------------|
|-----------------------|------------------------|
|-----------------------|------------------------|
|-----------------------|------------------------|
|-----------------------|------------------------|
|
|    ~
| Q  Q  S S E +E      E   +E  E S S E E S S E  E
|-----------------------|------------------------|
|-----------------------|------------------------|
|-----------------------|------------------------|
|-----------7-(7)b7.5---|-----------9-7----------|
|-9--9--7h9-----------9-|-(9)-9-7h9---------7-10-|
|-----------------------|---------------7h9------|


|-----------------------|-----------------------|
|-----------------------|-----------------------|
|-----------------------|-----------------------|
|-----------------------|-----------------------|
|-----------------------|-----------------------|
|-----------------------|-----------------------|
|
|    ~
| Q  Q  S S E +E      E   +E  E S S E E S S E E
|-----------------------|-----------------------|
|-----------------------|-----------------------|
|-----------------------|-----------------------|
|-----------7-(7)b7.5---|-----------9-7---------|
|-9--9--7h9-----------9-|-(9)-9-7h9---------7-9-|
|-----------------------|---------------7h9-----|


|----------------------------|-------------------------||
|----------------------------|-------------------------||
|----------------------------|-------------------------||
|----------------------------|-------------------------||
|----------------------------|-------------------------||
|----------------------------|-------------------------||
|
|       ~~
|   Q   Q  S  S E +E       E    +e   E S E S E S E S E
|----------------------------|-------------------------||
|----------------------------|-------------------------||
|----------------------------|-------------------------||
|---------------9-(9)b9.5----|-------------------------||
|-/11--11--9h11-----------11-|-(11)-10---9---8---7---6-||
|----------------------------|-------------------------||


 Guitar Solo (Mustaine)
|-----------------------|-----------------------|
|-----------------------|-----------------------|
|-----------------------|-----------------------|
|-----------------------|-----------------------|
|-----------------------|-----------------------|
|-----------------------|-----------------------|
|
|    ~
| Q  Q  S S E +E      E   +E  E S S E E S S E E
|-----------------------|-----------------------|
|-----------------------|-----------------------|
|-----------------------|-----------------------|
|-----------5-(5)b5.5---|-----------7-5---------|
|-7--7--5h7-----------7-|-(7)-7-5h7---------5-8-|
|-----------------------|---------------5h7-----|


|-----------------------|-----------------------|
|-----------------------|-----------------------|
|-----------------------|-----------------------|
|-----------------------|-----------------------|
|-----------------------|-----------------------|
|-----------------------|-----------------------|
|
|    ~
| Q  Q  S S E +E      E   +E  E S S E E S S E E
|-----------------------|-----------------------|
|-----------------------|-----------------------|
|-----------------------|-----------------------|
|-----------5-(5)b5.5---|-----------7-5---------|
|-7--7--5h7-----------7-|-(7)-7-5h7---------5-8-|
|-----------------------|---------------5h7-----|


|-----------------------|-----------------------|
|-----------------------|-----------------------|
|-----------------------|-----------------------|
|-----------------------|-----------------------|
|-----------------------|-----------------------|
|-----------------------|-----------------------|
|
|    ~
| Q  Q  S S E +E      E   +E  E S S E E S S E E
|-----------------------|-----------------------|
|-----------------------|-----------------------|
|-----------------------|-----------------------|
|-----------5-(5)b5.5---|-----------7-5---------|
|-7--7--5h7-----------7-|-(7)-7-5h7---------5-8-|
|-----------------------|---------------5h7-----|


|-----------------------|-----------------------|
|-----------------------|-----------------------|
|-----------------------|-----------------------|
|-----------------------|-----------------------|
|-----------------------|-----------------------|
|-----------------------|-----------------------|
|
|    ~
| Q  Q  S S E +E      E   +E  E S S E E S S E E
|-----------------------|-----------------------|
|-----------------------|-----------------------|
|-----------------------|-----------------------|
|-----------5-(5)b5.5---|-----------7-5---------|
|-7--7--5h7-----------7-|-(7)-7-5h7---------5-8-|
|-----------------------|---------------5h7-----|


         6.Blessed Are the dead


 
Intro
  e ----------------|
  B ----------------|
  G ----------------|
  D ------9---------|
  A 5p0---7---------|
  E ----0-----------|

  e|----------------------------------------------------------------|
  B|----------------------------------------------------------------|
  G|----------------------------------------------------------4-----|
  D|----------------------------------------------------------2-----|
  A|----------------------------------------------------------2-----|
  E|----------------------------------------------------------0-----|

  e ----------------------------------------------------------------|
  B ----------------------------------------------------------------|
  G ----------------------------------------------------------5-----|
  D ----------------------------------------------------------5-----|
  A ----------------------------------------------------5p0---3-----|
  E --------------------------------------------------------0-------|

  e ----------------------------------------------------------------|
  B ----------------------------------------------------------------|
  G ----------------------------------------------------------5-----|
  D --------------------------9-------------------------------5-----|
  A --------------------5p0---7-------------------------5p0---3-----|
  E ------------------------0-------------------------------0-------|

  e ----------------------------------------------------------------|
  B ----------------------------------------------------------------|
  G --------------------------2-------------------------------------|
  D --------------------------2-------------------------------2-----|
  A --------------------5p0---0-------------------------5p0---2-----|
  E ------------------------0-------------------------------0-0-----|


Verse
    Guitar 2 enters w. same pattern
  e|----------------------------------------------------------------|
  B|----------------------------------------------------------------|
  G|----------------------------------------------------------5-----|
  D|--------------------------9-------------------------------5-----|
  A|--------------------5p0---7-------------------------5p0---3-----|
  E|------------------------0-------------------------------0-------|
                                    ¤

  e ----------------------------------------------------------------|
  B ----------------------------------------------------------------|
  G --------------------------2-------------------------------------|
  D --------------------------2-------------------------------2-----|
  A --------------------5p0---0-------------------------5p0---2-----|
  E ------------------------0-------------------------------0-0-----|

  e ----------------------------------------------------------------|
  B ----------------------------------------------------------------|
  G ----------------------------------------------------------------|
  D --------------------------9---------------9---------------9-----|
  A --------------------5p0---7---------5p0---7---------5p0---7-----|
  E ------------------------0---------------0---------------0-------|

  e ----------------------------------------------------------------|
  B ----------------------------------------------------------------|
  G ----------------------------------------------------------------|
  D ----------9---------------9---------------9---------------9-----|
  A ----5p0---7---------5p0---7---------5p0---7---------5p0---7-----|
  E --------0---------------0---------------0---------------0-------|

  e --------------------|
  B --------------------|
  G --------------------|
  D ----------9---------|
  A ----5p0---7---------|
  E 0-0-----0---0-0-0-0-|

  e ----------------------------------------------------------------|
  B ----------------------------------------------------------------|
  G ----------------------------------------------------------------|
  D ----------------------------------------------------------------|
  A 5-2-4---4-4-2m-5m-3s4---4-4-2-5-2-4---4-4-2m-5m-3s4---4-4-5p0---|
  E 3-0-2---2-2-0m-3m-1s2---2-2-0-3-0-2---2-2-0m-3m-1s2---2-2-----0-|

  e ----------------------------------------------------------------|
  B ----------------------------------------------------------------|
  G ----------------------------------------------------------------|
  D 9-------------9---------------9---------------9-----------------|
  A 7-------5p0---7---------5p0---7---------5p0---7---------5p0---7-|
  E --0-000-----0-----0-000----0------0-000----0------0-000----0----|


Brigde
    Guitar 1
  e|----------------------------------------------------------------|
  B|----------------------------------------------------------------|
  G|----------------------------------------------------------------|
  D|----------------------------------------------------------------|
  A|0---0-----0-5-3---5-3-2---------0---0-----0-5-3---5-3-2---------|
  E|--------3-----------------3-0-3---------3-----------------3-0-3-|

    Guitar 2 enters ...
  e|----------------------------------------------------------------|
  B|----------------------------------------------------------------|
  G|------------------------------------------------------1m--2m--3-|
  D|------------3-2---3-2-0---------------------3-2---3-2-----------|
  A|3---3---2-3---------------2-0-2-3---3---2-3---------------------|
  E|----------------------------------------------------------------|

    ... while guitar 1 ends with:
  e ----------------------------------------------------------------|
  B ----------------------------------------------------------------|
  G ----------------------------------------------------------------|
  D ----------------------------------------------------------------|
  A 0---0-----0-5-3---5-3-2---------0---0-----0-5-3---5-3-4m--5m--6-|
  E --------3-----------------3-0-3---------3-----------------------|


Chorus
e ||----------------------------------------------------------------||
B ||----------------------------------------------------------------||
G*||----------------------------------------------------------------||*
D*||9---------------------------------------------------------------||*
A ||7-------5p0---2---------5p0---7-----8s7-X-7s5-X--2--------5p0---||
E ||--0-000-----0-0---0-000-----0-5-----6s5-X-5s3-X--0--0-000-----0-||

  e -----------|
  B -----------|
  G -----------|
  D ------9----|
  A 7-----7----| and continues halfway in the verse (marked ¤)
  E --0m-------|


* Verse *

* Bridge *

* Chorus *


Solo 1 background
  e|----------------------------------------------------------------|
  B|----------------------------------------------------------------|
  G|----------------------------------------------------------------|
  D|----------------------------------------------------------------|
  A|5-2-4---4-4-2m-5m-3s4---4-4-2-5-2-4---4-4-2m-5m-3s4---4-4-------|
  E|3-0-2---2-2-0m-3m-1s2---2-2-0-3-0-2---2-2-0m-3m-1s2---2-2-3-0-2-|

  e ----------------------------------------------------------------|
  B ----------------------------------------------------------------|
  G ----------------------------------------------------------------|
  D 9---------------------------------------------------------------|
  A 7-------5p0---2---------5p0---7-----8s7-X-7s5-X--2--------------|
  E --0-000-----0-0---0-000-----0-5-----6s5-X-5s3-X--0--------------|


Brigde to solo 2 (double tempo!)
e ||----------------------------------------------------------------||
B ||----------------------------------------------------------------||
G*||----------------------------------------------------------------||*
D*||----------------------------------------------------------------||*
A ||----------------------------------------------5-----5-----5-----||
E ||6-5-0-0-0-6-5-0-0-0-6-5-0-6-5-0-0-0-6-5-0-0-0-3-----3-----3-----||


* Solo 2 background *


Ending
  e|----------------------------------------------------------------|
  B|----------------------------------------------------------------|
  G|--------------------------------5---------------2---------------|
  D|2---------------5---------------5---------------2---------------|
  A|2---------------5---------------3---------3-3-3-0---------2-2-2-|
  E|0---------0-0-0-3---------3-3-3---------------------------------|

  e ----------------------------------------------------------------|
  B ----------------------------------------------------------------|
  G ----------------------------------------------------------------|
  D 2---------------------------------------------------------------|
  A 2---------------------------------------------------------------|
  E 0---------------------------------------------------------------|



            7.Play for blood



Intro (Fade in):
e|-------------------------------------------|
B|-------------------------------------------|
G|-------------------------------------------|
D|-------------------------------------------|
A|-------------------------------------------|
E|-2--0-2--2--0-2--2--0-2--2--0-2--2--0-2--0-|

e|-------------------------------------------|
B|-------------------------------------------|
G|-------------------------------------------|
D|-------------------------------------------|
A|-------------------------------------------|
E|-2--0-2--2--0-2--2--0-2--2--0-2--2--0-2--0-|

e|------------------------------------------|
B|------------------------------------------|
G|------------------------------------------|
D|------------------------------------------|
A|-----------------------------------8----7-|
E|-2--0-2--2--0-2--2--0-2--2--0-2--x-6--x-5-|


Solo (Mustaine)
e|-----------------------------------------|
B|-14tr17---[slowly dive on tremolo bar  ]-|
G|----------[then do miscellaneous slides]-|
D|-----------------------------------------|
A|-----------------------------------------|
E|-----------------------------------------|

End Solo



Riff 1                                      x2
e|-------------------------------------------|
B|-------------------------------------------|
G|-------------------------------------------|
D|-------------------------------------------|
A|-------------------------------------------|
E|-2--0-2--2--0-2--2--0-2--2--0-2--2--0-2--0-|

e|--------------------------------------------|
B|--------------------------------------------|
G|--------------------------------------------|
D|----------------------------------------4-x-|
A|--------------------------------------------|
E|-2--0-2--2--0-2--2--0-2--2--0-2--2--0-2-----|
   "Everybody..."
e|---------------------------------|
B|---------------------------------|
G|---------------------------------|
D|-4h5p4-2-4p2-----2---------------|
A|-------------4p3---4-3-2-x-x-x-x-|
E|-------------------------x-x-x-x-|
   "...inside..."
e|-------------------|
B|-------------------|
G|-------------------|
D|-------4--4--------|
A|-4-----2--2--------|
E|-2--5--------5--0--|

e|--------------------------------------------|
B|--------------------------------------------|
G|--------------------------------------------|
D|----------------------------------------4-x-|
A|---------------------------------2----------|
E|-2--0-2--2--0-2--2--0-2--2--0-2-----5-2-----|
   "Any place..."
e|---------------------------------|
B|---------------------------------|
G|---------------------------------|
D|-4h5p4-2-4p2-----2---------------|
A|-------------4p3---4-3-2-x-x-x-x-|
E|-------------------------x-x-x-x-|
   "...lives..."
e|-------------------|
B|-------------------|
G|-------------------|
D|-------4--4-----3--|
A|-4-----2--2p0---3--|
E|-2--5---------0-1--|
                *

Riff 2 (Slide down off last notes final time)
e|-------------------------------|
B|-------------------------------|
G|-------------------------------|
D|--------5----------8---7h8p7p5-|
A|-7--5-7-5-7----x-7---7---------|
E|-7--5-7---7--------------------|
   "With fire and lightning..."
e|------------------------|
B|------------------------|
G|------------------------|
D|--------5---------------|
A|-7--5-7-5-7----x-5--x-6-|
E|-7--5-7---7----x-5--x-6-|
   "...shooting..."

Riff 1a
e|--------------------------------------------|
B|--------------------------------------------|
G|--------------------------------------------|
D|----------------------------------------4-x-|
A|---------------------------------2----------|
E|-2--0-2--2--0-2--2--0-2--2--0-2-----5-2-----|
   "Any place..."
e|---------------------------------|
B|---------------------------------|
G|---------------------------------|
D|-4h5p4-2-4p2-----2---------------|
A|-------------4p3---4-3-2-x-x-x-x-|
E|-------------------------x-x-x-x-|
   "...flight..."
                    x2
e|-------------------|
B|-------------------|
G|-------------------|
D|-------4--4--------|
A|-4-----2--2--------|
E|-2--5--------5--0--|

e|-----------------|
B|-----------------|
G|-----------------|
D|-------4--2--/5--|
A|-4-----2--2--/5--|
E|-2--5------------|


Play Riff 2  Solo Rhythm

Solo (Drover)
e|-------------------------------------------------|
B|------------12--(12)b13r12~----x-/14b15r14\13-10-|
G|-9d4r9--11---------------------------------------|
D|-------------------------------------------------|
A|-------------------------------------------------|
E|-------------------------------------------------|

e|---------------------------12----------------|
B|-12h13-----12-----------12----15p12----14p12-|
G|--------14----15d14r15--------------14-------|
D|---------------------------------------------|
A|---------------------------------------------|
E|---------------------------------------------|

e|-----------------------------------|
B|----12-------12-------15----15b17~-|
G|-15----14-15----14p12----12--------|
D|-----------------------------------|
A|-----------------------------------|
E|-----------------------------------|

e|-14----14-------------------------------|
B|----17----17b19-17b19~~-{17}~--(19)r17\-|
G|----------------------------------------|
D|----------------------------------------|
A|----------------------------------------|
E|----------------------------------------|

End Solo


Riff 3 (Solo Rhythm)
e|---------------------------|
B|---------------------------|
G|---------------------------|
D|---------------------------|
A|-4--------4------3~--2-2-0-|
E|-2--0-2-5-2----x-----------|
      * * *
e|------------------------|
B|------------------------|
G|------------------------|
D|-----------------8----7-|
A|-4--------4------8----7-|
E|-2--0-2-5-2----x----x---|
      * * *

Solo (Mustaine)
e|----------------------------------------------------------|
B|----------------------------------------------------------|
G|-16b18--{16}-{16}-{16}-{16}-...-[slowly release bend]-16~-|
D|--------------------------------[   while picking   ]-----|
A|----------------------------------------------------------|
E|----------------------------------------------------------|

e|----------14h16p14-------------------------------------|
B|-14h16h17----------17p16p14----------14h16p14----------|
G|----------------------------14h16h17----------17p16p14-|
D|-------------------------------------------------------|
A|-------------------------------------------------------|
E|-------------------------------------------------------|

e|-------------------------------------------------|
B|-------------------------------------------------|
G|----------14h16p14-------------14h16p14----------|
D|-14h16h17----------16-14h16h17----------17p16p14-|
A|-------------------------------------------------|
E|-------------------------------------------------|

e|--------------------------------------------------------|
B|--------------------------------------------------------|
G|--------------------------------------------------------|
D|----------14h16p14--------------------------------------|
A|-14h16h17----------17p16p14----------14-15-16~----(16)\-|
E|----------------------------14h16h17--------------------|

End Solo


Riff 1b
e|------------------------------------------|
B|------------------------------------------|
G|------------------------------------------|
D|------------------------------------------|
A|-----------------------------------8----7-|
E|-2--0-2--2--0-2--2--0-2--2--0-2--x-6--x-5-|


Play Riff 1  But don't repeat first line
Play Riff 2
Play Riff 1a
Play Riff 2  Solo Rhythm


Solo (Drover)
e|--------|
B|--------|
G|--------|
D|--------|
A|--------|
E|--/17\--|

e|-------------------------------------------------------------|
B|------17----17~----18-[17]18r17-(17)b18----(18)r17----17-----|
G|-9/16----16----------------------------------------16----16~-|
D|-------------------------------------------------------------|
A|-------------------------------------------------------------|
E|-------------------------------------------------------------|

e|-15h19----15h19----15h20----15h19----15----15h17-|
B|-------17-------17-------17-------17----17-------|
G|-------------------------------------------------|
D|-------------------------------------------------|
A|-------------------------------------------------|
E|-------------------------------------------------|

e|-------------------------------------------------------------|
B|-19/20-19-19p15-14-15p14----14h15----14----14----------------|
G|-------------------------16-------16----16----16/-18~--(18)\-|
D|-------------------------------------------------------------|
A|-------------------------------------------------------------|
E|-------------------------------------------------------------|

End Solo


Play Riff 3


Solo (Mustaine)
e|----------------------------------------------------|
B|----------------------------------------------------|
G|----------------------------------------------------|
D|----------------------------14----16p14-------------|
A|-------14h15p14----14h15h16----16-------16p15p14----|
E|-14-17----------17-------------------------------17-|

e|----------------------------------------------------|
B|----------------------------------------------------|
G|----------------------------14----16p14-------------|
D|-------14h15p14----14h15h16----16-------16p15p14----|
A|-14h16----------16-------------------------------16-|
E|----------------------------------------------------|

e|----------------------------------------14-14----14----|
B|----------------------------14----17-14-------17----17-|
G|-------14h16p14----14h16h17----17----------------------|
D|-14h16----------16-------------------------------------|
A|-------------------------------------------------------|
E|-------------------------------------------------------|

e|-20p18p14-18p17p14-------------------|
B|-------------------19p17p14-17p16p14-|
G|-------------------------------------|
D|-------------------------------------|
A|-------------------------------------|
E|-------------------------------------|

e|--------------------------------------|
B|-19p17p14-----------------------------|
G|----------17p16p14--------------------|
D|-------------------17p16p14-----------|
A|----------------------------16p14-----|
E|----------------------------------16~-|

End Solo


Riff 4 (Solo Rhythm)      x3
e|-------------------------|
B|-------------------------|
G|-------------------------|
D|-------------------------|
A|-6----6----------5-4-0-7-|
E|-4----4----5-4-2-------5-|
             * * * * * *
e|--------------------|
B|--------------------|
G|--------------------|
D|--------------------|
A|-6----6------8----7-|
E|-4----4----x-6--x-5-|


Solo (Drover)
e|-----------------------------------------|
B|-------19~~----------------16------------|
G|-18b20---------18b19r18-16----18-17-16~~-|
D|-----------------------------------------|
A|-----------------------------------------|
E|-----------------------------------------|

e|-----------16-------------16----------16----------|
B|-19-19b20-----19p16-19b20----19p16h19----19p16h19-|
G|--------------------------------------------------|
D|--------------------------------------------------|
A|--------------------------------------------------|
E|--------------------------------------------------|

e|-16----------16---------19b21~~--16-------------|
B|----19p16h19----19p16-x-------------19b21~------|
G|------------------------------------------------|
D|------------------------------------------------|
A|------------------------------------------------|
E|--------------------------------------------16\-|

End Solo



Riff 5 (Solo Rhythm)      x3
e|-------------------------|
B|-------------------------|
G|-------------------------|
D|-------------------------|
A|-8----8----------7-6-0-9-|
E|-6----6----7-6-4-------7-|
             * * * * * *
e|--------------------|
B|--------------------|
G|--------------------|
D|--------------------|
A|-8----8------8----7-|
E|-6----6----x-6--x-5-|


Solo (Mustaine)
e|----------------------------------------|
B|----------------------------------------|
G|--------------------------------------6-|
D|------------------8--6----------6-7-----|
A|------8-6-7-8-6h8-8--6----6-7-8-----8---|
E|-X\\------------------------------------|

e|-----------------18-----18-----18----| The last notes here are played
B|--------------------18-----18-----18-| while diving with the trem. bar.
G|-8--6--8b10~~--------\------------/--| So start diving on the b18 note
D|----------------------\==========/---| and keep a steady dive until last
A|-------------------------------------| note where you dive down a lot.
E|-------------------------------------|

End Solo


Riff 6
e|-----------------------|
B|-----------------------|
G|-----------------------|
D|-----------------------| -----|
A|-4----4----------------|      |
E|-2----2----x-3-2-0-2-0-|      |
               * * * *          |--> Play 3x
e|--------------------|         |
B|--------------------|         |
G|--------------------| --------|
D|--------------------|
A|-7----7-----------7-|
E|-5----5----x-2--x-5-|

e|-----------------------|
B|-----------------------|
G|-----------------------|
D|-4----4----------------|
A|-2----2----------------|
E|-----------x-3-2-0-2-0-|
               * * * *
e|------------------------------------|
B|------------------------------------|
G|------------------------------------|
D|-7----7--------------9--9-----------|
A|-5----5------8----7--7--7-----------|
E|-----------x-6--x-5--------00000000-|
                             ********


Riff 7 (Solo Rhythm)              x3
e|---------------------------------|
B|---------------------------------|
G|---------------------------------|
D|---------------------------------|
A|---------------------------------|
E|-2-2-2-0-5-2--2/-8-8-8-8-5-5-7-5-|
   * * * * * *  *  * * * * * * * *
e|------------------------|
B|------------------------|
G|------------------------|
D|------------------------|
A|----------------2--4/5--|
E|-2-2-2-0-5-2----0--2/3--|
   * * * * * *


Solo (Mustaine)
e|------------------------|
B|-17---------------------|
G|-16b18----14------------|
D|-------------16~--------|
A|------------------------|
E|--------------------X\\-|

e|-------14--------------------------------------|
B|----14----17p14-------14-----------------------|
G|-16-------------16b17----17-16p14----16----14~-|
D|----------------------------------16----16-----|
A|-----------------------------------------------|
E|-----------------------------------------------|

e|--------------------------------------------------|
B|--------------------------------------------------|
G|-------14-16p14----14-----------------------------|
D|-14-16----------16----16p15p14----14--------------|
A|-------------------------------16----16p14--------|
E|-------------------------------------------17-14~-|

The first three notes lightly ring into the last note for these
diminished groups.  So hold the first three notes and strike them
using a downstroke, then upstroke the e17.
e|-------14-17----------14-17--------14-17--------14-17-|
B|----16-------------16-----------16-----------16-------|
G|-17-------------17-----------17-----------17----------|
D|------------------------------------------------------|
A|------------------------------------------------------|
E|------------------------------------------------------|

e|-------------------------------------|
B|-19-17-14-14-14-14-19-17-14-14-14-14-|
G|-------------------------------------|
D|-------------------------------------|
A|-------------------------------------|
E|-------------------------------------|

e|-------------------------------------|
B|-20-18-15-15-15-15-20-18-15-15-15-15-|
G|-------------------------------------|
D|-------------------------------------|
A|-------------------------------------|
E|-------------------------------------|

e|-------------------------------------|
B|-21-19-16-16-16-16-21-19-16-16-16-16-|
G|-------------------------------------|
D|-------------------------------------|
A|-------------------------------------|
E|-------------------------------------|

e|-------------------------------------------------|
B|-22-20-17-17-17-17-22-20-17-17-17-17-21----(21)\-|
G|-------------------------------------20----(20)\-|
D|-------------------------------------------------|
A|-------------------------------------------------|
E|-------------------------------------------------|

End Solo


Riff 8 (Solo Rhythm)
e|--------------------------------|
B|--------------------------------|
G|--------------------------------|
D|--------------------------------|
A|--------------x-5-5-5-5-4-4-4-4-|
E|-4-4-4-4-7-4--------------------|
   * * * * * *    * * * * * * * *
e|--------------------------------|
B|--------------------------------|
G|--------------------------------|
D|--------------------------------|
A|--------------x-4h5---4---------|
E|-4-4-4-4-7-4--------7---5h7-4h5-|
   * * * * * *
e|--------------------------------|
B|--------------------------------|
G|--------------------------------|
D|--------------------------------|
A|--------------x-5-5-5-5-4-4-4-4-|
E|-4-4-4-4-7-4--------------------|
   * * * * * *    * * * * * * * *
e|------------------------|
B|------------------------|
G|------------------------|
D|------------------------|
A|------------------------|
E|-4-4-4-4-7-4--1//-11\\--|
   * * * * * *

Play Riff 7   Solo Rhythm


Solo (Drover)
e|---------------22----19----------|
B|-19b21--{19}~-----21----21-------|
G|---------------------------20\16-|
D|---------------------------------|
A|---------------------------------|
E|---------------------------------|

e|----------------------------------------|
B|----------------------------------------|
G|----18----16----------------------------|
D|-18----18----18-16----16-------------16-|
A|-------------------18----18-17-16-15-15-|
E|----------------------------------------|

e|---------------------------------------------|
B|----------------------------7----------------|
G|----------------------6h7h9---9p7p6-----8/16-|
D|-(16)----16~----6h7h9---------------9p7------|
A|-(15)----15~---------------------------------|
E|---------------------------------------------|

e|------------------------------------------------------|
B|----------------------------------14----14----14------|
G|-16b18----{16}-{16}-{16}-(18)r16-----17----16----14~--|
D|------------------------------------------------------|
A|------------------------------------------------------|
E|------------------------------------------------------|

e|-------------------------------------|
B|----------14----------------14-------|
G|-14-16-17----17-16-14-16-17----17-16-|
D|-------------------------------------|
A|-------------------------------------|
E|-------------------------------------|

e|----------------------------14----------------14----|
B|----------14-16-17-14-16-17----17-16-14-16-17----17-|
G|-14-16-17-------------------------------------------|
D|----------------------------------------------------|
A|----------------------------------------------------|
E|----------------------------------------------------|

e|----------15-------------16-17-19b21~--(21)r19p17----17-14~--(14)\-|
B|-14-16-17----17-16-17-19--------------------------19---------------|
G|-------------------------------------------------------------------|
D|-------------------------------------------------------------------|
A|-------------------------------------------------------------------|
E|-------------------------------------------------------------------|

End Solo


Riff 9 (Out chorus and solo rhythm)
e|---------------------------|
B|---------------------------|
G|---------------------------|
D|---------------------------|
A|-4--------4-------3--2-2-0-|
E|-2----0-5-2----0-----------|
        * *      *
e|---------------------------|
B|---------------------------|
G|---------------------------|
D|---------------------------|
A|-4--------4------3~--2-2-0-|
E|-2----0-5-2----0-----------|
        * *      *
e|-----------------------------|
B|-----------------------------|
G|-----------------------------|
D|-------------------------4-x-|
A|-4--------4------3p0-2p0-----|
E|-2----0-5-2----0-------------|
        * *      *
e|---------------------------------|
B|---------------------------------|
G|---------------------------------|
D|-4h5p4-2-4p2-----2---------------|
A|-------------4p3---4-3-2-x-x-x-x-|
E|-------------------------x-x-x-x-|
                            
e|---------------------------|
B|---------------------------|
G|---------------------------|
D|---------------------------|
A|-4--------4-------3--2-2-0-|
E|-2----0-5-2----0-----------|
        * *      *
e|---------------------------|
B|---------------------------|
G|---------------------------|
D|---------------------------|
A|-4--------4------3~--2-2-0-|
E|-2----0-5-2----0-----------|
        * *      *
e|---------------------------|
B|---------------------------|
G|---------------------------|
D|---------------------------|
A|-4--------4------3p0-2-2-0-|
E|-2----0-5-2----0-----------|
        * *      *
e|-----------------------------------------|
B|-----------------------------------------|
G|-----------------2h4p2---2-4-5p4p2-------|
D|-4h5-2-4---2-----------4-----------5p4p2-|
A|---------5---4h5-------------------------|
E|-----------------------------------------|

Repeat above, end with:
e|------|
B|------|
G|------|
D|------|
A|--4\--|
E|--2\--|


Ending Solos:

Solo (Mustaine)
e|-------------------|
B|-------------------|
G|--4b6-4--2--4--2~--|
D|---------------a---|
A|-------------------|
E|-------------------|

End Solo


Solo (Drover)
e|----14-19----14-19----14-19----14----------|
B|-17-------17-------17-------17----17-14----|
G|----------------------------------------17-|
D|-------------------------------------------|
A|-------------------------------------------|
E|-------------------------------------------|

e|-14-----------17-16-14----14---------------------------------|
B|-----------------------17----17-14----14---------------------|
G|----17-16-14-----------------------17----17-16-14------------|
D|--------------------------------------------------16~--(16)\-|
A|-------------------------------------------------------------|
E|-------------------------------------------------------------|

End Solo



Solo (Mustaine)
e|-17-14----14-14-14-19-14----14-14-14-|
B|-------17----------------17----------|
G|-------------------------------------|
D|-------------------------------------|
A|-------------------------------------|
E|-------------------------------------|

e|-17-14----14-14-14-19-14----14-14-14---------------|
B|-------17----------------17----------17b19~--(17)\-|
G|---------------------------------------------------|
D|---------------------------------------------------|
A|---------------------------------------------------|
E|---------------------------------------------------|

End Solo


Solo (Drover)
e|---------------------|
B|---------------------|
G|-16b18-16-14-16-14~~-|
D|---------------------|
A|---------------------|
E|---------------------|

e|----------------------------------------------|
B|----------------------------------------------|
G|-16p14----14-16h17p16p14----------------------|
D|-------16----------------17-16-14-16~~--(16)\-|
A|----------------------------------------------|
E|----------------------------------------------|

End Solo



               8.A tout le monde(set me free)


Intro:
------
       Acoustic (Let Ring)                                           Play 4x
eb---||----------------|----------------|----------------|----------------||
Bb---||----------------|----------------|----------------|----------------||
Gb---||----2-----2-----|----2-----2-----|----2-----2-----|----------------||
Db---||--4-----4-----4-|--4-----4-----4-|--4-----4-------|--4-7-------7---||
Ab---||----------------|----------------|2-----2-----2---|----------9-----||
Eb---||2-----2-----2---|0-----0-----0---|--------------2/|3-----3/5-----3-||


Verse 1:
--------

(Guitar1)--------|----------------|----------------|----------------|
|----------------|----------------|----------------|----------------|
|----------------|----------------|----------------|----------------|
|4-------------7-|--------------7/|9-----------9---|4---------------|
|4-------4-4-4-7-|------------7-7/|9---------9-9-9-|4-------------4-|
|2-------2-2-2-5-|------------5-5/|7---------7-7-7-|2-------------2-|
         . . .                .              .   .                .

                                                                Play 2x
|----------------|----------------|----------------||-----------------------||
|----------------|----------------|----------------||-----------------------||
|----------------|----------------|----------------||-----------------------||
|4-------------7-|--------------7/|9-----------9---||12-12-12-12-12-12-12-11||
|4-------4-4-4-7-|------------7-7/|9---------9-9---||12-12-12-12-12-12-12-11||
|2-------2-2-2-5-|------------5-5/|7---------7-7---||10-10-10-10-10-10-10-9-||
         . . .                .              .

Chorus:
-------

 Let ring
|------9---------|------7---------|------7---------|------5---------|
|---10---10----10|---9----9-----7-|---7----7-----7-|---7----7-----5-|
|9----------9----|9----------9----|8----------8----|6----------6----|
|----------------|----------------|----------------|----------------|
|----------------|----------------|----------------|----------------|
|----------------|----------------|----------------|----------------|
|                |                |                |                |
(Guitar2)--------|----------------|----------------|----------------|
|----------------|----------------|----------------|----------------|
|----------------|----------------|4---------------|----------------|
|4---------------|2---------------|4---------------|4---------------|
|4---------------|2---------------|2---------------|4---------------|
|2---------------|0---------------|----------------|2---------------|

|------9---------|------7---------|------7---------|----------------|
|---10---10----10|---9----9-----7-|--------7-------|----------------|
|9----------9----|9----------9----|---8-------8----|7---------------|
|----------------|----------------|9-------------9-|7---------------|
|----------------|----------------|----------------|----------------|
|----------------|----------------|----------------|----------------|
|                |                |                |                |
|----------------|----------------|----------------|----------------|
|----------------|----------------|----------------|----------------|
|2---------------|6---------------|4---------------|----------------|
|2---------------|6---------------|4---------------|0---------------|
|0---------------|4---------------|2---------------|0---------------|
|----------------|----------------|----------------|----------------|


Verse 2:
--------

  Acoustic (Let Ring)                                           Play 2x
||----------------|----------------|----------------|----------------||
||----------------|----------------|----------------|----------------||
||----2-----2-----|----2-----2-----|----2-----2-----|----------------||
||--4-----4-----4-|--4-----4-----4-|--4-----4-------|--4-7-------7---||
||----------------|----------------|2-----2-----2---|----------9-----||
||2-----2-----2---|0-----0-----0---|--------------2/|3-----3/5-----3-||
||                |                |                |                ||
|(Guitar1)--------|----------------|----------------|----------------||
||----------------|----------------|----------------|----------------||
||----2-----2-----|----2-----2-----|----2-----2-----|----------------||
||--4-----4-----4-|--4-----4-----4-|--4-----4-------|--4-7-------7---||
||----------------|----------------|2-----2-----2---|----------9-----||
||2-----2-----2---|0-----0-----0---|--------------2/|3-----3/5-----3-||
  . .   . .   .    . .   . .   .    . .   . .   .      .       .
    

(Guitar1)--------|----------------|----------------|----------------|
|----------------|----------------|----------------|----------------|
|----------------|----------------|----------------|----------------|
|4-------------7-|--------------7/|9-----------9---|4---------------|
|4-------4-4-4-7-|------------7-7/|9---------9-9-9-|4-------------4-|
|2-------2-2-2-5-|------------5-5/|7---------7-7-7-|2-------------2-|
         . . .                .              .   .                .

                                                                Play 2x
|----------------|----------------|----------------||-----------------------||
|----------------|----------------|----------------||-----------------------||
|----------------|----------------|----------------||-----------------------||
|4-------------7-|--------------7/|9-----------9---||12-12-12-12-12-12-12-11||
|4-------4-4-4-7-|------------7-7/|9---------9-9---||12-12-12-12-12-12-12-11||
|2-------2-2-2-5-|------------5-5/|7---------7-7---||10-10-10-10-10-10-10-9-||
         . . .                .              .


Chorus:
-------

 Let ring
|------9---------|------7---------|------7---------|------5---------|
|---10---10----10|---9----9-----7-|---7----7-----7-|---7----7-----5-|
|9----------9----|9----------9----|8----------8----|6----------6----|
|----------------|----------------|----------------|----------------|
|----------------|----------------|----------------|----------------|
|----------------|----------------|----------------|----------------|
|                |                |                |                |
(Guitar2)--------|----------------|----------------|----------------|
|----------------|----------------|----------------|----------------|
|----------------|----------------|4---------------|----------------|
|4---------------|2---------------|4---------------|4---------------|
|4---------------|2---------------|2---------------|4---------------|
|2---------------|0---------------|----------------|2---------------|

|------9---------|------7---------|------7---------|----------------|
|---10---10----10|---9----9-----7-|--------7-------|----------------|
|9----------9----|9----------9----|---8-------8----|7---------------|
|----------------|----------------|9-------------9-|7---------------|
|----------------|----------------|----------------|----------------|
|----------------|----------------|----------------|----------------|
|                |                |                |                |
(Guitar2)--------|----------------|----------------|----------------|
|----------------|----------------|----------------|----------------|
|2---------------|6---------------|4---------------|----------------|
|2---------------|6---------------|4---------------|0---------------|
|0---------------|4---------------|2---------------|0---------------|
|----------------|----------------|----------------|----------------|


Lead Solo 1:
------------
                                                                Play 2x
|(Guitar1)--------|----------------|----------------|----------------||
||----------------|----------------|----------------|----------------||
||----------------|----------------|4---------------|----------------||
||4---------------|2---------------|4---------------|5-----5-7-----5-||
||4---------------|2---------------|2-------------4-|5-----5-7-----5-||
||2---------------|0---------------|--------------2-|3-----3-5-----3-||


Marty : (Ignore This!)
-------

|----------------|----------------|----------------|----------------|
|--10------------|----------------|----------------|----------------|
|11--11911-------|-----6----------|--------/6-4----|----------------|
|--------/11-----|9-79----x/4-----|-----4-4--------|----------------|
|----------------|------9---------|4h5-5-----------|----------------|
|----------------|----------------|----------------|----------------|


Verse 3:
--------

(Guitar1)--------|----------------|----------------|----------------|
|----------------|----------------|----------------|----------------|
|----------------|----------------|----------------|----------------|
|6-------------9-|--------------9/|11----------11--|6---------------|
|6-------6-6-6-9-|------------9-9/|11--------111111|6-------------6-|
|4-------4-4-4-7-|------------7-7/|9---------9-9-9-|4-------------4-|
         . . .                .              .   .                .

                                                               Play 2x
|----------------|----------------|----------------||-----------------------||
|----------------|----------------|----------------||-----------------------||
|----------------|----------------|----------------||-----------------------||
|6-------------9-|--------------9/|11----------11--||14-14-14-14-14-14-14-13||
|6-------6-6-6-9-|------------9-9/|11--------1111--||14-14-14-14-14-14-14-13||
|4-------4-4-4-7-|------------7-7/|9---------9-9---||12-12-12-12-12-12-12-11||
         . . .                .              .

Chorus:
-------

 Let ring
||------9---------|------7---------|------7---------|------5---------|
||---10---10----10|---9----9-----7-|---7----7-----7-|---7----7-----5-|
||9----------9----|9----------9----|8----------8----|6----------6----|
||----------------|----------------|----------------|----------------|
||----------------|----------------|----------------|----------------|
||----------------|----------------|----------------|----------------|
||                |                |                |                |
|(Guitar2)--------|----------------|----------------|----------------|
||----------------|----------------|----------------|----------------|
||----------------|----------------|4---------------|----------------|
||4---------------|2---------------|4---------------|4---------------|
||4---------------|2---------------|2---------------|4---------------|
||2---------------|0---------------|----------------|2---------------|

                                                               Play 2x
|------9---------|------7---------|------7---------|----------------||
|---10---10----10|---9----9-----7-|--------7-------|----------------||
|9----------9----|9----------9----|---8-------8----|7---------------||
|----------------|----------------|9-------------9-|7---------------||
|----------------|----------------|----------------|----------------||
|----------------|----------------|----------------|----------------||
|                |                |                |                ||
(Guitar2)--------|----------------|----------------|----------------||
|----------------|----------------|----------------|----------------||
|2---------------|6---------------|4---------------|----------------||
|2---------------|6---------------|4---------------|0---------------||
|0---------------|4---------------|2---------------|0---------------||
|----------------|----------------|----------------|----------------||


Lead Solo 2:
------------

(Notated at 2x spacing)

(Guitar1)------------------------|--------------------------------|
|--------------------------------|--------------------------------|
|--------------------------------|--------------------------------|
|4-------------------------------|2-------------------------------|
|4-------------------------------|2-------------------------------|
|2-------------------------------|0-------------------------------|
|                                |                                |
(Guitar2)------------------------|--------------------------------|
|1412--14----1412--14------------|14----1412----------------------|
|--------11----------11----------|--1111----------14----13--------|
|--------------------------------|----------------------------14--|
|--------------------------------|--------------------------------|
|--------------------------------|--------------------------------|
|                                |                                |
|1412--14----1412--14------------|14----14------------------------|
|--------14----------14----------|--1414--12------15----14--------|
|--------------------------------|----------------------------14--|
|--------------------------------|--------------------------------|
|--------------------------------|--------------------------------|
(Guitar3)------------------------|--------------------------------|


(Guitar1)------------------------|--------------------------------|
|--------------------------------|--------------------------------|
|4-------------------------------|--------------------------------|
|4-------------------------------|5-----------5---7-----------5---|
|2-------------------------------|5-----------5---7-----------5---|
|--------------------------------|3-----------3---5-----------3---|
|                                |                            .   |
(Guitar2)------------------------|--------------------------------|
|1514--15----1512--15------------|------1215------14----12--------|
|--------11----------11----------|----11----------------------14--|
|--------------------------------|--12----------------------------|
|--------------------------------|14------------------------------|
|--------------------------------|*Sweep--------------------------|

* I'm not sure about (Guitar 3), it plays the same tune but higher, 
like above.

(Guitar1)------------------------|--------------------------------|
|--------------------------------|--------------------------------|
|--------------------------------|--------------------------------|
|4-------------------------------|2-------------------------------|
|4-------------------------------|2-------------------------------|
|2-------------------------------|0-------------------------------|
|                                |                                |
(Guitar2)------------------------|--------------------------------|
|1412--14----1412--14------------|14----1412----------------------|
|--------11----------11----------|--1111----------14----13--------|
|--------------------------------|----------------------------14--|
|--------------------------------|--------------------------------|
|--------------------------------|--------------------------------|
|                                |                                |
|1412--14-----1412-14------------|14----14------------------------|
|--------14----------14----------|--1414--12------15----14--------|
|--------------------------------|----------------------------14--|
|--------------------------------|--------------------------------|
|--------------------------------|--------------------------------|
(Guitar3)------------------------|--------------------------------|


Outro :
-------

(Guitar2)------------------------|
|1514----------------------------|
|------1413----------------------|
|------------1412----------------|
|------------------1412--11-12-14|
|--------------------------------|

* I'm not sure about (Guitar 1 or 3). 


 Acoustic (Let Ring)
|----------------|----------------|----------------|----------------|
|----------------|----------------|----------------|----------------|
|----2-----2-----|----2-----2-----|----2-----2-----|----------------|
|--4-----4-----4-|--4-----4-----4-|--4-----4-------|--4-7-------7---|
|----------------|----------------|2-----2-----2---|----------9-----|
|2-----2-----2---|0-----0-----0---|--------------2/|3-----3/5-----3-|
|                |                |                |                |
(Guitar1)--------|----------------|----------------|----------------|
|----------------|----------------|----------------|----------------|
|----------------|----------------|----------------|----------------|
|4---------------|----------------|----------------|----------------|
|4---------------|----------------|----------------|----------------|
|2---------------|----------------|----------------|----------------|
|                |                |                |                |
(Guitar2)--------|----------------|----------------|----------------|
|----------------|----------------|----------------|----------------|
|----------------|----------------|----------------|----------------|
|----------------|----------------|----------------|----------------|
|\9--------------|----------------|----------------|----------------|
|----------------|----------------|----------------|----------------|


|----------------|----------------|2---------------|----------------|
|----------------|----------------|2---------------|----------------|
|----------------|----------------|2---------------|----------------|
|----0---0-------|----0---0-------|4---------------|----------------|
|--4---4---4---4-|--4---4---4---4-|4---------------|----------------|
|2-----------2---|2-----------2---|2---------------|----------------|
|                |                |                |                |
(Guitar2)--------|----------------|----------------|----------------|
|----------------|----------------|----------------|----------------|
|----------------|----------------|9b11------------|----------------|
|----------------|----------------|----------------|----------------|
|----------------|----------------|----------------|----------------|
|----------------|----------------|----------------|----------------|

BTW this is the Youthansia version :)


            9.Burnt ice


Intro
Guitar 1
e|--------------------|
B|--------------------|
G|--------------------|
D|---------------4----|
A|-4\-----------------|
E|-2\--------2-2---2~-|

e|---------------------------------------|
B|---------------------------------------|
G|---------------------------------------|
D|---------------------------------------|
A|-----4-5--------9-10\--4--xxxx-----4-5-|
E|-0-0-2-3----0-0-7--8\--2--xxxx-0-0-2-3-|
   * *        * *                * * *

Guitar 2                              x2
e|-t17p0h15----------t17p0h15----------|
B|----------t17p0h15----------t17p0h15-|
G|-------------------------------------|
D|-------------------------------------|
A|-------------------------------------|
E|-------------------------------------|
                                      x2
e|-t18p0h15----------t18p0h15----------|
B|----------t18p0h15----------t18p0h15-|
G|-------------------------------------|
D|-------------------------------------|
A|-------------------------------------|
E|-------------------------------------|

e|-t19p0h15----------t19p0h15----------|
B|----------t19p0h15----------t19p0h15-|
G|-------------------------------------|
D|-------------------------------------|
A|-------------------------------------|
E|-------------------------------------|

e|-t20p0h15----------t20p0h15----------|
B|----------t20p0h15----------t20p0h15-|
G|-------------------------------------|
D|-------------------------------------|
A|-------------------------------------|
E|-------------------------------------|

e|-t21p0h15----------t21p0h15----------|
B|----------t21p0h15----------t21p0h15-|
G|-------------------------------------|
D|-------------------------------------|
A|-------------------------------------|
E|-------------------------------------|

e|-t22p0h15----------t22p0h15----------24b26~-|
B|----------t22p0h15----------t22p0h15--------|
G|--------------------------------------------|
D|--------------------------------------------|
A|--------------------------------------------|
E|--------------------------------------------|


Riff 2
e|---------------------------------|
B|---------------------------------|
G|---------------------------------|
D|---------------------------------|
A|-------0-------0-------0-------0-|
E|-2-1-0---2-1-0---2-1-0---2-1-0---|
   * * *   * * *   * * *   * * *
   "He said he'd..."

Final time:
e|-------------------------------|
B|-------------------------------|
G|-------------------------------|
D|-------------------------------|
A|-------0-------0-------0-------|
E|-2-1-0---2-1-0---2-1-0---2-1-0-|
   * * *   * * *   * * *   * * *
   "Pounding on the..."

Guitar fills over Riff 2
#1
e|--------------------------------------------|
B|--------------------------------------------|
G|-[14]16r14-----14h16-14-16b17-{16}-17p16p14-|
D|------------16------------------------------|
A|--------------------------------------------|
E|--------------------------------------------|

e|------------------------|
B|------------------------|
G|-16p14----14------------|
D|-------16----16p14-16~--|
A|------------------------|
E|------------------------|

#2
e|---------14-------17b17^r17b20-|
B|-17b19~-----17p14--------------|
G|-------------------------------|
D|-------------------------------|
A|-------------------------------|
E|-------------------------------|

e|----14---------------------|
B|-14----17b19r17--14--------|
G|--------------------16-14~-|
D|---------------------------|
A|---------------------------|
E|---------------------------|

#3
e|--------------------------|
B|-12b14--10--12-----10b12--|
G|----------------11--------|
D|--------------------------|
A|--------------------------|
E|--------------------------|

#4
e|--------------------------------|
B|--------------------------------|
G|-4b6---[slow release]-5p4-------|
D|--------------------------7-4~--|
A|----------------------------a---|
E|--------------------------------|

End Guitar fills


Riff 3
Guitar 1
e|------------------------------------|
B|------------------------------------|
G|------------------------------------|
D|-2h4----2-----------4---2-----------|
A|------4---2-4---2-----4---2-4---2---|
E|--------------5---2-----------5---2-|

e|-----------------------------------------|
B|-----------------------------------------|
G|-----------------------------------------|
D|-----------------------------------------|
A|-----------------------------------------|
E|-5-0-2-0-7-6-5-4-3-3-3-3-3-3-3-3-3-3-3-3-|
   * * * * * * * * * * * * * * * * * * * *

Guitar 2
e|----------------------------------------|
B|----------------------------------------|
G|-9h11-----9-----------------------------|
D|-------11---9-11----9---7---------------|
A|-----------------12---9---7-9---7-------|
E|------------------------------9---7-9-5-|

e|-----------------------------------------|
B|-----------------------------------------|
G|-----------------------------------------|
D|-----------------------------------------|
A|-2-------6-5-4-3-2-2-2-2-2-2-2-2-2-2-2-2-|
E|---2-5-0---------------------------------|
   * * * * * * * * * * * * * * * * * * * *


Riff 4
e|---------------------|
B|---------------------|
G|---------------------|
D|---------------------|
A|-5--2--4------5-4-2--|
E|-3--0--2------3-2-0--|
   "Anything..."
e|----------------------------------------------|
B|----------------------------------------------|
G|----------------------------------------------|
D|----------------------------------------------|
A|------------------0---------------0---------0-|
E|-2-3-2~----0--1-2---2--2-3-2--1-2---2---1-2---|
                         * *    * *       * *
    "For that next..."


Guitar fill over Riff 4
e|----------------------------------------|
B|----------------------------------------|
G|----------------------------------------|
D|-----9--8------------9-11-12--11-9------|
A|-10--------------10-------------------9-|
E|--------------------------------------a-|


Riff 5
Guitar 1
e|------------------------------------|
B|------------------------------------|
G|------------------------------------|
D|------------------------------------|
A|------------------------------------|
E|-0-0-0-0000-0-0-0000-0-0-0000-0-0-0-|
   "Spiral to..."
e|-------------------------------------|
B|-------------------------------------|
G|-------------------------------------|
D|-------------------------------------|
A|-------------------------------------|
E|-0-0-0-0000-0-0-0000-0-0-0000-0-0000-|

e|------------------------------------|
B|------------------------------------|
G|------------------------------------|
D|------------------------------------|
A|-0-0-0-0000-0-0-0000-0-0-0000-0-0-0-|
E|------------------------------------|
   "Without the truth..."
e|-------------------------------------|
B|-------------------------------------|
G|-------------------------------------|
D|-------------------------------------|
A|-0-0-0-0000-0-0-0000-0-0-0000-0-0000-|
E|-------------------------------------|


Guitar 2
e|-----------------------------------|
B|-5/-12-12-12-1212-12\11-11-11-1111-|
G|-----------------------------------|
D|-----------------------------------|
A|-----------------------------------|
E|-----------------------------------|

Two guitars play next part:
Guitar A
e|-----------------------------|
B|-11\8-8-8-88-8/10-10-10-1010-|
G|-----------------------------|
D|-----------------------------|
A|-----------------------------|
E|-----------------------------|

Guitar B
e|---------------------------------|
B|-11\8-8-8-88-8/10-10-------------|
G|---------------------9-9-9-12-12-|
D|---------------------------------|
A|---------------------------------|
E|---------------------------------|

Back to one:
e|---------------------------------|
B|-/12-12-12-1212-12\11-11-11-1111-|
G|---------------------------------|
D|---------------------------------|
A|---------------------------------|
E|---------------------------------|

e|---------------------------------|
B|-11\8-8-8-88-8/10-10-------------|
G|---------------------9-9-9-12-12-|
D|---------------------------------|
A|---------------------------------|
E|---------------------------------|

e|--------------------------------|
B|-17-17-17-1717-17\16-16-16-1616-|
G|--------------------------------|
D|--------------------------------|
A|--------------------------------|
E|--------------------------------|

e|------------------------------15-|
B|-16\13-13-13-1313-13/15-15-15----|
G|---------------------------------|
D|---------------------------------|
A|---------------------------------|
E|---------------------------------|

e|---------------------------------|
B|-/17-17-17-1717-17\16-16-16-1616-|
G|---------------------------------|
D|---------------------------------|
A|---------------------------------|
E|---------------------------------|

e|-----------------------------------|
B|-16\13-13-13-1313-13/15-15-15-1515-|
G|-----------------------------------|
D|-----------------------------------|
A|-----------------------------------|
E|-----------------------------------|


Riff 6 (Solo Rhythm)
e|-----------------------------------------|
B|-----------------------------------------|
G|-----------------------------------------|
D|--------------------------------| -------|
A|-2------4-5-4------7-5-4--------|     ---|
E|-0--0-0-2-3-2----0-5-3-2-0-0-0--|     ---|
      * * * *      * * * * * * *         |--> Play 3x
e|----------------------------|         ---|
B|----------------------------|         ---|
G|----------------------------|         ---|
D|----------------------------| -----------|
A|-5--5---7-8-7----8---7-5-4---------------|
E|-3--3-0-5-6-5----6-0-5-3-2---------------|
      * * * *      * * * *
e|--------------------------------|
B|--------------------------------|
G|--------------------------------|
D|--------------------------------|
A|-2------4-5-4------7-5-4--------|
E|-0--0-0-2-3-2----0-5-3-2-0-0-0--|
      * * * *      * * * * * * *
e|----------------------------|
B|----------------------------|
G|----------------------------|
D|----------------------------|
A|-5--5---7-8-7----8---7-5-7--|
E|-3--3-0-5-6-5----6-0-5-3-5--|
      * * * *      * * * *
                      x3
e|---------------------|
B|---------------------|
G|---------------------|
D|-9-----9-----9-------|
A|-9--xx-8--xx-7--xxxx-|
E|-7--xx-7--xx-7--xxxx-|

e|---------------------------|
B|---------------------------|
G|---------------------------|
D|-9-------------------------|
A|-9----9--9--9--9--9--9--9\-|
E|-7----7--7--7--7--7--7--7\-|
        *  *


Guitar Solo (Mustaine)
e|-------------------------------|
B|-15p12-15p12-15p12-15p12-15p12-|
G|-------------------------------|
D|-------------------------------|
A|-------------------------------|
E|-------------------------------|

e|-------------------------------------------------|
B|-16p13-16p13-16p13-16p14-17p14-17p14-17p14-17p14-|
G|-------------------------------------------------|
D|-------------------------------------------------|
A|-------------------------------------------------|
E|-------------------------------------------------|

e|-------------------------------------------------------|
B|-18p15-18p15-19p15-18p15-18p14-17p14-17p14-16p13-16p13-|
G|-------------------------------------------------------|
D|-------------------------------------------------------|
A|-------------------------------------------------------|
E|-------------------------------------------------------|

e|-------------------------------------|
B|-16p12-15p12-15p12-15p12-15p12-15p12-|
G|-------------------------------------|
D|-------------------------------------|
A|-------------------------------------|
E|-------------------------------------|

e|-----------------------------------------|
B|-12--(12)^-xx-14--(14)^---------------12-|
G|-12--(12)^-xx-14--(14)^--[14]16r14-12----|
D|-----------------------------------------|
A|-----------------------------------------|
E|-----------------------------------------|

e|-------------------------------------------|
B|-------------------------------------------|
G|-14p12-------------------------------------|
D|-------14-12h14p12-13p12----12-------------|
A|-------------------------14----14p13-13p12-|
E|-------------------------------------------|

e|--------------------------------------------|
B|--------------------------------------------|
G|--------------------------------------------|
D|--------------------------------------------|
A|--------------------------------------------|
E|-15-12-13-15-13-12-15-13-12-15-12~----(12)\-|

e|----------------------------------------------|
B|----------------------------------------------|
G|-------------------------------------12-13-14-|
D|----------------------------12-14-15----------|
A|----------------12-12-14-15-------------------|
E|-12-14-15-14-15-------------------------------|

e|----------12-13-13-15-15/18-|
B|-12-13-14-------------------|
G|----------------------------|
D|----------------------------|
A|----------------------------|
E|----------------------------|

e|-14p12----12-14p12-14p12----12-14p12-|
B|-------16----------------16----------|
G|-------------------------------------|
D|-------------------------------------|
A|-------------------------------------|
E|-------------------------------------|

e|-15p12----12-15p12-15p12----12-------|
B|-------16----------------16----16-13-|
G|-------------------------------------|
D|-------------------------------------|
A|-------------------------------------|
E|-------------------------------------|

e|-14p12----12-15p12----12-14p12----12-15p12----12-|
B|-------16----------16----------16----------16----|
G|-------------------------------------------------|
D|-------------------------------------------------|
A|-------------------------------------------------|
E|-------------------------------------------------|

e|-14p12----15p12----14p12----12-15p12----14p12----|
B|-------16-------16-------16----------16-------16-|
G|-------------------------------------------------|
D|-------------------------------------------------|
A|-------------------------------------------------|
E|-------------------------------------------------|

e|-17tm----------14-17----------14-15-17----------14-15-17-|
B|------14-15-17-------14-15-17----------14-15-17----------|
G|---------------------------------------------------------|
D|---------------------------------------------------------|
A|---------------------------------------------------------|
E|---------------------------------------------------------|

e|----------14-15-17----------14-15-17-|
B|-14-15-17----------14-15-17----------|
G|-------------------------------------|
D|-------------------------------------|
A|-------------------------------------|
E|-------------------------------------|

e|-19tm-----------16-19----------16-17-19----------16-19-|
B|-------16-17-19-------16-17-19----------16-17-19-------|
G|-------------------------------------------------------|
D|-------------------------------------------------------|
A|-------------------------------------------------------|
E|-------------------------------------------------------|

e|----------17-20-------17-18-20tm-|
B|-16-17-19-------17-18------------|
G|---------------------------------|
D|---------------------------------|
A|---------------------------------|
E|---------------------------------|

e|----------17-18-20----------17-18-20----------17-18-|
B|-17-18-20----------17-18-20----------17-18-20-------|
G|----------------------------------------------------|
D|----------------------------------------------------|
A|----------------------------------------------------|
E|----------------------------------------------------|

e|-22----------19-21-22----------19-21-22----------|
B|----19-21-22----------19-21-22----------19-21-22-|
G|-------------------------------------------------|
D|-------------------------------------------------|
A|-------------------------------------------------|
E|-------------------------------------------------|

e|-21-22-24----------21-22-24----------21-22-24-|
B|----------21-22-24----------21-22-24----------|
G|----------------------------------------------|
D|----------------------------------------------|
A|----------------------------------------------|
E|----------------------------------------------|

e|----------21-22-24-24-(24)b26~~-|
B|-21-22-24-----------------------|
G|--------------------------------|
D|--------------------------------|
A|--------------------------------|
E|--------------------------------|

End Solo


Riff 7
e|--------------------------|
B|--------------------------|
G|--------------------------|
D|-------4--------5-5-------|
A|-----4----4-----3-3--5-5--|
E|-2-5--------5-2------3-3--|
   * * *
   "Always looking..."
e|--------------------------|
B|--------------------------|
G|--------------------------|
D|-------4--------2-2-------|
A|-----4----4-----0-0--2-2--|
E|-2-5--------5-2------0-0--|
   * * *
   "...broken, beaten..."

Final time:
e|----------------------------|
B|----------------------------|
G|----------------------------|
D|-------4--------2-------7-6-|
A|-----4----4-----0-------5-4-|
E|-2-5--------5-2---0-1-2-----|
   * * *
   "...away, but he's..."


Riff 8 (Solo Rhythm)
e|--------------------------|
B|--------------------------|
G|--------------------------|
D|-5------------------------|
A|-3---------5h6--5-3-5-----|
E|----3--4-3------------4-3-|
         * *
e|----------------------------|
B|----------------------------|
G|----------------------------|
D|----------------------------|
A|-3-----------5h6--5-3-5-----|
E|----4--0-4-3------------4-3-|
         *
e|----------------------------|
B|----------------------------|
G|----------------------------|
D|----------------------------|
A|-3-----------5h6--5-3-5-----|
E|----5--0-5-3------------5-3-|
         *
e|----------------------------|
B|----------------------------|
G|----------------------------|
D|----------------------------|
A|-3-----------5h6--5-3-5-----|
E|----4--0-4-3------------4-3-|
         *
e|-----------------------------|
B|-----------------------------|
G|-----------------------------|
D|-----------------------------|
A|-3-------5-3-5h6--5-3----3-5-|
E|----3--0--------------6------|
         *
e|-------------------------------|
B|-------------------------------|
G|-------------------------------|
D|---------5-3-5h6--5-3----3h5-5-|
A|-3--------------------6--------|
E|----4--0-----------------------|
         *
e|-----------------------------|
B|-----------------------------|
G|-----------------------------|
D|---------5-3-5-6-3-5---3-----|
A|-3-------------------6---5-6-|
E|----5--0---------------------|
         *
e|--------------------------|
B|--------------------------|
G|--------------------------|
D|--------------------------|
A|-3-----------5-----6-5----|
E|----6--0-3-6----7------8\-|
         *

Solo (Drover)
e|------------------------------------------|
B|------------------------------------------|
G|----------------7-10-9p8p7-8~----\4-------|
D|-------------10---------------------6/-10-|
A|-10~------10------------------------------|
E|------------------------------------------|

e|------------------------------------|
B|------------------------------------|
G|-8--10-12-12h13-12--10-10~----(10)\-|
D|------------------------------------|
A|------------------------------------|
E|------------------------------------|

e|----------------------------------------------|
B|----------------------------------------------|
G|-8/-15\13----13\12----12\10----10\8----8\7-8~-|
D|----------15-------13-------12------10--------|
A|----------------------------------------------|
E|----------------------------------------------|

e|-------------------------------|
B|-------------------------------|
G|-7----7h8--7----------7--------|
D|---10--------10-8--10---10~--6-|
A|-------------------------------|
E|-------------------------------|

e|------------------------------|
B|------------------------------|
G|-8-7-8h10--8-7-----7-8--------|
D|---------------10------10~--7-|
A|------------------------------|
E|------------------------------|

e|-----------------------------------|
B|----------9------------------------|
G|-12-10-12---10-12-8-10----8--------|
D|-----------------------12---10~--8-|
A|-----------------------------------|
E|-----------------------------------|

e|--------------------|
B|--------------------|
G|-----7~-----8-7-----|
D|-5-8-----9------10\-|
A|--------------------|
E|--------------------|


Riff 9
Guitar 1
e|----------------------------|
B|----------------------------|
G|----------------------------|
D|-----4-3~----------2-1------|
A|---4-------4\----2------2-/-|
E|-2-------------0------------|
   * *           * *
1st ending:
e|-----------------------------0--|
B|-----------------------------0--|
G|--------------------------------|
D|-------12-11~-------------------|
A|----12---------12\--------------|
E|-10-----------------6-5-3-0-----|
    *  *
2nd ending:
e|-----------------------------|
B|-----------------------------|
G|-----------------------------|
D|-------12-11~----------------|
A|----12---------12\-----------|
E|-10-----------------6-5-3-0--|
    *  *

Guitar 2
e|-------------------------------------------------|
B|-7-7-7-6-6-6-6-6-5-5-5-4-4-5-5-4-3-3-3-2-2-2-2-2-|
G|-6-6-6-6-6-6-6-6-4-4-4-4-4-4-4-4-2-2-2-2-2-2-2-2-|
D|-------------------------------------------------|
A|-------------------------------------------------|
E|-------------------------------------------------|


Riff 10 (Solo Rhythm)
e|------------------------------|
B|------------------------------|
G|-----5~-----------------------|
D|-5h7-5~--7\-------------------|
A|-5h7-----7\----4-5-4----------|
E|-------------0-2-3-2--2222222-|
               * * *    *******
e|------------------------------|
B|------------------------------|
G|-----5~--------6/7-6----------|
D|-5h7-5~--7\----4/5-4--4444444-|
A|-5h7-----7\-------------------|
E|-------------0----------------|
               *        *******
e|------------------------------|
B|------------------------------|
G|-----5~-----------------------|
D|-5h7-5~--7\-------------------|
A|-5h7-----7\----4-5-4----------|
E|-------------0-2-3-2--2222222-|
               * * *    *******
e|-----------------------------------|
B|-----------------------------------|
G|-----5~----------------------------|
D|-5h7-5~--7\----4-5-4~--------------|
A|-5h7-----7\------------7-4-----5-7-|
E|-------------0-------------8-7-----|
               *
e|--------------------------|
B|--------------------------|
G|-5~-----------------------|
D|-5~--7\-------------------|
A|-----7\----4-5-4----------|
E|---------0-2-3-2--2222222-|
           * * *    *******
e|------------------------------|
B|------------------------------|
G|-----5~--------6/7-6----------|
D|-5h7-5~--7\----4/5-4--4444444-|
A|-5h7-----7\-------------------|
E|-------------0----------------|
               *        *******
e|------------------------------|
B|------------------------------|
G|-----5~-----------------------|
D|-5h7-5~--7\-------------------|
A|-5h7-----7\----4-5-4----------|
E|-------------0-2-3-2--2222222-|
               * * *    *******
e|------------------------------------|
B|------------------------------------|
G|-----5~-----------------------------|
D|-5h7-5~--7\----4-5-4--2-------------|
A|-5h7-----7\-------------4-3-2-------|
E|-------------0----------------5-2-0-|
               *

Solo (Mustaine)                       x2
e|-17p14----17p14----17p14----17p14----|
B|-------14-------14-------14-------14-|
G|-------------------------------------|
D|-------------------------------------|
A|-------------------------------------|
E|-------------------------------------|
                                      x2
e|-19p14----19p14----19p14----19p14----|
B|-------14-------14-------14-------14-|
G|-------------------------------------|
D|-------------------------------------|
A|-------------------------------------|
E|-------------------------------------|
                                      x2
e|-21p14----21p14----21p14----21p14----|
B|-------14-------14-------14-------14-|
G|-------------------------------------|
D|-------------------------------------|
A|-------------------------------------|
E|-------------------------------------|

e|-22p14----22p14----22p14----22p14----|
B|-------14-------14-------14-------14-|
G|-------------------------------------|
D|-------------------------------------|
A|-------------------------------------|
E|-------------------------------------|

e|-24p14----24p14----24p14----24p14----14\-|
B|-------14-------14-------14-------14-14\-|
G|-----------------------------------------|
D|-----------------------------------------|
A|-----------------------------------------|
E|-----------------------------------------|

End Solo

Solo (Drover)
e|--------------------21p17-----------21/24\-21p17----|
B|-----------------19-------19-----19--------------19-|
G|--------------18-------------18---------------------|
D|-16d12r16~------------------------------------------|
A|----------------------------------------------------|
E|----------------------------------------------------|

e|-------21p17----------21p17----------21p17----|
B|----19-------19----19-------19----19-------19-|
G|-18-------------18-------------18-------------|
D|----------------------------------------------|
A|----------------------------------------------|
E|----------------------------------------------|

e|-------21-------------20~----(20)\----|
B|----19----19\17-20------------------x-|
G|-18----------------18---------------x-|
D|--------------------------------------|
A|--------------------------------------|
E|--------------------------------------|
                                x3
e|----------14h16h17p16p14-------|
B|-------------------------------|
G|-14h16h17----------------17-16-|
D|-------------------------------|
A|-------------------------------|
E|-------------------------------|

e|----------------------------|
B|----------------------------|
G|-14\13----------------------|
D|-------14-16h17h19-17p16p14-|
A|----------------------------|
E|----------------------------|

e|--------------------------------------------------------|
B|--------------------------------------------------------|
G|--------------------------------------------------------|
D|-16h17h19-17p16p14--------------------------------------|
A|-------------------16p14-16-15p14-----------------------|
E|----------------------------------17-14h17-14~----(14)\-|

End Solo


Riff 11
e|---------------------------------|
B|---------------------------------|
G|---------------------------------|
D|---------------------------------|
A|-0-3-4-4-----7-4-4-4-----7-0-4-4-|
E|-0-1-2-2--00-5-2-2-2--00-5-0-2-2-|
   * * *    ** * * *    ** * * * *
   "Shadow people..."

Guitar fill over Riff 11
e|----------------------------------|
B|-10--------(10)\--12--------(12)\-|
G|--9--------(-9)\--11--------(11)\-|
D|----------------------------------|
A|----------------------------------|
E|----------------------------------|

e|---------------------------------|
B|-13--------15----16--------(16)\-|
G|-12--------14----15--------(15)\-|
D|---------------------------------|
A|---------------------------------|
E|---------------------------------|


Play Riff 11  Solo Rhythm


Solo (Mustaine)
e|-------------------------------------------------|
B|-17p14----14-17p14-17p14----14-17p14-17p14----14-|
G|-------17----------------17----------------17----|
D|-------------------------------------------------|
A|-------------------------------------------------|
E|-------------------------------------------------|

e|-------------------------------------------------|
B|-19p14----14-19p14-19p14----14-19p14-19p14----14-|
G|-------17----------------17----------------17----|
D|-------------------------------------------------|
A|-------------------------------------------------|
E|-------------------------------------------------|

e|-------------------------------------------------|
B|-17p14----14-17p14-17p14----14-17p14-17p14----14-|
G|-------17----------------17----------------17----|
D|-------------------------------------------------|
A|-------------------------------------------------|
E|-------------------------------------------------|

e|-----------------------------------------------|
B|-19p14----14-19p14-19p14----14-19p14-17-17-x-x-|
G|-------17----------------17--------------------|
D|-----------------------------------------------|
A|-----------------------------------------------|
E|-----------------------------------------------|

e|-----------------------------------------|
B|-14b14^----14b14^----14b14^--------------|
G|-14b14^----14b14^----14b14^----| --------|
D|--------16--------16--------16-|      ---|
A|-------------------------------|      ---|
E|-------------------------------|      ---|
                                         |--> Play 3x
e|---------------------------|          ---|
B|-14b14^-----------------14-|          ---|
G|-14b14^-----17p16p14----14-| ------------|
D|---------16----------16------------------|
A|-----------------------------------------|
E|-----------------------------------------|

e|-------------------------------|
B|-14b14^----14b14^----14b14^----|
G|-14b14^----14b14^----14b14^----|
D|--------16--------16--------16-|
A|-------------------------------|
E|-------------------------------|

e|---------------------------14-|
B|-14b14^-----------------17----|
G|-14b14^----17p16p14-17--------|
D|--------16--------------------|
A|------------------------------|
E|------------------------------|
                                                  x2
e|-17p14----14-17p14----14-17p14----14-17p14----14-|
B|-------17----------17----------17----------17----|
G|-------------------------------------------------|
D|-------------------------------------------------|
A|-------------------------------------------------|
E|-------------------------------------------------|
                                                  x2
e|-19p14----14-19p14----14-19p14----14-19p14----14-|
B|-------17----------17----------17----------17----|
G|-------------------------------------------------|
D|-------------------------------------------------|
A|-------------------------------------------------|
E|-------------------------------------------------|
                                                  x2
e|-17p14----14-17p14----14-17p14----14-17p14----14-|
B|-------17----------17----------17----------17----|
G|-------------------------------------------------|
D|-------------------------------------------------|
A|-------------------------------------------------|
E|-------------------------------------------------|
                                                  x2
e|-19p14----14-19p14----14-19p14----14-19p14----14-|
B|-------17----------17----------17----------17----|
G|-------------------------------------------------|
D|-------------------------------------------------|
A|-------------------------------------------------|
E|-------------------------------------------------|
                                     x16
e|-19p14-17p14----14-19p14-17p14----14-|------|
B|-------------17----------------17----|-19\--|
G|-------------------------------------|------|
D|-------------------------------------|------|
A|-------------------------------------|------|
E|-------------------------------------|------|             
comments
print report bad tab
5 comments total. Showing first comments.
+1 reply
Fender_Tele'71 wrote on March 24 2008, 02:32 pm

very well done, seems pretty good to me

-1 reply
[ LiAm ] wrote on September 13 2008, 03:45 am

you missed "you're dead"

+1 reply
TheRollingStone wrote on November 29 2008, 01:00 am

the intro to sleepwalker is horribly off....check it again

I want to post or [tab]
guest
You may want to rate the tab now too:
select rating
Please do not post tabs as comments. Select "correction" instead!