Oops, an error
Loading. Please wait.

United Abominations Tab

ver4
ver4

Album

Whole song

Interactive

More versions @911Tabs.com
4,538 views 9 this week
no commentswrite comment
1 2 3 4 5
excellent!
x 2
Autoscroll
+/-
esc
set tempo
stop
Contributor
Hey! There's an official Ultimate Guitar app which is ideal
for learning songs when you're away from computer. Get the app
WARNING: You are trying to view
                                    content from Ultimate-Guitar.com
                                    in an unauthorized application,
                                    which is prohibited.

                                    Please use an official Ultimate
                                    Guitar Tabs application for iPhone,
                                    iPad or Android to access legitimate
                                    chords, guitar, bass, and drum tabs
                                    from Ultimate-Guitar.com database.

                                    Type "ultimate guitar tabs" in Apple
                                    App Store's or Android Market's
                                    search to find the application.
#----------------------------------PLEASE NOTE---------------------------------#
#This file is the author's own work and represents their interpretation of the #
#song. You may only use this file for private study, scholarship, or research. #
#------------------------------------------------------------------------------#

UNITED ABOMINATIONS
As recorded by Megadeth
(From the 2007 Album UNITED ABOMINATIONS)

Transcribed by Russ Elton (webmaster@abysslord.com), Jordan Baker
        

Words and Music by Dave Mustaine
Arranged by Megadeth

Gtr I (E A D G B E) - 'Distortion Guitar'
Gtr II (E A D G B E) - 'Lead Guitar'
Gtr III (E A D G B E) - 'Lead Guitar'
Gtr IV (E A D G B E) - 'Clean Guitar'

 Intro
  Q=86
  N.C.
 4/4
  Gtr I
  E E E E +H       +W           E E E E +H       +W
|----------------|------------|----------------|--------|
|-----3-2-(2)----|-(2)--------|-----3-5-(5)----|-(5)----|
|-----0-0-(0)----|-(0)--------|-----0-0-(0)----|-(0)----|
|---0------------|------------|---0------------|--------|
|----------------|------------|----------------|--------|
|-3--------------|------------|-3--------------|--------|


  E E E E +H       +W           E E E E +H       +W
|----------------|------------|----------------|--------|
|-----3-2-(2)----|-(2)--------|-----3-5-(5)----|-(5)----|
|-----0-0-(0)----|-(0)--------|-----0-0-(0)----|-(0)----|
|---0------------|------------|---0------------|--------|
|----------------|------------|----------------|--------|
|-3--------------|------------|-3--------------|--------|


  E E +H.        E E +H.        E E +H.
|--------------|--------------|------------|
|-3-5-(5)------|-3-2-(2)------|-3-2-(2)----|
|-0-0-(0)------|-0-0-(0)------|-0-0-(0)----|
|--------------|--------------|------------|
|--------------|--------------|------------|
|--------------|--------------|------------|


    Q=132
    E. S +E  E H      +W           E. S +E  E H      +W
||------------------|------------|-----------------|---------||
||o----------3-2----|-(2)--------|----------3-5----|-(5)----o||
||-----------0-0----|-(0)--------|----------0-0----|-(0)-----||
||-----0-(0)--------|------------|----0-(0)--------|---------||
||o-----------------|------------|-----------------|--------o||
||--3---------------|------------|-3---------------|---------||


    G        N.C.                  G        N.C.
    Gtr I
               ~~~~~~~~~~~
    E. S +E  E H      +W           E. S +E  E H      +H.      +Q      3x
||------------------|------------|-----------------|------------------||
||o-----------------|------------|-----------------|-----------------o||
||------------------|------------|-----------------|------------------||
||-----0-(0)--------|------------|----0-(0)--------|------------------||
||o----2-(2)-5-4----|-(4)--------|----2-(2)-5-7----|-(7)------(7)\---o||
||--3--------6-5----|-(5)--------|-3--------6-8----|-(8)------(8)\----||


  G        N.C.     G        N.C.
             ~
  E. S +E  E H      E. S +E  E Q  +Q
|-----------------|---------------------|
|-----------------|---------------------|
|-----------------|---------------------|
|----0-(0)--------|----0-(0)------------|
|----2-(2)-5-4----|----2-(2)-5-7--(7)\--|
|-3--------6-5----|-3--------6-8--(8)\--|


  G        N.C.     G        N.C.
             ~
  E. S +E  E H      E. S +E  E Q  +Q
|-----------------|---------------------||
|-----------------|---------------------||
|-----------------|---------------------||
|----0-(0)--------|----0-(0)------------||
|----2-(2)-5-4----|----2-(2)-5-7--(7)\--||
|-3--------6-5----|-3--------6-8--(8)\--||


   Verse
    Q=130
    $
    N.C.(E)
      PM------------------------|     PM------------------------|
              |-3-|   |----6----|             |-3-|   |----6----|
    E S S E E S S S E S S S S S S   E S S E E S S S E S S S S S S
||--------------------------------|--------------------------------|
||o-------------------------------|--------------------------------|
||--------------------------------|--------------------------------|
||--------------------------------|--------------------------------|
||o-------------------------------|--------------------------------|
||--0-0-0-0-0-0-0-0-0-0-0-0-0-0-0-|-0-0-0-0-0-0-0-0-0-0-0-0-0-0-0--|


  N.C.(F5)
    PM------------------------|     PM------------------------|
            |-3-|   |----6----|             |-3-|   |----6----|
  E S S E E S S S E S S S S S S   E S S E E S S S E S S S S S S
|-------------------------------|-------------------------------|
|-------------------------------|-------------------------------|
|-------------------------------|-------------------------------|
|-------------------------------|-------------------------------|
|-3-3-3-3-3-3-3-3-3-3-3-3-3-3-3-|-3-3-3-3-3-3-3-3-3-3-3-3-3-3-3-|
|-1-1-1-1-1-1-1-1-1-1-1-1-1-1-1-|-1-1-1-1-1-1-1-1-1-1-1-1-1-1-1-|


  N.C.(E)
    PM------------------------|     PM------------------------|
            |-3-|   |----6----|             |-3-|   |----6----|
  E S S E E S S S E S S S S S S   E S S E E S S S E S S S S S S
|-------------------------------|-------------------------------|
|-------------------------------|-------------------------------|
|-------------------------------|-------------------------------|
|-------------------------------|-------------------------------|
|-------------------------------|-------------------------------|
|-0-0-0-0-0-0-0-0-0-0-0-0-0-0-0-|-0-0-0-0-0-0-0-0-0-0-0-0-0-0-0-|


  N.C.
      PM----------|         PM----------|
   Q  E  E  E E E  E     Q  E  E  E E E E
|---------------------|---------------------||
|---------------------|--------------------o||
|---------------------|---------------------||
|---------------------|---------------------||
|-/3--3-(0)-2-3-2-(0)-|-/5--5-(0)-3-5-3-2--o||
|-/3--3--0--2-3-2--0--|-/5--5--0--3-5-3-2---||


   Pre-Chorus
                                                                   To Coda
    N.C.
    PM--|                      PM------------|                    PM
    E E E  E E E E E   E E E E E E E E   E E E  E E E E E   E E E E E E E E
||-------------------|-----------------|------------------|-------------------||
||o------------------|-----------------|------------------|------------------o||
||-------------------|-----------------|------------------|-------------------||
||-------------------|-----5-----------|------------------|-----5-------7-7---||
||o----------5---7---|-----------------|----------5---7---|------------------o||
||--0-0-0-/7---7---7-|-2s3---3-2-3-2-1-|-0-0-0-/7---7---7-|-2s3---3-3s5-5-5---||


  Gtr II
  W                   W
|-------------------|--------------------|
|-------------------|--------------------|
|-------------------|--------------------|
|-------------------|--------------------|
|-------------------|--------------------|
|-------------------|--------------------|
|
| Gtr IV
| E E H.              E E H.
|-------------------|--------------------|
|-------------------|--------------------|
|-----0-------------|-----0--------------|
|---2---------------|---4----------------|
|-3-----------------|-5------------------|
|-------------------|--------------------|
|
| Gtr I
| E E E   E E E E E   E E E   E E E E E
|-------------------|--------------------|
|-------------------|--------------------|
|-------------------|--------------------|
|-----------5---7---|-----------7--------|
|-3-3-3--/7---7---7-|-5-5-5--/9---9-7----|
|-------------------|-----------------7\-|


  Q   E   E E E E E    W
|--------------------|-----------------||
|--------------------|-----------------||
|--------/5-5--------|-----------------||
|---------------5----|-----------------||
|-------------7---7--|-----------------||
|--------------------|-----------------||
|
| E E H.               W
|--------------------|-----------------||
|--------------------|-----------------||
|-----0--------------|-----------------||
|---2----------------|-----------------||
|-3------------------|-----------------||
|--------------------|-----------------||
|
| E E E   E E E E E    E E E E E E E E
|--------------------|-----------------||
|--------------------|-----------------||
|--------------------|-----------------||
|-----------5---7----|-----------------||
|-3-3-3--/7---7---7\-|-5-3-2---3-2---3-||
|--------------------|-------5-----5---||


 Chorus
  Q=132
                                                     D.S. al Coda
  G        N.C.                  G        N.C.
  Gtr I
             ~~~~~~~~~~~
  E. S +E  E H      +W           E. S +E  E H      +H.      +Q
|-----------------|------------|-----------------|----------------||
|-----------------|------------|-----------------|----------------||
|-----------------|------------|-----------------|----------------||
|----0-(0)--------|------------|----0-(0)--------|----------------||
|----2-(2)-5-4----|-(4)--------|----2-(2)-5-7----|-(7)------(7)\--||
|-3--------6-5----|-(5)--------|-3--------6-8----|-(8)------(8)\--||


 2nd Chorus Ending
  Q=130
  &
  N.C.
  Gtr II
  W                   W
|-------------------|--------------------|
|-------------------|--------------------|
|-------------------|--------------------|
|-------------------|--------------------|
|-------------------|--------------------|
|-------------------|--------------------|
|
| Gtr IV
| E E H.              E E H.
|-------------------|--------------------|
|-------------------|--------------------|
|-----0-------------|-----0--------------|
|---2---------------|---4----------------|
|-3-----------------|-5------------------|
|-------------------|--------------------|
|
| Gtr I
| E E E   E E E E E   E E E   E E E E E
|-------------------|--------------------|
|-------------------|--------------------|
|-------------------|--------------------|
|-----------5---7---|-----------7--------|
|-3-3-3--/7---7---7-|-5-5-5--/9---9-7----|
|-------------------|-----------------7\-|


                                        \1____
  Q   E   E E E E E    H       Q    E  +E
|--------------------|----------------------||
|--------------------|-------------19-(19)--||
|--------/5-5--------|----------------------||
|---------------5----|----------------------||
|-------------7---7--|----------------------||
|--------------------|----------------------||
|
| E E H.               W
|--------------------|----------------------||
|--------------------|----------------------||
|-----0--------------|----------------------||
|---2----------------|----------------------||
|-3------------------|----------------------||
|--------------------|----------------------||
|
| E E E   E E E E E    E E E E E E  E   E
|--------------------|----------------------||
|--------------------|----------------------||
|--------------------|----------------------||
|-----------5---7----|----------------------||
|-3-3-3--/7---7---7\-|-5-3-2---3-2------3---||
|--------------------|-------5------5-------||


 Guitar Solo (Drover)
  Q=126
     N.C.
  Gtr II
   /            \1____/
       ~~~~
                          |---3---|  |---3---|
   a  +Q.      +S    +S   E  E    E  E  E    E
|--------------------------------21-22-21------|
|-19-(19)-----(19)--(19)-19-22--------------22-|
|----------------------------------------------|
|----------------------------------------------|
|----------------------------------------------|
|----------------------------------------------|
|
| Gtr I
|         PM--|                PM---------|
|      E  E E   E         E    E     E    E
|----------------------------------------------|
|----------------------------------------------|
|----------------------------------------------|
|----------------------------------------------|
|------5------------------4--------------------|
|------7--7-7---7---------5----5-----5----5----|


           G5                              N.C.
   ~~                                         ~~~
   H       E  E     +E        a   +S   S      H.                +Q
|----------------------------------------|-------------------------------||
|-19---------17b19r(17)b19==(17)r(17)p15-|---17----------------(17)\-----||
|----------------------------------------|-------------------------------||
|----------------------------------------|-------------------------------||
|----------------------------------------|-------------------------------||
|----------------------------------------|-------------------------------||
|
|    PM--|    PM-----------------|               PM|     PM|         PM
|  E E E E E  E      E             E       a  E  E E a E E E a   E   E
|----------------------------------------|-------------------------------||
|----------------------------------------|-------------------------------||
|----------------------------------------|-------------------------------||
|----------------------------------------|-------------------------------||
|--5-------5-----------------------------|-1s=2------1s2-----1s==2-------||
|--4-4-4-4-3--3------3-------------3-----|-2s=3--3-3-2s3-3-3-2s==3---3---||


 Guitar Solo (Mustaine)
                             |--4:3---|
  S S S  S S S S   S S  S S  S S    S S  S  S   E     +E   E  E Q   +S  S E
|-----7-10p7--------------9-12p9--------------|-----------10-----------------|
|---8--------8---/10---10----------10---10-10-|--------------10--------------|
|-7------------7-----9----------------9-------|-9b11==(9)-------9r==(9)p7----|
|---------------------------------------------|---------------------------9--|
|---------------------------------------------|------------------------------|
|---------------------------------------------|------------------------------|
|
| PM------------------------------------|              PM----|    PM------|
| E   E    E   E     E    E      E       E      E      E   E  E E E  E    E
|---------------------------------------------|------------------------------|
|---------------------------------------------|------------------------------|
|---------------------------------------------|------------------------------|
|---------------------------------------------|------------------------------|
|-------------------------0------1-------3----|-5---------------4------------|
|-0---1----2---3-----4------------------------|-7------7---7--7-5-5--5----5--|


          G5                N.C.
                               ~~
  E E E E +E     +E   E E      W
|-------------------------|------------------------||
|-9-7---7-(7)-------------|------------------------||
|-9-7---7-(7)b9==(7)r-----|------------------------||
|-----9---------------9-7-|------------------------||
|-------------------------|---10-------------------||
|-------------------------|------------------------||
|
|   PM--|         PM----|        PM|     PM|     PM
| E E E E  E      E   E E   a  E E E a E E E a E E
|-------------------------|------------------------||
|-------------------------|------------------------||
|-------------------------|------------------------||
|-------------------------|------------------------||
|-5--------5--------------|-1s=2-----1s2-----1s2---||
|-4-4-4-4--3------3---3-3-|-2s=3-3-3-2s3-3-3-2s3-3-||


 Guitar Solo (Drover)
   |----3-----|  |---3---|  |--3---|  |---3---|
   S  S  E    E  E  E    E  E E    E  E  E    E
|-16s17-14--------------------------------------|
|------------15---------------------------------|
|---------------14S11-------------------11---14-|
|-----------------------12-----------12---------|
|--------------------------14-9---14------------|
|-----------------------------------------------|
|
|  PM--------------------------------------|
|  E       E     E    E     E   E     E    E
|-----------------------------------------------|
|-----------------------------------------------|
|-----------------------------------------------|
|-----------------------------------------------|
|-------------------------------0-----1----3----|
|--0-------1-----2----3-----4-------------------|


                               G5
   ~~~~~~~~~~~~~~~~~~~~~~
   H        H          H        Q.       a   E
|-------------------|--------------------------|
|-12-------14-------|-15-------17------(17)s19-|
|-------------------|--------------------------|
|-------------------|--------------------------|
|-------------------|--------------------------|
|-------------------|--------------------------|
|
|    PM--|    PM--|      PM--|     PM-------|
|  E E E E  E E E E    E E E E  E  E E       E
|-------------------|--------------------------|
|-------------------|--------------------------|
|-------------------|--------------------------|
|-------------------|--------------------------|
|--5--------4-------|--5--------5--------------|
|--7-7-7-7--5-5-5-5-|--4-4-4-4--3--3-3-------3-|


  N.C.
   ~~~
   H.       +Q       W
|------------------|-----------------||
|-19-------(19)\---|-----------------||
|------------------|-----------------||
|------------------|-----------------||
|------------------|-----------------||
|------------------|-----------------||
|
|  H.       +E   E   E E E E E E E E
|------------------|-----------------||
|------------------|-----------------||
|------------------|-----------------||
|------------------|-----------------||
|--2--------(2)--5-|-4-3-2-1-0-------||
|--3--------(3)----|-----------4-3-2-||


 Guitar Solo (Mustaine)
  Q=130
  N.C.(E)
   ~~~                                     ~~~
   Q.        E  +E       Q        E        H.                 E      E
|-----------12-(12)---------------------|----------------------------------|
|-----------------------12--------------|----------------------------------|
|-/9-----------------------------12-----|-11------------------9------------|
|---------------------------------------|---------------------------12-----|
|---------------------------------------|----------------------------------|
|---------------------------------------|----------------------------------|
|
|     PM------------------------------|       PM-------------------------|
|                |-3--|    |----6-----|               |-3-|   |----6-----|
|  E  S S E  E   S  S S  E S S S  S S S    E  S S E E S S S E S S S  S S S
|---------------------------------------|----------------------------------|
|---------------------------------------|----------------------------------|
|---------------------------------------|----------------------------------|
|---------------------------------------|----------------------------------|
|---------------------------------------|----------------------------------|
|--0--0-0-0--0---0--0-0--0-0-0-0--0-0-0-|--0--0-0-0-0-0-0-0-0-0-0-0--0-0-0-|


  E  E   E  E E      E E      E       E  E   E  E  E      E E      E
|-----------------------------------|---12---8---------------------------|
|-------------------10--------------|----------10------------------------|
|-9-12---9----9--------9------------|-9-----------12p====11-9------------|
|----------12----------------12-----|-----------------------------12-----|
|-----------------------------------|------------------------------------|
|-----------------------------------|------------------------------------|
|
|    PM---------------------------|      PM----------------------------|
|             |-3-|    |----6-----|                |-3-|    |----6-----|
| E  S S E  E S S S  E S S S  S S S   E  S S E  E  S S S  E S S S  S S S
|-----------------------------------|------------------------------------|
|-----------------------------------|------------------------------------|
|-----------------------------------|------------------------------------|
|-----------------------------------|------------------------------------|
|-3--3-3-3--3-3-3-3--3-3-3-3--3-3-3-|-3--3-3-3--3--3-3-3--3-3-3-3--3-3-3-|
|-1--1-1-1--1-1-1-1--1-1-1-1--1-1-1-|-1--1-1-1--1--1-1-1--1-1-1-1--1-1-1-|


  N.C.(E)
  ~~                                      ~~~
  Q.        E  +E       Q        E        H.                 E     E
|----------12-(12)---------------------|---------------------------------|
|----------------------12--------------|-12------------------------------|
|-9-----------------------------12-----|-11------------------9-----8-----|
|--------------------------------------|---------------------------------|
|--------------------------------------|---------------------------------|
|--------------------------------------|---------------------------------|
|
|    PM------------------------------|       PM------------------------|
|               |-3--|    |----6-----|               |-3-|   |----6----|
| E  S S E  E   S  S S  E S S S  S S S    E  S S E E S S S E S S S S S S
|--------------------------------------|---------------------------------|
|--------------------------------------|---------------------------------|
|--------------------------------------|---------------------------------|
|--------------------------------------|---------------------------------|
|--------------------------------------|---------------------------------|
|-0--0-0-0--0---0--0-0--0-0-0-0--0-0-0-|--0--0-0-0-0-0-0-0-0-0-0-0-0-0-0-|


  N.C.
   |------6-------|  |-------5-------|  |--------6--------|   |-----6------|
   S  S  S  S  S  S  S  S  S      S  S  S  T  T  S  S  S  S   S  S  S  S   E
|-15-15-15-15-15-14-12-15-15-----15-15-15-15s14-14-12-12-12/-17-17-17-15--14-|
|----------------------------------------------------------------------------|
|----------------------------------------------------------------------------|
|----------------------------------------------------------------------------|
|----------------------------------------------------------------------------|
|----------------------------------------------------------------------------|
|
|                    PM-----------------------------------------------|
|  Q                 E        E         E           E         E        E
|----------------------------------------------------------------------------|
|----------------------------------------------------------------------------|
|----------------------------------------------------------------------------|
|----------------------------------------------------------------------------|
|-/3-----------------3-------(0)--------2-----------3---------2-------(0)----|
|-/3-----------------3--------0---------2-----------3---------2--------0-----|


   |------6-------|  |-------6-------|  |------6-------|  |------6-------|
   S  S  S  S  S  S  S  S  S  S   S  S  S  S  S  S  S  S  S  S  S  S  S  S
|-19-19-19-19-19-19-17-15-15-20--20-20-20-20-19-19-17-22-22-22-20-20-19-19-||
|--------------------------------------------------------------------------||
|--------------------------------------------------------------------------||
|--------------------------------------------------------------------------||
|--------------------------------------------------------------------------||
|--------------------------------------------------------------------------||
|
|                    PM-------------------------------------------|
|  Q                 E        E         E        E        E        E
|--------------------------------------------------------------------------||
|--------------------------------------------------------------------------||
|--------------------------------------------------------------------------||
|--------------------------------------------------------------------------||
|-/5-----------------5-------(0)--------3--------5--------3--------2-------||
|-/5-----------------5--------0---------3--------5--------3--------2-------||


 Guitar Solo (Drover)
       N.C.(E)
  Gtr III
   \4____/
              ~~~~~~~~~~~~~~~
   a    +E   +Q       E  +Q        S   S    E
|------------------------------------------22-----|
|-24---(24)-(24)-----24-(24)-------x---x----------|
|----------------------------------x---x----------|
|-------------------------------------------------|
|-------------------------------------------------|
|-------------------------------------------------|
|
| Gtr II
|        ~~~~~~~~~~~~~~~~~~~~~~~~~~~~~~~~~~~~~~~~~~
|        W
|-------24----------------------------------------|
|-------------------------------------------------|
|-------------------------------------------------|
|-------------------------------------------------|
|-------------------------------------------------|
|-------------------------------------------------|
|
| Gtr I
|             PM--------------------------------|
|                         |-3--|   |-----6------|
|        E    S  S E  E   S  S S E S S   S  S S S
|-------------------------------------------------|
|-------------------------------------------------|
|-------------------------------------------------|
|-------------------------------------------------|
|-------------------------------------------------|
|--------0----0--0-0--0---0--0-0-0-0-0---0--0-0-0-|


   +Q          S  S  S  S  S    S    S  S  S    S    S    S
|-(22)b24-----22-22p19----19h==20------19------19--------19---|
|----------------------22-----------22----20--------19--------|
|-------------------------------------------------------------|
|-------------------------------------------------------------|
|-------------------------------------------------------------|
|-------------------------------------------------------------|
|
|   >
|~~~~~~~~~
|  +W
|-(24)--------------------------------------------------------|
|-------------------------------------------------------------|
|-------------------------------------------------------------|
|-------------------------------------------------------------|
|-------------------------------------------------------------|
|-------------------------------------------------------------|
|
|         PM------------------------------------------------|
|                          |--3---|        |-------6--------|
|   E     S S  E     E     S S    S  E     S S    S  S S    S
|-------------------------------------------------------------|
|-------------------------------------------------------------|
|-------------------------------------------------------------|
|-------------------------------------------------------------|
|-------------------------------------------------------------|
|---0-----0-0--0-----0-----0-0----0--0-----0-0----0--0-0----0-|


  N.C.(F5)
  Gtr III
                ~~~                    ~~~~~~~~~~~~
   S  S  S  S   Q    +E      E  E      E
|----19----19-------------------------------------|
|-20----20----\18---(18)-------18-----18pb20======|
|-------------------------------------------------|
|-------------------------------------------------|
|-------------------------------------------------|
|-------------------------------------------------|
|
| Gtr I
|        PM-------------------------------------|
|                     |-3--|    |-------6-------|
|  E     S  S   E E   S  S S E  S S S  S      S S
|-------------------------------------------------|
|-------------------------------------------------|
|-------------------------------------------------|
|-------------------------------------------------|
|--3-----3--3---3-3---3--3-3-3--3-3-3--3------3-3-|
|--1-----1--1---1-1---1--1-1-1--1-1-1--1------1-1-|


 ~~~~~~~
                |--3--|
   +Q        E  S  S  S  S    S    a      +E   +E        a   S    S
|----------------------------------------------------------------------|
|-(18)r-----18-17h18p17------17----------------------------------------|
|-----------------------19--------19b21==(19)-(19)r====(19)-17---------|
|----------------------------------------------------------------19----|
|----------------------------------------------------------------------|
|----------------------------------------------------------------------|
|
|       PM----------------------------------------------------------|
|                        |--3---|               |---------6---------|
|   E   S S  E  E        S S    S          E    S  S S       S S    S
|----------------------------------------------------------------------|
|----------------------------------------------------------------------|
|----------------------------------------------------------------------|
|----------------------------------------------------------------------|
|---3---3-3--3--3--------3-3----3----------3----3--3-3-------3-3----3--|
|---1---1-1--1--1--------1-1----1----------1----1--1-1-------1-1----1--|


  N.C.(E)
                        ~~~~~~~                 ~~~~~~~
   S  S  S  S  S  S  S  S  +Q         S    S    E
|-----------------------------------------------------|
|-----------------------------------------------------|
|-17p16----17p16----17-16-(16)------------16----------|
|-------19-------19------------------19--------18-----|
|-----------------------------------------------------|
|-----------------------------------------------------|
|
|        PM-----------------------------------------|
|                           |-3--|    |------6------|
|  E     S  S  E     E      S  S S E  S S    S  S S S
|-----------------------------------------------------|
|-----------------------------------------------------|
|-----------------------------------------------------|
|-----------------------------------------------------|
|-----------------------------------------------------|
|--0-----0--0--0-----0------0--0-0-0--0-0----0--0-0-0-|


 ~~~~~~                     ~~
        |---3---|
   +E   S  S    S  E  S  S  H
|------------------------------------------------|
|------------------------------------------------|
|------------------------------------------------|
|-(18)-15h18p==15-14----15-14--------------------|
|--------------------17--------------------------|
|------------------------------------------------|
|
|       PM------------------------------------|
|                           |-3-|   |----6----|
|   E   S    S     E  E     S S S E S S S S S S
|------------------------------------------------|
|------------------------------------------------|
|------------------------------------------------|
|------------------------------------------------|
|------------------------------------------------|
|---0---0----0-----0--0-----0-0-0-0-0-0-0-0-0-0--|


  N.C.
  Gtr III
   S  S  S  S  S  S  S   S  S  S  S  S  S  S  S   S
|---------------------------------------------------|
|---------------------------------------------------|
|--------------------------14h17p16h17-16h19p18h=19-|
|-------------14h17p16h=17--------------------------|
|-14h17p16h17---------------------------------------|
|---------------------------------------------------|
|
| Gtr II
|  S  S  S  S  S  S  S   S  S  S  S  S  S  S  S   S
|---------------------------------------------------|
|---------------------------------------------------|
|--------------------------11h14p12h14-12h16p14h=16-|
|-------------10h14p12h=14--------------------------|
|-10h14p12h14---------------------------------------|
|---------------------------------------------------|
|
| Gtr I
|              PM----------------------------|
|  Q           E     E      E     E     E     E
|---------------------------------------------------|
|---------------------------------------------------|
|---------------------------------------------------|
|---------------------------------------------------|
|-/3-----------3----(0)-----2-----3-----2----(0)----|
|-/3-----------3-----0------2-----3-----2-----0-----|


   S  S  S  S  S  S  S   S  S  S  S  S  S  S  S  S
|-------------17h20p19h=20-------------19h22p20h22-||
|-17h20p19h20--------------19h22p20h22-------------||
|--------------------------------------------------||
|--------------------------------------------------||
|--------------------------------------------------||
|--------------------------------------------------||
|
|  S  S  S  S  S  S  S   S  S  S  S  S  S  S  S  S
|-------------12h15p14h=15-------------14h17p16h17-||
|-12h15p14h15--------------14h17p15h17-------------||
|--------------------------------------------------||
|--------------------------------------------------||
|--------------------------------------------------||
|--------------------------------------------------||
|
|              PM----------------------------|
|  Q           E     E      E     E     E     E
|--------------------------------------------------||
|--------------------------------------------------||
|--------------------------------------------------||
|--------------------------------------------------||
|-/5-----------5----(0)-----3-----5-----3-----2----||
|-/5-----------5-----0------3-----5-----3-----2----||


 Pre-Chorus
  N.C.
                        >
   ~~~~~~~~~~~~~~~~~~~~~~~~
   W                   +W                 W                  W
|-24----------------|-(24)--------------|------------------|-----------------|
|-------------------|-------------------|------------------|-----------------|
|-------------------|-------------------|------------------|-----------------|
|-------------------|-------------------|------------------|-----------------|
|-------------------|-------------------|------------------|-----------------|
|-------------------|-------------------|------------------|-----------------|
|
|                       >
|  ~~~~~~~~~~~~~~~~~~~~~~~~
|  W                   +W                 W                  W
|-19----------------|-(19)--------------|------------------|-----------------|
|-------------------|-------------------|------------------|-----------------|
|-------------------|-------------------|------------------|-----------------|
|-------------------|-------------------|------------------|-----------------|
|-------------------|-------------------|------------------|-----------------|
|-------------------|-------------------|------------------|-----------------|
|
|  PM--|                        PM------------|                    PM
|  E E E  E E E E E     E E E E E E E E   E E E  E E E E E   E E E E E E E E
|-------------------|-------------------|------------------|-----------------|
|-------------------|-------------------|------------------|-----------------|
|-------------------|-------------------|------------------|-----------------|
|-------------------|-------5-----------|------------------|-----5-------7-7-|
|-----------5---7---|-------------------|----------5---7---|-----------------|
|--0-0-0-/7---7---7-|---2s3---3-2-3-2-1-|-0-0-0-/7---7---7-|-2s3---3-3s5-5-5-|


    Gtr I
    PM--|                      PM------------|                    PM
    E E E  E E E E E   E E E E E E E E   E E E  E E E E E   E E E E E E E E   3x
||-------------------|-----------------|------------------|-------------------||
||o------------------|-----------------|------------------|------------------o||
||-------------------|-----------------|------------------|-------------------||
||-------------------|-----5-----------|------------------|-----5-------7-7---||
||o----------5---7---|-----------------|----------5---7---|------------------o||
||--0-0-0-/7---7---7-|-2s3---3-2-3-2-1-|-0-0-0-/7---7---7-|-2s3---3-3s5-5-5---||


  Gtr II
  W                   W
|-------------------|--------------------|
|-------------------|--------------------|
|-------------------|--------------------|
|-------------------|--------------------|
|-------------------|--------------------|
|-------------------|--------------------|
|
| Gtr IV
| E E H.              E E H.
|-------------------|--------------------|
|-------------------|--------------------|
|-----0-------------|-----0--------------|
|---2---------------|---4----------------|
|-3-----------------|-5------------------|
|-------------------|--------------------|
|
| Gtr I
| E E E   E E E E E   E E E   E E E E E
|-------------------|--------------------|
|-------------------|--------------------|
|-------------------|--------------------|
|-----------5---7---|-----------7--------|
|-3-3-3--/7---7---7-|-5-5-5--/9---9-7----|
|-------------------|-----------------7\-|


  Q   E   E E E E E    W
|--------------------|-----------------||
|--------------------|-----------------||
|--------/5-5--------|-----------------||
|---------------5----|-----------------||
|-------------7---7--|-----------------||
|--------------------|-----------------||
|
| E E H.               W
|--------------------|-----------------||
|--------------------|-----------------||
|-----0--------------|-----------------||
|---2----------------|-----------------||
|-3------------------|-----------------||
|--------------------|-----------------||
|
| E E E   E E E E E    E E E E E E E E
|--------------------|-----------------||
|--------------------|-----------------||
|--------------------|-----------------||
|-----------5---7----|-----------------||
|-3-3-3--/7---7---7\-|-5-3-2---3-2---3-||
|--------------------|-------5-----5---||


   Out-Chorus
    Q=132
    G        N.C.                  G        N.C.
    Gtr I
               ~~~~~~~~~~~
    E. S +E  E H      +W           E. S +E  E H      +H.      +Q
||------------------|------------|-----------------|------------------||
||o-----------------|------------|-----------------|-----------------o||
||------------------|------------|-----------------|------------------||
||-----0-(0)--------|------------|----0-(0)--------|------------------||
||o----2-(2)-5-4----|-(4)--------|----2-(2)-5-7----|-(7)------(7)\---o||
||--3--------6-5----|-(5)--------|-3--------6-8----|-(8)------(8)\----||


  G        N.C.                      G        N.C.
             ~~~~~~~~~~~   PM----|                            PM--|
  E. S +E  E H      +H     E E E E   E. S +E  E H      +H     E E E E
|-----------------|----------------|-----------------|-----------------|
|-----------------|----------------|-----------------|-----------------|
|-----------------|----------------|-----------------|-----------------|
|----0-(0)--------|----------------|----0-(0)--------|-----------------|
|----2-(2)-5-4----|-(4)------------|----2-(2)-5-7----|-(7)-------------|
|-3--------6-5----|-(5)----5-5-5-5-|-3--------6-8----|-(8)----8-8-8-8\-|


  G        N.C.                      G        N.C.
             ~~~~~~~~~~~   PM----|                          PM------|
  E. S +E  E H      +H     E E E E   E. S +E  E H      +Q   E E E E E E
|-----------------|----------------|-----------------|-------------------|
|-----------------|----------------|-----------------|-------------------|
|-----------------|----------------|-----------------|-------------------|
|----0-(0)--------|----------------|----0-(0)--------|-------------------|
|----2-(2)-5-4----|-(4)------------|----2-(2)-5-7----|-(7)---------------|
|-3--------6-5----|-(5)----5-5-5-5-|-3--------6-8----|-(8)--8-8-8-8-8-8\-|


    G        N.C.           G        N.C.             G5
               ~  PM----|                 PM----|
    E. S +E  E Q  S S S S   E. S +E  E Q  S S S S  8x Q  Q  H
||------------------------|------------------------||------------*|
||o-----------------------|-----------------------o||------------*|
||------------------------|------------------------||------------*|
||-----0-(0)--------------|----0-(0)---------------||------------*|
||o----2-(2)-5-4----------|----2-(2)-5-7----------o||-5----------*|
||--3--------6-5--5-5-5-5-|-3--------6-8--8-8-8-8--||-3----------*|



Duration Legend
---------------
W - whole; H - half; Q - quarter; E - 8th; S - 16th; T - 32nd; X - 64th; a - acciaccatura
+ - note tied to previous; . - note dotted; .. - note double dotted
Uncapitalized letters represent notes that are staccato (1/2 duration)
Irregular groupings are notated above the duration line
Duration letters will always appear directly above the note/fret number it represents the
duration for.  Duration letters with no fret number below them represent rests.  Multi-
bar rests are notated in the form Wxn, where n is the number of bars to rest for.  Low
melody durations appear below the staff

Tablature Legend
----------------
 h   - hammer-on
 p   - pull-off
 b   - bend
 pb  - pre-bend
 r   - bend release (if no number after the r, then release immediately)
 /\  - slide into or out of (from/to "nowhere")
 s   - legato slide
 S   - shift slide
 - natural harmonic
[n]  - artificial harmonic
n(n) - tapped harmonic
 ~   - vibrato
 tr  - trill
 T   - tap
 TP  - trem. picking
 PM  - palm muting
\n/  - tremolo bar dip; n = amount to dip
 \n  - tremolo bar down
 n/  - tremolo bar up
/n\  - tremolo bar inverted dip
 =   - hold bend; also acts as connecting device for hammers/pulls
 <> - volume swell (louder/softer)
 x   - on rhythm slash represents muted slash
 o   - on rhythm slash represents single note slash

Misc Legend
-----------
 |  - bar
||  - double bar
||o - repeat start
o|| - repeat end
*|  - double bar (ending)
 :  - bar (freetime)
 $  - Segno
 &  - Coda
Tempo markers -  = BPM(8/16=s8/s16), where s8 = swing 8ths, s16 = swing 16ths

comments
We did not receive enough feedback on this tab! Please rate:
print report bad tab
1 2 3 4 5
I want to post or [tab]
guest
You may want to rate the tab now too:
select rating
Please do not post tabs as comments. Select "correction" instead!