Oops, an error
Loading. Please wait.

Victory Tab

ver3
ver3

Whole song

Interactive

More versions @911Tabs.com
1,082 views 3 this week
no commentswrite comment
1 2 3 4 5
please rate
add to favorites launch autoscroll
font size
0
reset
Autoscroll
+/-
esc
set tempo
stop
Contributor
WARNING: You are trying to view
                                    content from Ultimate-Guitar.com
                                    in an unauthorized application,
                                    which is prohibited.

                                    Please use an official Ultimate
                                    Guitar Tabs application for iPhone,
                                    iPad or Android to access legitimate
                                    chords, guitar, bass, and drum tabs
                                    from Ultimate-Guitar.com database.

                                    Type "ultimate guitar tabs" in Apple
                                    App Store's or Android Market's
                                    search to find the application.
#----------------------------------PLEASE NOTE---------------------------------#
#This file is the author's own work and represents their interpretation of the #
#song. You may only use this file for private study, scholarship, or research. #
#------------------------------------------------------------------------------#

VICTORY
As recorded by Megadeth
(From the 1994 Album YOUTHANASIA)

Transcribed by /\X/\M
	

Words and Music by Dave Mustaine

E5
0 2 2 x x x
	
C5
x 3 5 5 x x
	
A5
x 0 2 2 x x
	
B5
x 2 4 4 x x
G5
3 5 5 x x x

Gtr I (Eb Ab Db Gb Bb Gb) - 'Untitled'
Gtr II (Eb Ab Db Gb Bb Gb) - 'Untitled'
Gtr III (Eb Ab Db Gb Bb Gb) - 'Untitled'

                 Verse
  Fast Rock Q=167
              $
 4/4
  Gtrs I, II
  H    Q  E E     E E Q  Q  E E   E E Q  Q  E E   E E Q  Q  E E
|-------------||----------------|---------------|---------------|
|-------------||o---------------|---------------|---------------|
|-------------||----------------|---------------|---------------|
|-----------2-||--2-----------2-|-2-----------2-|-2-----------2-|
|-----------2-||o-2-----------2-|-2-----------2-|-2-----------2-|
|-----------0-||--0-----------0-|-0-----------0-|-0-----------0-|


  E E Q  Q  E E   Q.   E +Q   Q    Q.   E +Q   E E   3x
|---------------|----------------|-------------------||
|---------------|----------------|------------------o||
|---------------|-5--------------|-5-----------------||
|-2-----------2-|-5----4-(4)--5--|-2----4-(4)--5-2---||
|-2-----------2-|-3--------------|-3-------------2--o||
|-0-----------0-|----------------|---------------0---||


  E E Q  Q  E E   E E Q  Q  E E   E E Q  Q  E E
|---------------|---------------|---------------|
|---------------|---------------|---------------|
|---------------|---------------|---------------|
|-2-----------2-|-2-----------2-|-2-----------2-|
|-2-----------2-|-2-----------2-|-2-----------2-|
|-0-----------0-|-0-----------0-|-0-----------0-|


       To Coda
  E E Q  Q  E E   Q.   E +Q   Q    Q.   E +Q   E E
|---------------|----------------|------------------||
|---------------|----------------|------------------||
|---------------|-5--------------|-5----------------||
|-2-----------2-|-5----4-(4)--5--|-2----4-(4)--5----||
|-2-----------2-|-3--------------|-3-------------4--||
|-0-----------0-|----------------|---------------2--||


 Pre-Chorus
  $$
  PM|   PM  PM|           PM    PM    PM|   PM  PM|           PM    PM
  E E E E E E E E   E E E E E E E E   E E E E E E E E   E E E E E E E E
|-----------------|-----------------|-----------------|-----------------|
|-----------------|-----------------|-----------------|-----------------|
|-----------------|-----------------|-----------------|-----------------|
|-----4---2-------|-----------------|-----4---2-------|-----------------|
|-------------0-2-|-3-2-0---2-0---4-|-------------0-2-|-3-2-0---2-0---4-|
|-2-2---2---2-----|-------2-----2-2-|-2-2---2---2-----|-------2-----2-2-|


  PM|   PM  PM|           PM    PM    PM|   PM  PM|     PM|   PM
  E E E E E E E E   E E E E E E E E   E E E E E E E E   E E E E E E E E
|-----------------|-----------------|-----------------|-----------------||
|-----------------|-----------------|-----------------|-----------------||
|-----------------|-----------------|-----------------|---------------9-||
|-----4---2-------|-----------------|-----4---2-------|-----5---3-----9-||
|-------------0-2-|-3-2-0---2-0---4-|-----------4-3-5-|-----------5S7-7-||
|-2-2---2---2-----|-------2-----2-2-|-2-2---2-------3-|-3-3---3---------||


 Chorus
        PM--------------|          PM
  +Q    E E E E E E   E E  E E +E  E E E
|-------------------|--------------------|
|-------------------|--------------------|
|-(9)\--------------|--------------------|
|-(9)\--------------|-----10-9-(9)-------|
|-(7)\--------------|------8-7-(7)---9-8-|
|-------0-0-0-0-0-0-|-0-0----------0-7-6-|


       PM--------------|          PM
  +Q   E E E E E E   E E  E E +E  E E E
|------------------|--------------------|
|------------------|--------------------|
|------------------|--------------------|
|------------------|-----10-9-(9)---7-9-|
|-(8)--------------|------8-7-(7)---5-7-|
|-(6)--0-0-0-0-0-0-|-0-0----------0-----|


     PM--------------|          PM           PM------|
  Q  E E E E E E   E E  E E +E  E E E   +Q   E E E E E E   +H     +Q.    E
|----------------|--------------------|------------------|-----------------|
|----------------|--------------------|------------------|-----------------|
|----------------|--------------------|------------------|-----------------|
|----------------|-----10-9-(9)-------|----------------5-|-(5)----(5)S==14-|
|----------------|------8-7-(7)---9-8-|-(8)------------5-|-(5)----(5)S==14-|
|----0-0-0-0-0-0-|-0-0----------0-7-6-|-(6)--0-0-0-0-0-3-|-(3)----(3)S==12-|


      PM--------------|          PM           PM--------------|          PM
  Q   E E E E E E   E E  E E +E  E E E   +Q   E E E E E E   E E  E E +E  E E E
|-----------------|--------------------|------------------|--------------------|
|-----------------|--------------------|------------------|--------------------|
|-9\--------------|--------------------|------------------|--------------------|
|-9\--------------|-----10-9-(9)-------|------------------|-----10-9-(9)---7-9-|
|-7\--------------|------8-7-(7)---9-8-|-(8)--------------|------8-7-(7)---5-7-|
|-----0-0-0-0-0-0-|-0-0----------0-7-6-|-(6)--0-0-0-0-0-0-|-0-0----------0-----|


                                           To Dbl. Coda     D.S. al Coda
     PM--------------|          PM           PM------|
  Q  E E E E E E   E E  E E +E  E E E   +Q   E E E E E E   +H.      +E  E
|----------------|--------------------|------------------|----------------||
|----------------|--------------------|------------------|----------------||
|----------------|--------------------|------------------|----------------||
|----------------|-----10-9-(9)-------|----------------5-|-(5)------(5)-2-||
|----------------|------8-7-(7)---9-8-|-(8)------------5-|-(5)------(5)-2-||
|----0-0-0-0-0-0-|-0-0----------0-7-6-|-(6)--0-0-0-0-0-3-|-(3)------(3)-0-||


  &
  Q.   E +Q   Q    Q.   E +Q   Q    Q.   E +Q   Q    Q.   E +Q   E E
|----------------|----------------|----------------|-----------------||
|----------------|----------------|----------------|-----------------||
|-5--------------|-5--------------|-5--------------|-5---------------||
|-5----4-(4)--5--|-2----4-(4)--5--|-5----4-(4)--5--|-2----4-(4)--5---||
|-3--------------|-3--------------|-3--------------|-3-------------4-||
|----------------|----------------|----------------|---------------2-||


              Interlude
  &&
               E5              C5              A5              B5
  Gtr I
  W            W               W               W               W
               |               |               |               |
               /               /               /               /

  Gtr II
  W            E E E E Q  Q    E E E E Q  Q    E E E E Q  Q    E E E E Q  Q
|----------||----------------|---------------|---------------|----------------||
|----------||o---------------|---------------|---------------|---------------o||
|----------||----------------|---------------|---------------|----------------||
|-5--------||--2-2-2-2-4--5--|---------4--5--|---------4--5--|---------5--4---||
|-5--------||o---------------|-3-3-3-3-------|-0-0-0-0-------|-2-2-2-2-------o||
|-3--------||----------------|---------------|---------------|----------------||


    Gtr I
    ~               ~
    H       Q  Q    H       Q  Q     H       Q  Q
||----------------|---------------|----------------|
||o---------------|---------------|----------------|
||----------2--4--|---------2--4--|----------2--4--|
||--5-------------|---------------|-/7-------------|
||o---------------|-3-------------|----------------|
||----------------|---------------|-/5-------------|
|
|   Gtr II
|   E E E E Q  Q    E E E E Q  Q     E E E E Q  Q
||----------------|---------------|----------------|
||o---------------|---------------|----------------|
||----------------|---------------|----------------|
||--2-2-2-2-4--5--|---------4--5--|----------4--5--|
||o---------------|-3-3-3-3-------|--0-0-0-0-------|
||----------------|---------------|----------------|


  1.                2.
  H       Q  Q      H       Q  E E
|----------------||------------------||
|---------------o||------------------||
|-4-------4--2---||-4-------4--2-----||
|----------------||------------------||
|-2-------------o||-2----------------||
|----------------||--------------0---||
|
| E E E E Q  Q      E E E E Q  E E
|----------------||------------------||
|---------------o||------------------||
|----------------||------------------||
|---------5--4---||---------5--4-----||
|-2-2-2-2-------o||-2-2-2-2----------||
|----------------||--------------0---||


 Guitar Solo
  Gtr III
   T        T        T        T        T        T
                                       |------6-------|
   S  S  S  S  S  S  S  S  S  S  S  S  S  S  S  S  S  S
|-------------------------------------------------------|
|-17p12-------------17p12-------------17p12-------------|
|-------14h16p12----------14h16p12----------14h16p12----|
|----------------14----------------14----------------14-|
|-------------------------------------------------------|
|-------------------------------------------------------|
|
| Gtrs I, II
|  E     E     Q           Q           E        E
|-------------------------------------------------------|
|-------------------------------------------------------|
|-------------------------------------------------------|
|--2--------------------------------------------2-------|
|--2--------------------------------------------2-------|
|--0--------------------------------------------0-------|


   T        T        T        T        T          T
                                       |------5------|
   S  S  S  S  S  S  S  S  S  S  S  S  S  S  S    S  S
|------------------------------------------------------|
|-15p12-------------15p12-------------15p12------------|
|-------14h16p12----------14h16p12----------14h==16p12-|
|----------------14----------------14------------------|
|------------------------------------------------------|
|------------------------------------------------------|
|
|  E     E     Q           Q           E       E
|------------------------------------------------------|
|------------------------------------------------------|
|------------------------------------------------------|
|--2-------------------------------------------2-------|
|--2-------------------------------------------2-------|
|--0-------------------------------------------0-------|


   T        T        T        T        T        T
                                       |------6-------|
   S  S  S  S  S  S  S  S  S  S  S  S  S  S  S  S  S  S
|-------------------------------------------------------|
|-17p12-------------17p12-------------17p12-------------|
|-------14h16p12----------14h16p12----------14h16p12----|
|----------------14----------------14----------------14-|
|-------------------------------------------------------|
|-------------------------------------------------------|
|
|  E     E     Q           Q           E        E
|-------------------------------------------------------|
|-------------------------------------------------------|
|-------------------------------------------------------|
|--2--------------------------------------------2-------|
|--2--------------------------------------------2-------|
|--0--------------------------------------------0-------|


   T        T        T        T                 T
                     |--3--|                    |-3--|
   S  S  S  S  S  S  S  S  S  S  S  S  S  S  S  S  S S
|------------------------------------------------------|
|-15p12------------------------------------------------|
|-------14h16p12----15p12----14p12----12s11------------|
|----------------14-------14-------14-------10-14p10p8-|
|------------------------------------------------------|
|------------------------------------------------------|
|
|  E     E     Q              Q           E     E
|------------------------------------------------------|
|------------------------------------------------------|
|------------------------------------------------------|
|--2--------------------------------------------2------|
|--2--------------------------------------------2------|
|--0--------------------------------------------0------|


   T       T       T         T       T       T
                                     |-----6------|
   S  S S  S  S S  S  S  S   S  S S  S  S S  S  S S
|---------------------------------------------------|
|---------------------------------------------------|
|---------------------------------------------------|
|-14p10p8-14p10p8-14p10p=8--14p10p8-14p10p8-14p10p8-|
|---------------------------------------------------|
|---------------------------------------------------|
|
|  Q.              E    +Q           Q
|---------------------------------------------------|
|---------------------------------------------------|
|--5------------------------------------------------|
|--5---------------4----(4)----------5--------------|
|--3------------------------------------------------|
|---------------------------------------------------|


   T       T       T         T       T
   S  S S  S  S S  S  S  S   S  S S  Q
|-----------------------------------------|
|-----------------------------------------|
|-----------------------------------------|
|-17p10p8-17p10p8-17p10p=8--17p10p8-17/---|
|-----------------------------------------|
|-----------------------------------------|
|
|  Q.              E    +Q           E  E
|-----------------------------------------|
|-----------------------------------------|
|--5--------------------------------------|
|--2---------------4----(4)----------5--2-|
|--3------------------------------------2-|
|---------------------------------------0-|


    S   S  S  S  S  S  S    S  S  S  S  S  S  S  S  S
|--12--------12-------12---------12-------12-------12-|
|------15p12----15p12------15p12----15p12----15p12----|
|-(21)s===============(5)\----------------------------|
|-----------------------------------------------------|
|-----------------------------------------------------|
|-----------------------------------------------------|
|   Q.                 E       H
|
|   E      E     Q             Q           E     E
|-----------------------------------------------------|
|-----------------------------------------------------|
|-----------------------------------------------------|
|---2--------------------------------------------2----|
|---2--------------------------------------------2----|
|---0--------------------------------------------0----|


   S  S  S  S  S  S  S  S  Q.       +E
|-------12-------12-------17b19r===(17)-|
|-15p12----15p12----15p12---------------|
|---------------------------------------|
|---------------------------------------|
|---------------------------------------|
|---------------------------------------|
|
|  E     E     Q           Q     E   E
|---------------------------------------|
|---------------------------------------|
|---------------------------------------|
|--2---------------------------------2--|
|--2---------------------------------2--|
|--0---------------------------------0--|


   S  S  S  S  S  S  S  S  S  S  S  S  S  S  S  S
|-------------------12h14-15p14-12----12h14-17p14-|
|----------12h14h15----------------15-------------|
|-12h14h15----------------------------------------|
|-------------------------------------------------|
|-------------------------------------------------|
|-------------------------------------------------|
|
|  E     E     Q           Q           E     E
|-------------------------------------------------|
|-------------------------------------------------|
|-------------------------------------------------|
|--2-----------------------------------------2----|
|--2-----------------------------------------2----|
|--0-----------------------------------------0----|


                                                            ~~~
   S  S  S  S  S  S  S  S      +E    S  S  S  S  S  S    a  H       +Q    Q
|-12----12h14-12----12--------------12----------------|--------------------------|
|----15----------15----15b17==(15)r----15-12----------|--------------------------|
|--------------------------------------------15-14-12-|-14s12------(12)s=(5)/----|
|-----------------------------------------------------|--------------------------|
|-----------------------------------------------------|--------------------------|
|-----------------------------------------------------|--------------------------|
|
|  E     E     Q                Q          E     E          Q.   E  +Q    Q
|-----------------------------------------------------|--------------------------|
|-----------------------------------------------------|--------------------------|
|-----------------------------------------------------|-----5--------------------|
|--2---------------------------------------------2----|-----5----4--(4)---5------|
|--2---------------------------------------------2----|-----3--------------------|
|--0---------------------------------------------0----|--------------------------|


       |--3--|
   E   S  S  S  E  E  E   E  E  E    S  S  S  S  S  S  S  S  S  S  S  S  S  S  S  S
|---------------------------------|-------------------------------------------------|
|-13--12h13p12--------------------|-15p12----12-15p12-15p12----12-15p12-17p12----12-|
|--------------14-12s11-----------|-------15----------------15----------------15----|
|------------------------12-------|-------------------------------------------------|
|---------------------------12S10-|-------------------------------------------------|
|---------------------------------|-------------------------------------------------|
|
|  Q.              E +Q      E  E    E     E     Q           Q           E     E
|---------------------------------|-------------------------------------------------|
|---------------------------------|-------------------------------------------------|
|--5------------------------------|-------------------------------------------------|
|--2---------------4-(4)-----5--2-|--2-----------------------------------------2----|
|--3----------------------------2-|--2-----------------------------------------2----|
|-------------------------------0-|--0-----------------------------------------0----|


   S  S  S  S  S  S  S  S  S  S  S  S  S  S  S  S
|-------------------------------------------------|
|-15p12----12-15p12-15p12----12-15p12-17p12----12-|
|-------15----------------15----------------15----|
|-------------------------------------------------|
|-------------------------------------------------|
|-------------------------------------------------|
|
|  E     E     Q           Q           E     E
|-------------------------------------------------|
|-------------------------------------------------|
|-------------------------------------------------|
|--2-----------------------------------------2----|
|--2-----------------------------------------2----|
|--0-----------------------------------------0----|


   S  S  S  S  S  S  S  S  S  S  S  S  S  S  S  S
|-------------------------------------------------|
|-15p12----12-17p12----12-15p12----12-17p12-15p12-|
|-------15----------15----------15----------------|
|-------------------------------------------------|
|-------------------------------------------------|
|-------------------------------------------------|
|
|  E     E     Q           Q           E     E
|-------------------------------------------------|
|-------------------------------------------------|
|-------------------------------------------------|
|--2-----------------------------------------2----|
|--2-----------------------------------------2----|
|--0-----------------------------------------0----|


               |-----5-----|              |------5------|
   S  S  S  S  S  S  S  S  S  S  S  S  S  S  S  S    S  S
|-17p15p12--------------------------------------------------|
|----------17p15p12----------17p15p12-----------------------|
|-------------------15p14p12----------16-15-14-12------12h==|
|---------------------------------------------------14------|
|-----------------------------------------------------------|
|-----------------------------------------------------------|
|
|  E     E     Q              Q           E       E
|-----------------------------------------------------------|
|-----------------------------------------------------------|
|-----------------------------------------------------------|
|--2----------------------------------------------2---------|
|--2----------------------------------------------2---------|
|--0----------------------------------------------0---------|


                                   ~~~
   H          +E   S  S E  E    a  H       H
|----------------------------|---------------------|
|----------------------------|------------12\------|
|-14b16======(14)r---14---12-|-14p12------12\------|
|----------------------------|---------------------|
|----------------------------|---------------------|
|----------------------------|---------------------|
|
|  Q.      E  +Q        Q          Q.   E +Q   E E
|----------------------------|---------------------|
|----------------------------|---------------------|
|--5-------------------------|-----5---------------|
|--5-------4--(4)-------5----|-----2----4-(4)--5-2-|
|--3-------------------------|-----3-------------2-|
|----------------------------|-------------------0-|


  S  S S  S S  S S  S S  S S  S S  S S  S
|------------------------------------------|
|------------------------------------------|
|--------------------------9h12p9----9h12--|
|---------------------9h12--------12-------|
|------7h10p7----7h10----------------------|
|-7h10--------10---------------------------|
|
| E    E    Q         Q         E    E
|------------------------------------------|
|------------------------------------------|
|------------------------------------------|
|-2----------------------------------2-----|
|-2----------------------------------2-----|
|-0----------------------------------0-----|


                            |------6-------|  |------6------|
    S  S  S  S  S  S  S  S  S  S  S  S  S  S  S  S  S  S S  S
|--------12h15p12----12----------15-------------12------------|
|-/12h15----------15----15-12h15----15p12s10h12----12p10s8h10-|
|-------------------------------------------------------------|
|-------------------------------------------------------------|
|-------------------------------------------------------------|
|-------------------------------------------------------------|
|
|   E     E     Q           Q                 E        E
|-------------------------------------------------------------|
|-------------------------------------------------------------|
|-------------------------------------------------------------|
|---2--------------------------------------------------2------|
|---2--------------------------------------------------2------|
|---0--------------------------------------------------0------|


   |----6-----|
   S  S S S S S S S S S S S S S S S S S
|-10----------8-------------------------|
|----10p8s7h8---8p7---8p7---------------|
|-------------------9-----9-7-9-7s5h7p5-|
|---------------------------------------|
|---------------------------------------|
|---------------------------------------|
|
|  E      E     Q       Q       E   E
|---------------------------------------|
|---------------------------------------|
|---------------------------------------|
|--2--------------------------------2---|
|--2--------------------------------2---|
|--0--------------------------------0---|


                                        ~~~~~~~~
  S S S S S S S S S S S S S S S S   E.S Q   +E  E E E
|---------------------------------|-------------------|
|-5-------------------------------|-------------------|
|---7p5h7p5s4h7p5p4h5h7p5p4h5p4h7p|=5p4-------------7-|
|---------------------------------|-----5---(5)-4-5---|
|---------------------------------|-------------------|
|---------------------------------|-------------------|
|
| E   E   Q       Q       E   E     Q.    E +Q    Q
|---------------------------------|-------------------|
|---------------------------------|-------------------|
|---------------------------------|-5-----------------|
|-2---------------------------2---|-5-----4-(4)---5---|
|-2---------------------------2---|-3-----------------|
|-0---------------------------0---|-------------------|


  ~~       ~~~              ~~
  Q   E E  Q    E  E    E   Q   +E    E   E  E      +E
|---------10---------|-----15--(15)/--------22b24==(22)-|
|-----7-8------13-12-|-13------------19--20-------------|
|-7------------------|----------------------------------|
|--------------------|----------------------------------|
|--------------------|----------------------------------|
|--------------------|----------------------------------|
|
| Q.    E +Q    Q       Q.       E   +Q      Q
|--------------------|----------------------------------|
|--------------------|----------------------------------|
|-5------------------|--5-------------------------------|
|-2-----4-(4)---5----|--5--------4---(4)-----5----------|
|-3------------------|--3-------------------------------|
|--------------------|----------------------------------|


              D.S.S. al Dbl. Coda
   +E    E    S  E.      Q.       +E
|-(22)r-22b24---22b24---22b24r===(22)--||
|--------------------------------------||
|--------------------------------------||
|--------------------------------------||
|--------------------------------------||
|--------------------------------------||
|
|   Q.                E +Q     E   E
|--------------------------------------||
|--------------------------------------||
|---5----------------------------------||
|---2-----------------4-(4)----5-------||
|---3------------------------------4---||
|----------------------------------2---||


 Pre-Chorus
  Gtrs I, II
   PM-|     PM    PM|           PM    PM    PM|   PM  PM|           PM    PM
   E  E E   E   E E E E   E E E E E E E E   E E E E E E E E   E E E E E E E E
|-----------------------|-----------------|-----------------|-----------------|
|-----------------------|-----------------|-----------------|-----------------|
|-----------------------|-----------------|-----------------|-----------------|
|-------4-------2-------|-----------------|-----4---2-------|-----------------|
|-------------------0-2-|-3-2-0---2-0---4-|-------------0-2-|-3-2-0---2-0---4-|
|--2--2-----2-----2-----|-------2-----2-2-|-2-2---2---2-----|-------2-----2-2-|
|
| Gtr III
|  ~~~
|  Q.      +E   H         W                 W                 W
|-21------(21)\---------|-----------------|-----------------|-----------------|
|-----------------------|-----------------|-----------------|-----------------|
|-----------------------|-----------------|-----------------|-----------------|
|-----------------------|-----------------|-----------------|-----------------|
|-----------------------|-----------------|-----------------|-----------------|
|-----------------------|-----------------|-----------------|-----------------|


  PM|   PM  PM|           PM    PM    PM|   PM  PM|     PM|   PM
  E E E E E E E E   E E E E E E E E   E E E E E E E E   E E E E E E E E
|-----------------|-----------------|-----------------|-----------------||
|-----------------|-----------------|-----------------|-----------------||
|-----------------|-----------------|-----------------|---------------9-||
|-----4---2-------|-----------------|-----4---2-------|-----5---3-----9-||
|-------------0-2-|-3-2-0---2-0---4-|-----------4-3-5-|-----------5S7-7-||
|-2-2---2---2-----|-------2-----2-2-|-2-2---2-------3-|-3-3---3---------||


 Chorus
        PM--------------|          PM
  +Q    E E E E E E   E E  E E +E  E E E
|-------------------|--------------------|
|-------------------|--------------------|
|-(9)\--------------|--------------------|
|-(9)\--------------|-----10-9-(9)-------|
|-(7)\--------------|------8-7-(7)---9-8-|
|-------0-0-0-0-0-0-|-0-0----------0-7-6-|


       PM--------------|          PM
  +Q   E E E E E E   E E  E E +E  E E E
|------------------|--------------------|
|------------------|--------------------|
|------------------|--------------------|
|------------------|-----10-9-(9)---7-9-|
|-(8)--------------|------8-7-(7)---5-7-|
|-(6)--0-0-0-0-0-0-|-0-0----------0-----|


     PM--------------|          PM           PM------|
  Q  E E E E E E   E E  E E +E  E E E   +Q   E E E E E E   +H     +Q.    E
|----------------|--------------------|------------------|-----------------|
|----------------|--------------------|------------------|-----------------|
|----------------|--------------------|------------------|-----------------|
|----------------|-----10-9-(9)-------|----------------5-|-(5)----(5)S==14-|
|----------------|------8-7-(7)---9-8-|-(8)------------5-|-(5)----(5)S==14-|
|----0-0-0-0-0-0-|-0-0----------0-7-6-|-(6)--0-0-0-0-0-3-|-(3)----(3)S==12-|


      PM--------------|          PM           PM--------------|          PM
  Q   E E E E E E   E E  E E +E  E E E   +Q   E E E E E E   E E  E E +E  E E E
|-----------------|--------------------|------------------|--------------------|
|-----------------|--------------------|------------------|--------------------|
|-9\--------------|--------------------|------------------|--------------------|
|-9\--------------|-----10-9-(9)-------|------------------|-----10-9-(9)---7-9-|
|-7\--------------|------8-7-(7)---9-8-|-(8)--------------|------8-7-(7)---5-7-|
|-----0-0-0-0-0-0-|-0-0----------0-7-6-|-(6)--0-0-0-0-0-0-|-0-0----------0-----|


     PM--------------|          PM           PM------|
  Q  E E E E E E   E E  E E +E  E E E   +Q   E E E E E E   +Q   +H      E  E
|----------------|--------------------|------------------|-------------------||
|----------------|--------------------|------------------|-------------------||
|----------------|--------------------|------------------|-------------------||
|----------------|-----10-9-(9)-------|----------------5-|-(5)--(5)S===14-14-||
|----------------|------8-7-(7)---9-8-|-(8)------------5-|-(5)--(5)S===14-14-||
|----0-0-0-0-0-0-|-0-0----------0-7-6-|-(6)--0-0-0-0-0-3-|-(3)--(3)S===12-12-||


   Out-Chorus
    Gtr III
                            ~~
    Q    Q   +E   Q.        W
||-------0---(0)--0------|--0------------------|
||o------0---(0)--0------|--0------------------|
||------/9---(9)-\7------|-12------------------|
||------/9---(9)-\7------|-12------------------|
||o----------------------|---------------------|
||-----------------------|---------------------|
|
|   Gtrs I, II
|        PM-------------------|          PM
|   Q    E E  E   E  E E    E E  E E +E  E E E
||-----------------------|---------------------|
||o----------------------|---------------------|
||--9\-------------------|---------------------|
||--9\-------------------|------10-9-(9)-------|
||o-7\-------------------|-------8-7-(7)---9-8-|
||-------0-0--0---0--0-0-|--0-0----------0-7-6-|


   Q    Q   +E   Q.        Q.      E +H
|-------0---(0)--0------|--0-------0-(0)--------|
|-------0---(0)--0------|--0-------0-(0)--------|
|------/9---(9)-\7------|-\2-------0-(0)--------|
|------/9---(9)-\7------|-\2-------0-(0)--------|
|-----------------------|-----------------------|
|-----------------------|-----------------------|
|
|       PM--------------------|          PM
| +Q    E E  E   E  E E    E  E  E E +E  E E E
|-----------------------|-----------------------|
|-----------------------|-----------------------|
|-----------------------|-----------------------|
|-----------------------|-------10-9-(9)---7-9--|
|-(8)-------------------|--------8-7-(7)---5-7--|
|-(6)---0-0--0---0--0-0-|--0--0----------0------|


                         ~~
  Q   Q   +E   Q.        W
|-----0---(0)--0------|--0------------------|
|-----0---(0)--0------|--0------------------|
|----/9---(9)-\7------|-12------------------|
|----/9---(9)-\7------|-12------------------|
|---------------------|---------------------|
|---------------------|---------------------|
|
|     PM-------------------|          PM
| Q   E E  E   E  E E    E E  E E +E  E E E
|---------------------|---------------------|
|---------------------|---------------------|
|---------------------|---------------------|
|---------------------|------10-9-(9)-------|
|---------------------|-------8-7-(7)---9-8-|
|-----0-0--0---0--0-0-|--0-0----------0-7-6-|


                         1.
   Q    Q   +E   Q   E   +W
|-------0---(0)--0---0-|-(0)--------------||
|-------0---(0)--0-----|-----------------o||
|------/9---(9)-\7---6-|-(6)--------------||
|------/9---(9)-\7---7-|-(7)--------------||
|----------------------|-----------------o||
|----------------------|------------------||
|
|       PM---------|
| +Q    E E  E   E E E   +H     +Q.    E
|----------------------|------------------||
|----------------------|-----------------o||
|----------------------|------------------||
|--------------------5-|-(5)----(5)S==14--||
|-(8)----------------5-|-(5)----(5)S==14-o||
|-(6)---0-0--0---0-0-3-|-(3)----(3)S==12--||


  2.
  G5           E5
  Gtrs I, II
   H.       E  E   W
   |        |  |
   /        /  /

  Gtr III
  +H.      +E  E   W
|-(0)------(0)---|------*|
|----------------|------*|
|-(6)------(6)---|------*|
|-(7)------(7)-2-|------*|
|--------------2-|------*|
|--------------0-|------*|



Duration Legend
---------------
W - whole; H - half; Q - quarter; E - 8th; S - 16th; T - 32nd; X - 64th; a - acciaccatura
+ - note tied to previous; . - note dotted; .. - note double dotted
Uncapitalized letters represent notes that are staccato (1/2 duration)
Irregular groupings are notated above the duration line
Duration letters will always appear directly above the note/fret number it represents the
duration for.  Duration letters with no fret number below them represent rests.  Multi-
bar rests are notated in the form Wxn, where n is the number of bars to rest for.  Low
melody durations appear below the staff

Tablature Legend
----------------
 h   - hammer-on
 p   - pull-off
 b   - bend
 pb  - pre-bend
 r   - bend release (if no number after the r, then release immediately)
 /\  - slide into or out of (from/to "nowhere")
 s   - legato slide
 S   - shift slide
<n> - natural harmonic
[n]  - artificial harmonic
n(n) - tapped harmonic
 ~   - vibrato
 tr  - trill
 T   - tap
 TP  - trem. picking
 PM  - palm muting
\n/  - tremolo bar dip; n = amount to dip
 \n  - tremolo bar down
 n/  - tremolo bar up
/n\  - tremolo bar inverted dip
 =   - hold bend; also acts as connecting device for hammers/pulls
 <> - volume swell (louder/softer)
 x   - on rhythm slash represents muted slash
 o   - on rhythm slash represents single note slash

Misc Legend
-----------
 |  - bar
||  - double bar
||o - repeat start
o|| - repeat end
*|  - double bar (ending)
 :  - bar (freetime)
 $  - Segno
 &  - Coda
Tempo markers - <E/E./Q/Q./H/H.> = BPM(8/16=s8/s16), where s8 = swing 8ths, s16 = swing 16ths

comments
We did not receive enough feedback on this tab! Please rate:
print report bad tab
1 2 3 4 5
I want to post or [tab]
guest
You may want to rate the tab now too:
select rating
Please do not post tabs as comments. Select "correction" instead!