Oops, an error
Loading. Please wait.

Vortex Tab

ver4
ver4

Whole song

More versions @911Tabs.com
6,499 views 12 this week
no commentswrite comment
1 2 3 4 5
please rate
Autoscroll
+/-
esc
set tempo
stop
Contributor
WARNING: You are trying to view
                                    content from Ultimate-Guitar.com
                                    in an unauthorized application,
                                    which is prohibited.

                                    Please use an official Ultimate
                                    Guitar Tabs application for iPhone,
                                    iPad or Android to access legitimate
                                    chords, guitar, bass, and drum tabs
                                    from Ultimate-Guitar.com database.

                                    Type "ultimate guitar tabs" in Apple
                                    App Store's or Android Market's
                                    search to find the application.
-------------------------------------------------------------------------------
                             Vortex (Instrumental version) - Megadeth
-------------------------------------------------------------------------------
Tabbed by: Gingernutsjonny

Tuning:     Standard (Eadgbe)

Intro/Main Riff
|-------------------------------------------------|
|-------------------------------------------------|
|-------------------------------------------------|
|--------4--------3--------0h2h3--2p0-------------|
|--2--2-----2--2-----2--2--------------3p2--0--2--|
|-------------------------------------------------|

|----------------------------------------------------|
|----------------------------------------------------|
|----------------------------------------------------|
|------4--------3--------3p2p0--3p2p0----------------|
|2--2-----2--2-----2--2----------------3p2p0--3p2p0--|
|----------------------------------------------------|

|------------------------------------------------------------------------|
|------------------------------------------------------------------------|
|------------------------------------------------------------------------|
|------4--------3--------0h2h3--2p0--2--0--------4-----------------------|
|2--2-----2--2-----2--2--------------------3--2--2--------------5--4-----|
|---------------------------------------------------0--1--2--3-----------|
 
|---------------------------|
|---------------------------|
|---------------------------|X2
|------------------2--0-----|
|2--5--------------------4--|
|------2--3--4--5-----------|

|------------------------------------------------------------------------|
|------------------------------------------------------------------------|
|-4------3---5---7----5---3---5~--------3---3---5---4--9-10b-9---12-11~--|
|-4----------------------------------------------------------------------|
|-2----------------------------------------------------------------------|
|------------------------------------------------------------------------|

|---------------------------------------------------|
|---------------------------------------------------|
|-3x---7---3--2b--1~----3---5---7---9-/12-11-12-11~-|
|---------------------------------------------------|
|---------------------------------------------------|
|---------------------------------------------------|

rythem guitar now plays main riff
|------------------------------------------|
|------------------------------------------|
|-7--8--9--10-p9-10-p9-10~---5-6-5-6-8-7~--|
|------------------------------------------|
|------------------------------------------|
|------------------------------------------|

|---------------------------|
|---------------------------|
|---------------------------|
|------------------2--0-----|
|2--5--------------------4--|
|------2--3--4--5-----------|
     
  rythem guitar now stops
|--------------------------------------------------|
|--------------------------------------------------|
|-4------10-9-10-11-10-11/9-9--------5-6-7-6-3~----|
|-4------------------------------------------------|
|-2------------------------------------------------|
|--------------------------------------------------|

|---------------------------------------------------|
|---------------------------------------------------|
|-11-10-11-12-11-10-9-7--------9-10-11-10-9-10-9-10-|
|---------------------------------------------------|
|---------------------------------------------------|
|---------------------------------------------------|


rythem guitar now plays main riff
|---------------------------------------------------|
|---------------------------------------------------|
|-9-10-11-12-11~---7~-----8-9-10-11-12-11~-----7~---|
|---------------------------------------------------|
|---------------------------------------------------|
|---------------------------------------------------|

Rythem guitar now stops
|-------------------------------------|
|-------------------------------------|
|--------------------------------4----|
|--------------------------------4----|
|-2-2-0-1-3-1-0----2-2-0-1-1-0-2-2----|
|-------------------------------------|

|------------------------------------|
|------------------------------------|
|-------------------------------4----|
|-------------------------------4----|
|-2-2-0-1-3-1-0----2-2-0-1-1-0--2----|
|------------------------------------|

|-------------------------------------|
|-------------------------------------|
|--------------------------------4----|
|--------------------------------4----|
|-2-2-0-1-3-1-0----2-2-0-1-1-0-2-2----|
|-------------------------------------|

|-------------------------------------------|
|-------------------------------------------|
|-------------------------------------------|
|-----------------------------------------4-|
|-2-2-0-1-3-1-0----2-2-0-1-1-0------------4-|
|--------------------------------12/24----2-|

|---------------------------------------------------------|
|---------------------------------------------------------|
|--------------------------------7~~----------------------|
|-/9~--9-9-9-9~----9-9-9-9-9-7-------9-7---7h9-7----------|
|------------------------------9---------9-------9\5------|
|----------------------------------------------------7~~\-|

|-------------------------------------------------------|
|-------------------------------------------------------|
|-------------------------------------------------------|
|-/9~--9-7---[7]9r7b9--9-7-9-7--------------------------|
|----------9-------------------9-0-7\5-/9\7p5-7-5-------|
|-------------------------------------------------7-5h7-|

|-------------------------------------------------|
|-----7-------------------------------------------|
|-----7--------7^---------------------------7---7-|
|-/9-------9~--------9-9-9-9-7---7h9-7~~----7---7-|
|------------------------------9----------9---9---|
|-------------------------------------------------|

|-------------------9h10-9p7-9p7--7-12p7-10p7-9p7---|
|-----------9b10~~--------------10---------------10-|
|-[9]10r9p7-----------------------------------------|
|---------------------------------------------------|
|---------------------------------------------------|
|---------------------------------------------------|

|-7-7--------------------------------------------|
|-----7-10p7-9p7----7-8p7----7-------------------|
|----------------10-------10---10p9-7---9---7~~--|
|-------------------------------------9---9------|
|------------------------------------------------|
|------------------------------------------------|

|---------------------10-11-12-12b14--12b14-12b14-|
|------10-12-10-11-12-----------------------------|
|-/11---------------------------------------------|
|-------------------------------------------------|
|-------------------------------------------------|
|-------------------------------------------------|

|-12b14r12b14-12p10---------------9---9b10-|
|--------------------12b14r12b14----9------|
|------------------------------------------|
|------------------------------------------|
|------------------------------------------|
|------------------------------------------|

|-16/21--16---------------------------|
|------17------17----14-12------------|
|-----------18----13-------14-13-12~~-|
|-------------------------------------|
|-------------------------------------|
|-------------------------------------|

|-14b16-{14}-(16)r14p12-14b15~-{14}--(15)r14p12-|
|-----------------------------------------------|
|-----------------------------------------------|
|-----------------------------------------------|
|-----------------------------------------------|
|-----------------------------------------------|

|-------------------------------------|
|-14--(14)b17r14--12^-----------------|
|---------------------[11]13r11-------|
|-------------------------------14~~~-|
|-------------------------------------|
|-------------------------------------|
                            x2
|---------------------------|-------|
|---------------------------|-------|
|-9h10p9p7-----9h10p9p7-----|--9~~--|
|----------9-9----------9-9-|-------|
|---------------------------|-------|
|---------------------------|-------|

|----------------------------------------------|
|-------9h10h12/14h15h17p15-14h15p14--14h15h17-|
|-6h7h9-----------------------------16---------|
|----------------------------------------------|
|----------------------------------------------|
|----------------------------------------------|

|-14-17-14-16----14--------14--------14-------|
|-------------17----17b19-----17b19-----17b19-|
|---------------------------------------------|
|---------------------------------------------|
|---------------------------------------------|
|---------------------------------------------|

|-17-----{17}----19-----{19}{19}{19}{19}----------------|
|-20b22--{20}----22b24------------------{22}-(24)r22-19-|
|-------------------------------------------------------|
|-------------------------------------------------------|
|-------------------------------------------------------|
|-------------------------------------------------------|

|-22p19----22p19----22p19----22b24~~--22p19-18-24-19-|
|-------22-------22-------22-------------------------|
|----------------------------------------------------|
|----------------------------------------------------|
|----------------------------------------------------|
|----------------------------------------------------|

|-----------------------------------------------|
|-23-22p19--22p19-------------------------19-19-|
|---------21-----21-[21]24r21p19----19-21-------|
|--------------------------------21-------------|
|-----------------------------------------------|
|-----------------------------------------------|

|----------------------------------19-19-22-22b24~\-|
|----------19h20p19-20h21h22-20h22--------------------|
|-22p21h22--------------------------------------------|
|-----------------------------------------------------|
|-----------------------------------------------------|
|-----------------------------------------------------|


Guitar 1
|--------------------------------------|
|--------------------------------------|
|--------------------------------------|
|-----7-----5-------6--------5-------5-|
|---7-----7-----6-------6------5---5---|
|-5-----5-----4---4---4----3-----3-----|

|-----------------------------------------------------|
|-----------------------------------------------------|
|-------------------------------------2-------5-------|
|-------4-------3-3-1-1-3-----2-0-----2---5-7-5---7\--|
|---4-------4---3-3-1-1-3---2-----2---0---5-7-----7\--|
|-2---2---2---1-----------0---------0-----------------|


Guitar 2
|--------------------------------------|
|--------------------------------------|
|--------------------------------------|
|-----7-----5-------6--------5-------5-|
|---7-----7-----6-------6------5---5---|
|-5-----5-----4---4---4----3-----3-----|

|-----------------------------------------------------|
|-----------------------------------------------------|
|---------------------------------------------5-------|
|-------4-------3-3-1-1-3-----2-0-----7~--5-7------7\-|
|---4-------4---3-3-1-1-3---2-----2-------------------|
|-2---2---2---1-----------0---------0-----------------|


Outro
|------------------------------------------|
|-12b14r12-12~~--10b12r10-10~~--9b10r9-9~~-|
|------------------------------------------|
|------------------------------------------|
|------------------------------------------|
|------------------------------------------|

|-----------------|
|-9b10~--------13-|
|---------12-1----|
|-----------------|
|-----------------|
|-----------------|

|-16b17r16-16~~--14b15r14-14~~--13~~--12~~-|
|------------------------------------------|
|------------------------------------------|
|------------------------------------------|
|------------------------------------------|
|------------------------------------------|

|-----------------------|
|-13-15b17r15p13--------|
|----------------14~~~\-|
|-----------------------|
|-----------------------|
|-----------------------|


| /  slide up
| h  hammer-on
| p  pull-off
| ~  vibrato
| x  Mute note
| b  Bend
===============================================================================
comments
We did not receive enough feedback on this tab! Please rate:
print report bad tab
1 2 3 4 5
I want to post or [tab]
guest
You may want to rate the tab now too:
select rating
Please do not post tabs as comments. Select "correction" instead!