Oops, an error
Loading. Please wait.

Washington Is Next Tab

ver2
ver2

Whole song

More versions @911Tabs.com
14,360 views 6 this week
8 commentsread comments
1 2 3 4 5
accurate
x 23
Autoscroll
+/-
esc
set tempo
stop
Contributor
Difficulty
Tabbers playing skills
intermediate
advanced
Hey! There's an official Ultimate Guitar app which is ideal
for learning songs when you're away from computer. Get the app
WARNING: You are trying to view
                                    content from Ultimate-Guitar.com
                                    in an unauthorized application,
                                    which is prohibited.

                                    Please use an official Ultimate
                                    Guitar Tabs application for iPhone,
                                    iPad or Android to access legitimate
                                    chords, guitar, bass, and drum tabs
                                    from Ultimate-Guitar.com database.

                                    Type "ultimate guitar tabs" in Apple
                                    App Store's or Android Market's
                                    search to find the application.
-----------------------------------------------------------------------------
			     WASHINGTON IS NEXT! - Megadeth
-----------------------------------------------------------------------------
Transcribed by: Brett Dixon
Email: godsmack2222003@hotmail.com

Tuning: (All Three Guitars) Standard


Intro

(Note: The X's are partial palmmutes on the open e string.
Just palmmute it enough so that you hear the note but dosen't
really ring)

e|-3p0-x--<3>p0-3p0-x-2p0-xx-3p0-2p0--3p0-x-5p0-x-3p0-x-2p0-xx-3p0-2p0-|
B|---------------------------------------------------------------------|
G|--(artifical---------------------------------------------------------|
D|------harmonic)------------------------------------------------------|
A|---------------------------------------------------------------------|
E|---------------------------------------------------------------------|
 |								       |
 |								       |
 |								       |
e|---------------------------------------------------------------------|
B|---------------------------------------------------------------------|
G|---------------------------------------------------------------------|
D|-8-----------------------------------10------------------------------|
A|-5------------------------------------7------------------------------|
E|---------------------------------------------------------------------|

e|-3p0-x-5p0-x-3p0-x-2p0-x-3p0-2p0-3p0-x-5p0-x-7p0-x-8p0-x-7p0-5p0--|
B|------------------------------------------------------------------|
G|------------------------------------------------------------------|
D|------------------------------------------------------------------|
A|------------------------------------------------------------------|
E|------------------------------------------------------------------|
 |								    |
 |								    |
 |								    |
e|------------------------------------------------------------------|
B|------------------------------------------------------------------|
G|------------------------------------------------------------------|
D|-7---------------------------------9------------------------------|
A|-5---------------------------------7------------------------------|
E|------------------------------------------------------------------|

e|-3p0-x-5p0-x-3p0-x-2p0-x-3p0-2p0-3p0-x-5p0-x-3p0-x-2p0-x-3p0-2p0--|
B|------------------------------------------------------------------|
G|------------------------------------------------------------------|
D|------------------------------------------------------------------|
A|------------------------------------------------------------------|
E|------------------------------------------------------------------|
 |         							    |
 |								    |
 |								    |
e|------------------------------------------------------------------|
B|------------------------------------------------------------------|
G|------------------------------------------------------------------|
D|-5--------------------------------10---------------9--------------|
A|-3---------------------------------7---------------7--------------|
E|------------------------------------------------------------------|

e|-3p0-x-5p0-x-3p0-x-2p0-x-3p0-2p0-3p0-x-5p0-x-7p0-x-8p0-x-7p0-5p0--|
B|------------------------------------------------------------------|
G|------------------------------------------------------------------|
D|------------------------------------------------------------------|
A|------------------------------------------------------------------|
E|------------------------------------------------------------------|
 |							            |
 |							            |
 |								    |
e|------------------------------------------------------------------|
B|------------------------------------------------------------------|
G|------------------------------------------------------------------|
D|-2---------------------------------0--2---------------------------|
A|-2---------------------------------0--2---------------------------|
E|-0--------------------------------(0)-0---------------------------|

Here's the part where the third guitar kicks in.

e|-3--x--5--x--3--x--2--x--3--2---3--x--5---x--3---x--2-x---3--2----|
B|-3--x--5--x--3--x--2--x--3--2---3--x--5---x--3---x--2-x---3--2----|
G|------------------------------------------------------------------|
D|------------------------------------------------------------------|
A|------------------------------------------------------------------|
E|------------------------------------------------------------------|
 |								    |
 |								    |
 |								    |
e|-3p0-x-5p0-x-3p0-x-2p0-x-3p0-2p0-3p0-x-5p0-x-3p0-x-2p0-x-3p0-2p0--|
B|------------------------------------------------------------------|
G|------------------------------------------------------------------|
D|------------------------------------------------------------------|
A|------------------------------------------------------------------|
E|------------------------------------------------------------------|
 |								    |
 |								    |
 |							            |
e|------------------------------------------------------------------|
B|------------------------------------------------------------------|
G|------------------------------------------------------------------|
D|-8-------------------------------10-------------------------------|
A|-5--------------------------------7-------------------------------|
E|------------------------------------------------------------------|


e|-3--x--5--x--3--x--2--x--3--2----3--x--5---x--7--x-8---x--7--5----|
B|-3--x--5--x--3--x--2--x--3--2----3--x--5---x--7--x-8---x--7--5----|
G|------------------------------------------------------------------|
D|------------------------------------------------------------------|
A|------------------------------------------------------------------|
E|------------------------------------------------------------------|
 |								    |
 |								    |
 |                                                                  |
e|-3p0-x-5p0-x-3p0-x-2p0-x-3p0-2p0-3p0-x-5p0-x-7p0-x-8p0-x-7p0-5p0--|
B|------------------------------------------------------------------|
G|------------------------------------------------------------------|
D|------------------------------------------------------------------|
A|------------------------------------------------------------------|
E|------------------------------------------------------------------|
 |								    |
 |								    |
 |								    |
e|------------------------------------------------------------------|
B|------------------------------------------------------------------|
G|------------------------------------------------------------------|
D|-7-------------------------------9--------------------------------|
A|-5-------------------------------7--------------------------------|
E|------------------------------------------------------------------|


e|-3--x--5--x--3--x--2--x--3--2----3----x-5---x--2----x--3---x---2---0--|
B|-3--x--5--x--3--x--2--x--3--2----3----x-5---x--2----x--3---x---2---0--|
G|----------------------------------------------------------------------|
D|----------------------------------------------------------------------|
A|----------------------------------------------------------------------|
E|----------------------------------------------------------------------|
 |									|
 |									|
 |									|
e|-3p0-x-5p0-x-3p0-x-2p0-x-3p0-2p0--3p0-x-5p0-x--2p0--x--3p0--x--2p0-0--|
B|----------------------------------------------------------------------|
G|----------------------------------------------------------------------|
D|----------------------------------------------------------------------|
A|----------------------------------------------------------------------|
E|----------------------------------------------------------------------|
 |									|
 |									|
 |									|
e|----------------------------------------------------------------------|
B|----------------------------------------------------------------------|
G|----------------------------------------------------------------------|
D|-5--------------------------------10-----------9----------------------|
A|-3---------------------------------7-----------7----------------------|
E|----------------------------------------------------------------------|


e|-12p0-x-8p0-x-10p0-x-6p0-xx-8p0-4p0-6p0-x-2p0-x-3p0-x-0-xx-2p0-0--|
B|------------------------------------------------------------------|
G|------------------------------------------------------------------|
D|------------------------------------------------------------------|
A|------------------------------------------------------------------|
E|------------------------------------------------------------------|
 |								    |
 |								    |
 |								    |
e|------------------------------------------------------------------|
B|------------------------------------------------------------------|
G|------------------------------------------------------------------|
D|-12-----8------10-----6-----8----4----6----2-----3----0------2--0-|
A|-12-----8------10-----6-----8----4----6----2-----3----0------2--0-|
E|------------------------------------------------------------------|

MAIN RIFF

e|---------------------------------------------------------------------------|
B|---------------------------------------------------------------------------|
G|---------------------------------------------------------------------------|
D|-9-----9-----9-----9-----9---9---10-----10-----10-----10-------------------|
A|-7-----7-----7-----7-----7---7----7------7------7------7-------------------|
E|---0-0---0-0---0-0---0-0---0---0----0-0----0-0----0-0----0-0--3-2-0--------|
pm   . .   . .   . .   . .   .   .    . .    . .    . .    . .  . .


e|----------------------------------------------------------------------|
B|----------------------------------------------------------------------|
G|----------------------------------------------------------------------|
D|-7-----7-----7-----7-----7---7---9-----9-----9------------------------|
A|-5-----5-----5-----5-----5---5---7-----7-----7------------------------|
E|---0-0---0-0---0-0---0-0---0---0---0-0---0-0---0-0---0h7-0-0h5-0-0h3--|
     . .   . .   . .   . .   .   .   . .   . .   . .       .     .

e|------------------------------------------------------------------------|
B|------------------------------------------------------------------------|
G|------------------------------------------------------------------------|
D|-5-----5-----5-----5-----5---5--10-----10-----10-----10-----------------|
A|-3-----3-----3-----3-----3---3---7------7------7------7-----------------|
E|---0-0---0-0---0-0---0-0---0-------0-0----0-0----0-0----0-0--6\8--7--5--|
     . .   . .   . .   . .   .       . .    . .    . .    . .

e|----------------------------------------------------------------|
B|----------------------------------------------------------------|
G|----------------------------------------------------------------|
D|-2-----0-----2-----3-----2---0---2-----0-----2-----3-----2---0--|
A|-2-----0-----2-----3-----2---0---2-----0-----2-----3-----2---0--|
E|---0-0---0-0---0-0---0-0---0---0---0-0---0-0---0-0---0-0---0----|

e|---------------------------------------------------------------------------|
B|---------------------------------------------------------------------------|
G|---------------------------------------------------------------------------|
D|-9-----9-----9-----9-----9---9---10-----10-----10-----10-------------------|
A|-7-----7-----7-----7-----7---7----7------7------7------7-------------------|
E|---0-0---0-0---0-0---0-0---0---0----0-0----0-0----0-0----0-0--3-2-0--------|
pm   . .   . .   . .   . .   .   .    . .    . .    . .    . .  . .


e|----------------------------------------------------------------------|
B|----------------------------------------------------------------------|
G|----------------------------------------------------------------------|
D|-7-----7-----7-----7-----7---7---9-----9-----9------------------------|
A|-5-----5-----5-----5-----5---5---7-----7-----7------------------------|
E|---0-0---0-0---0-0---0-0---0---0---0-0---0-0---0-0---0h7-0-0h5-0-0h3--|
     . .   . .   . .   . .   .   .   . .   . .   . .       .     .

e|---------------------------------------------------------------------------|
B|---------------------------------------------------------------------------|
G|---------------------------------------------------------------------------|
D|-9-----9-----9-----9-----9---9---10-----10-----10-----10-------------------|
A|-7-----7-----7-----7-----7---7----7------7------7------7-------------------|
E|---0-0---0-0---0-0---0-0---0---0----0-0----0-0----0-0----0-0--0-1-1--------|
pm   . .   . .   . .   . .   .   .    . .    . .    . .    . .  . . .

CHORUS

(NOTE: IN THIS PART, GUITAR 1 IS THE KEYBOARD)

e|------------------------------------------------------|
B|-5---4--5--7---5--4--5---5---4--5---7---5--4---5---4--|
G|------------------------------------------------------|
D|------------------------------------------------------|
A|------------------------------------------------------|
E|------------------------------------------------------|
 |							|
 |							|
 |							|
e|------------------------------------------------------|
B|------------------------------------------------------|
G|-9------------------------9---------------------------|
D|-9-----------------------10---------------------------|
A|-7------------------------7---------------------------|
E|------------------------------------------------------|

e|------------------------------------------------------|
B|------------------------------------------------------|
G|-5-----------------------(5)-\-6---7------------------|
D|-5-----------------------(5)-\-6---7----5H7P5---------|
A|-3-----------------------(3)-\-4---5--5-------7P5-----|
E|------------------------------------------------------|

e|------------------------------------------------------|
B|-5---4--5--7---5--4--5---5---4--5---7---5--4---5---4--|
G|------------------------------------------------------|
D|------------------------------------------------------|
A|------------------------------------------------------|
E|------------------------------------------------------|
 |							|
 |							|
 |							|
e|------------------------------------------------------|
B|------------------------------------------------------|
G|-9------------------------9---------------------------|
D|-9-----------------------10---------------------------|
A|-7------------------------7---------------------------|
E|------------------------------------------------------|

e|------------------------------------------------------|
B|------------------------------------------------------|
G|-5-----------------------(5)-\-6---7------------------|
D|-5-----------------------(5)-\-6---7----5H7P5---------|
A|-3-----------------------(3)-\-4---5--5-------7P5-----|
E|------------------------------------------------------|

e|-3--x--5--x--3--x--2--x--3--2---3--x--5---x--3---x--2-x---3--2----|
B|-3--x--5--x--3--x--2--x--3--2---3--x--5---x--3---x--2-x---3--2----|
G|------------------------------------------------------------------|
D|------------------------------------------------------------------|
A|------------------------------------------------------------------|
E|------------------------------------------------------------------|
 |								    |
 |								    |
 |								    |
e|-3p0-x-5p0-x-3p0-x-2p0-x-3p0-2p0-3p0-x-5p0-x-3p0-x-2p0-x-3p0-2p0--|
B|------------------------------------------------------------------|
G|------------------------------------------------------------------|
D|------------------------------------------------------------------|
A|------------------------------------------------------------------|
E|------------------------------------------------------------------|
 |								    |
 |								    |
 |							            |
e|------------------------------------------------------------------|
B|------------------------------------------------------------------|
G|------------------------------------------------------------------|
D|-8-------------------------------10-------------------------------|
A|-5--------------------------------7-------------------------------|
E|------------------------------------------------------------------|


e|-3--x--5--x--3--x--2--x--3--2----3--x--5---x--7--x-8---x--7--5----|
B|-3--x--5--x--3--x--2--x--3--2----3--x--5---x--7--x-8---x--7--5----|
G|------------------------------------------------------------------|
D|------------------------------------------------------------------|
A|------------------------------------------------------------------|
E|------------------------------------------------------------------|
 |								    |
 |								    |
 |                                                                  |
e|-3p0-x-5p0-x-3p0-x-2p0-x-3p0-2p0-3p0-x-5p0-x-7p0-x-8p0-x-7p0-5p0--|
B|------------------------------------------------------------------|
G|------------------------------------------------------------------|
D|------------------------------------------------------------------|
A|------------------------------------------------------------------|
E|------------------------------------------------------------------|
 |								    |
 |								    |
 |								    |
e|------------------------------------------------------------------|
B|------------------------------------------------------------------|
G|------------------------------------------------------------------|
D|-7-------------------------------9--------------------------------|
A|-5-------------------------------7--------------------------------|
E|------------------------------------------------------------------|


e|-3--x--5--x--3--x--2--x--3--2----3----x-5---x--2----x--3---x---2---0--|
B|-3--x--5--x--3--x--2--x--3--2----3----x-5---x--2----x--3---x---2---0--|
G|----------------------------------------------------------------------|
D|----------------------------------------------------------------------|
A|----------------------------------------------------------------------|
E|----------------------------------------------------------------------|
 |									|
 |									|
 |									|
e|-3p0-x-5p0-x-3p0-x-2p0-x-3p0-2p0--3p0-x-5p0-x--2p0--x--3p0--x--2p0-0--|
B|----------------------------------------------------------------------|
G|----------------------------------------------------------------------|
D|----------------------------------------------------------------------|
A|----------------------------------------------------------------------|
E|----------------------------------------------------------------------|
 |									|
 |									|
 |									|
e|----------------------------------------------------------------------|
B|----------------------------------------------------------------------|
G|----------------------------------------------------------------------|
D|-5--------------------------------10-----------9----------------------|
A|-3---------------------------------7-----------7----------------------|
E|----------------------------------------------------------------------|


e|-12p0-x-8p0-x-10p0-x-6p0-xx-8p0-4p0-6p0-x-2p0-x-3p0-x-0-xx-2p0-0--|
B|------------------------------------------------------------------|
G|------------------------------------------------------------------|
D|------------------------------------------------------------------|
A|------------------------------------------------------------------|
E|------------------------------------------------------------------|
 |								    |
 |								    |
 |								    |
e|------------------------------------------------------------------|
B|------------------------------------------------------------------|
G|------------------------------------------------------------------|
D|-12-----8------10-----6-----8----4----6----2-----3----0------2--0-|
A|-12-----8------10-----6-----8----4----6----2-----3----0------2--0-|
E|------------------------------------------------------------------|


MAIN RIFF 2

e|---------------------------------------------------------------------------|
B|---------------------------------------------------------------------------|
G|---------------------------------------------------------------------------|
D|-9-----9-----9-----9-----9---9---10-----10-----10-----10-------------------|
A|-7-----7-----7-----7-----7---7----7------7------7------7-------------------|
E|---0-0---0-0---0-0---0-0---0---0----0-0----0-0----0-0----0-0--3-2-0--------|
pm   . .   . .   . .   . .   .   .    . .    . .    . .    . .  . .


e|----------------------------------------------------------------------|
B|----------------------------------------------------------------------|
G|----------------------------------------------------------------------|
D|-7-----7-----7-----7-----7---7---9-----9-----9------------------------|
A|-5-----5-----5-----5-----5---5---7-----7-----7------------------------|
E|---0-0---0-0---0-0---0-0---0---0---0-0---0-0---0-0---0h7-0-0h5-0-0h3--|
     . .   . .   . .   . .   .   .   . .   . .   . .       .     .

e|------------------------------------------------------------------------|
B|------------------------------------------------------------------------|
G|------------------------------------------------------------------------|
D|-5-----5-----5-----5-----5---5--10-----10-----10-----10-----------------|
A|-3-----3-----3-----3-----3---3---7------7------7------7-----------------|
E|---0-0---0-0---0-0---0-0---0-------0-0----0-0----0-0----0-0--6\8--7--5--|
     . .   . .   . .   . .   .       . .    . .    . .    . .

e|----------------------------------------------------------------|
B|----------------------------------------------------------------|
G|----------------------------------------------------------------|
D|-2-----0-----2-----3-----2---0---2-----0-----2-----3-----2---0--|
A|-2-----0-----2-----3-----2---0---2-----0-----2-----3-----2---0--|
E|---0-0---0-0---0-0---0-0---0---0---0-0---0-0---0-0---0-0---0----|

e|---------------------------------------------------------------------------|
B|---------------------------------------------------------------------------|
G|---------------------------------------------------------------------------|
D|-9-----9-----9-----9-----9---9---10-----10-----10-----10-------------------|
A|-7-----7-----7-----7-----7---7----7------7------7------7-------------------|
E|---0-0---0-0---0-0---0-0---0---0----0-0----0-0----0-0----0-0--3-2-0--------|
pm   . .   . .   . .   . .   .   .    . .    . .    . .    . .  . .


e|----------------------------------------------------------------------|
B|----------------------------------------------------------------------|
G|----------------------------------------------------------------------|
D|-7-----7-----7-----7-----7---7---9-----9-----9------------------------|
A|-5-----5-----5-----5-----5---5---7-----7-----7------------------------|
E|---0-0---0-0---0-0---0-0---0---0---0-0---0-0---0-0---0h7-0-0h5-0-0h3--|
     . .   . .   . .   . .   .   .   . .   . .   . .       .     .

e|---------------------------------------------------------------------------|
B|---------------------------------------------------------------------------|
G|---------------------------------------------------------------------------|
D|-9-----9-----9-----9-----9---9---10-----10-----10------------3-2-0---------|
A|-7-----7-----7-----7-----7---7----7------7------7------3-2-0-------2-0-----|
E|---0-0---0-0---0-0---0-0---0---0----0-0----0-0----0-0----------------------|
pm   . .   . .   . .   . .   .   .    . .    . .    . .

e|------------------------------------------------------|
B|-5---4--5--7---5--4--5---5---4--5---7---5--4---5---4--|
G|------------------------------------------------------|
D|------------------------------------------------------|
A|------------------------------------------------------|
E|------------------------------------------------------|
 |							|
 |							|
 |							|
e|------------------------------------------------------|
B|------------------------------------------------------|
G|-9------------------------9---------------------------|
D|-9-----------------------10---------------------------|
A|-7------------------------7---------------------------|
E|------------------------------------------------------|

e|------------------------------------------------------|
B|------------------------------------------------------|
G|-5-----------------------(5)-\-6---7------------------|
D|-5-----------------------(5)-\-6---7----5H7P5---------|
A|-3-----------------------(3)-\-4---5--5-------7P5-----|
E|------------------------------------------------------|

e|------------------------------------------------------|
B|-5---4--5--7---5--4--5---5---4--5---7---5--4---5---4--|
G|------------------------------------------------------|
D|------------------------------------------------------|
A|------------------------------------------------------|
E|------------------------------------------------------|
 |							|
 |							|
 |							|
e|------------------------------------------------------|
B|------------------------------------------------------|
G|-9------------------------9---------------------------|
D|-9-----------------------10---------------------------|
A|-7------------------------7---------------------------|
E|------------------------------------------------------|

e|------------------------------------------------------|
B|------------------------------------------------------|
G|-5-----------------------(5)-\-6---7------------------|
D|-5-----------------------(5)-\-6---7----5H7P5---------|
A|-3-----------------------(3)-\-4---5--5-------7P5-----|
E|------------------------------------------------------|

e|-3--x--5--x--3--x--2--x--3--2---3--x--5---x--3---x--2-x---3--2----|
B|-3--x--5--x--3--x--2--x--3--2---3--x--5---x--3---x--2-x---3--2----|
G|------------------------------------------------------------------|
D|------------------------------------------------------------------|
A|------------------------------------------------------------------|
E|------------------------------------------------------------------|
 |								    |
 |								    |
 |								    |
e|-3p0-x-5p0-x-3p0-x-2p0-x-3p0-2p0-3p0-x-5p0-x-3p0-x-2p0-x-3p0-2p0--|
B|------------------------------------------------------------------|
G|------------------------------------------------------------------|
D|------------------------------------------------------------------|
A|------------------------------------------------------------------|
E|------------------------------------------------------------------|
 |								    |
 |								    |
 |							            |
e|------------------------------------------------------------------|
B|------------------------------------------------------------------|
G|------------------------------------------------------------------|
D|-8-------------------------------10-------------------------------|
A|-5--------------------------------7-------------------------------|
E|------------------------------------------------------------------|


e|-3--x--5--x--3--x--2--x--3--2----3--x--5---x--7--x-8---x--7--5----|
B|-3--x--5--x--3--x--2--x--3--2----3--x--5---x--7--x-8---x--7--5----|
G|------------------------------------------------------------------|
D|------------------------------------------------------------------|
A|------------------------------------------------------------------|
E|------------------------------------------------------------------|
 |								    |
 |								    |
 |                                                                  |
e|-3p0-x-5p0-x-3p0-x-2p0-x-3p0-2p0-3p0-x-5p0-x-7p0-x-8p0-x-7p0-5p0--|
B|------------------------------------------------------------------|
G|------------------------------------------------------------------|
D|------------------------------------------------------------------|
A|------------------------------------------------------------------|
E|------------------------------------------------------------------|
 |								    |
 |								    |
 |								    |
e|------------------------------------------------------------------|
B|------------------------------------------------------------------|
G|------------------------------------------------------------------|
D|-7-------------------------------9--------------------------------|
A|-5-------------------------------7--------------------------------|
E|------------------------------------------------------------------|


e|-3--x--5--x--3--x--2--x--3--2----3----x-5---x--2----x--3---x---2---0--|
B|-3--x--5--x--3--x--2--x--3--2----3----x-5---x--2----x--3---x---2---0--|
G|----------------------------------------------------------------------|
D|----------------------------------------------------------------------|
A|----------------------------------------------------------------------|
E|----------------------------------------------------------------------|
 |									|
 |									|
 |									|
e|-3p0-x-5p0-x-3p0-x-2p0-x-3p0-2p0--3p0-x-5p0-x--2p0--x--3p0--x--2p0-0--|
B|----------------------------------------------------------------------|
G|----------------------------------------------------------------------|
D|----------------------------------------------------------------------|
A|----------------------------------------------------------------------|
E|----------------------------------------------------------------------|
 |									|
 |									|
 |									|
e|----------------------------------------------------------------------|
B|----------------------------------------------------------------------|
G|----------------------------------------------------------------------|
D|-5--------------------------------10-----------9----------------------|
A|-3---------------------------------7-----------7----------------------|
E|----------------------------------------------------------------------|


e|-12p0-x-8p0-x-10p0-x-6p0-xx-8p0-4p0-6p0-x-2p0-x-3p0-x-0-xx-2p0-0--|
B|------------------------------------------------------------------|
G|------------------------------------------------------------------|
D|------------------------------------------------------------------|
A|------------------------------------------------------------------|
E|------------------------------------------------------------------|
 |								    |
 |								    |
 |								    |
e|------------------------------------------------------------------|
B|------------------------------------------------------------------|
G|------------------------------------------------------------------|
D|-12-----8------10-----6-----8----4----6----2-----3----0------2--0-|
A|-12-----8------10-----6-----8----4----6----2-----3----0------2--0-|
E|------------------------------------------------------------------|

PRE SOLO (THE TAPPING PART)

e|-----------------------------------------------------------------|
B|-t12p5p3-t12p5p3-t12p5p3-t12p5p3-t13p5p3-t13p5p3-t13p5p3-t13p5p3-|
G|-----------------------------------------------------------------|
D|-----------------------------------------------------------------|
A|-----------------------------------------------------------------|
E|-----------------------------------------------------------------|

e|-t14p7p5-t14p7p5-t14p7p5-t14p7p5-t15p7p5-t15p7p5-t15p7p5-t15p7p5-|
B|-----------------------------------------------------------------|
G|-----------------------------------------------------------------|
D|-----------------------------------------------------------------|
A|-----------------------------------------------------------------|
E|-----------------------------------------------------------------|

e|-t15p9p7-t15p9p7-t15p9p7-t15p9p7-t17p9p7-t17p9p7-t17p9p7-t17p9p7-|
B|-----------------------------------------------------------------|
G|-----------------------------------------------------------------|
D|-----------------------------------------------------------------|
A|-----------------------------------------------------------------|
E|-----------------------------------------------------------------|

e|-t19p15p12-t19p15p12-t19p15p12-t19p15p12-t19p15p12-t19p15p12-----|
B|-----------------------------------------------------------------|
G|-----------------------------------------------------------------|
D|-----------------------------------------------------------------|
A|-----------------------------------------------------------------|
E|-----------------------------------------------------------------|

e|-t19p15p12---19b21--|
B|-------------19b21--|
G|--------------------|
D|--------------------|
A|--------------------|
E|--------------------|

GUITAR SOLO 1 (DROVER)

e|-----------------------------------19B21----17-19-17----15-----------|
B|---------17--16H17--17H19--21--19--------------------17----17-17B18--|
G|---------------------------------------------------------------------|
D|-12~~~~~~------------------------------------------------------------|
A|---------------------------------------------------------------------|
E|---------------------------------------------------------------------|

e|----------------------------------------------------------|
B|-15-17-15----15--------------------17-------18------------|
G|----------15----15-15B16--15-16-15----17-16----15---------|
D|--------------------------------------------------15-15~~~|
A|----------------------------------------------------------|
E|----------------------------------------------------------|

e|-------------------------------------------------------------------------|
B|-------------------------------------------------------------------------|
G|-------------------------------------------------------------------------|
D|-17-16-15-15-14-13----------15-14-13-17-16-15-15-14-13----------15-14-13-|
A|-------------------15-14-13----------------------------15-14-13----------|
E|-------------------------------------------------------------------------|

e|-------------------------------------21b22-~~~~~-|
B|-19-17-15----------19-17-15-21-19-17-------------|
G|----------19-17-15-------------------------------|
D|-------------------------------------------------|
A|-------------------------------------------------|
E|-------------------------------------------------|

e|-21p19p17\12/13\12-17p15p12\7/8\7-9p8p7\5/6\5-7p5p4-0h1p0--|
B|-----------------------------------------------------------|
G|-----------------------------------------------------------|
D|-----------------------------------------------------------|
A|-----------------------------------------------------------|
E|-----------------------------------------------------------|

e|-----4-----5-----6----|
B|-2h3---3h4---4h5------|
G|----------------------|
D|----------------------|
A|----------------------|
E|----------------------|

SOLO #2 (MUSTAINE)

e|-17b19r17-\-17b21r17-\-21b23r21------------------------------------------|
B|-------------------------------------------------------------------------|
G|------------------------------------------------------------15-13-15p13--|
D|-------------------------------------------17p16p15----------------------|
A|----------------------------------14-15-16----------15-16----------------|
E|-------------------------------------------------------------------------|

e|-----------------------------------------------------------------|
B|-----------------------------------------------------------------|
G|------------------------------------15-13-15p13------------------|
D|----13-14-----------17p16p15-----------------------14------------|
A|-15--------14-15-16----------15-16--------------15------12-------|
E|-----------------------------------------------------------------|
END SOLO 2

FILL BETWEEN SOLO 2 AND SOLO 3

e|--------------------------|
B|-------------------3-2-0--|
G|-------------3-2-0--------|
D|-------3-2-0--------------|
A|-3-2-0--------------------|
E|--------------------------|

SOLO #3 (DROVER)

e|-------------------------------------------------15P12-------------------|
B|------------------------15~~~~-15P12-15P12-------------15P12-------------|
G|-15-~~~~~~~~~--14-15-14--------------------15P12-------------13P12-12~~~-|
D|-15-~~~~~~~~~------------------------------------------------------------|
A|-------------------------------------------------------------------------|
E|-------------------------------------------------------------------------|

e|-------------------------------------------------------------------------|
B|-------------------------------------------------------------------------|
G|-------------------------------------------------------------------------|
D|-------------------------------------------------------------------------|
A|-3-4-3-4-5-4-5-6-5-6-7-6-7-8-7-8-9-8-9-10-9-10-11-10-11-12-11-12-13-12---|
E|-------------------------------------------------------------------------|

e|-------------------------------------------------------------------------|
B|-------------------------------------------------------------------------|
G|----------------------------------------------------------15-16-15-------|
D|-12-12-15-12----------13-14-13-14-15-14----------15-16-15----------------|
A|-------------13-14-13-------------------14-15-14-------------------------|
E|-------------------------------------------------------------------------|

e|-------------------------------------------------------------------------|
B|-------------------------------------------------------14-15-14-15-16-15-|
G|-------------------16-17-16-17-18-17----------17-18-17-------------------|
D|-16-17-16-17-18-17-------------------17-18-17----------------------------|
A|-------------------------------------------------------------------------|
E|-------------------------------------------------------------------------|

e|----------------------------17H19P17--21B23-|
B|-17-18-17-18-19-18-19-20-19-----------------|
G|--------------------------------------------|
D|--------------------------------------------|
A|--------------------------------------------|
E|--------------------------------------------|

MAIN RIFF

e|------------------------------------------------------|
B|-5---4--5--7---5--4--5---5---4--5---7---5--4---5---4--|
G|------------------------------------------------------|
D|------------------------------------------------------|
A|------------------------------------------------------|
E|------------------------------------------------------|
 |							|
 |							|
 |							|
e|------------------------------------------------------|
B|------------------------------------------------------|
G|-9------------------------9---------------------------|
D|-9-----------------------10---------------------------|
A|-7------------------------7---------------------------|
E|------------------------------------------------------|
 |						        |
 |							|
 |							|
e|------------------------------------------------------|
B|------------------------------------------------------|
G|------------------------------------------------------|
D|---------------5----------------5---------------------|
A|---7--5--5--7-----7-------5--7-----7--7--5--7---------|
E|------------------------------------------------------|

e|------------------------------------------------------|
B|------------------------------------------------------|
G|-5-----------------------(5)-\-6---7------------------|
D|-5-----------------------(5)-\-6---7----5H7P5---------|
A|-3-----------------------(3)-\-4---5--5-------7P5-----|
E|------------------------------------------------------|
 |							|
 |							|
 |							|
e|------------------------------------------------------|
B|------------------------------------------------------|
G|------------------------------------------------------|
D|---------------5----------------5---------------------|
A|---7--5--5--7-----7-------5--7-----7--7--5--7---------|
E|------------------------------------------------------|


e|------------------------------------------------------|
B|-5---4--5--7---5--4--5---5---4--5---7---5--4---5---4--|
G|------------------------------------------------------|
D|------------------------------------------------------|
A|------------------------------------------------------|
E|------------------------------------------------------|
 |							|
 |							|
 |							|
e|------------------------------------------------------|
B|------------------------------------------------------|
G|-9------------------------9---------------------------|
D|-9-----------------------10---------------------------|
A|-7------------------------7---------------------------|
E|------------------------------------------------------|
 |						        |
 |							|
 |							|
e|------------------------------------------------------|
B|------------------------------------------------------|
G|------------------------------------------------------|
D|---------------5----------------5---------------------|
A|---7--5--5--7-----7-------5--7-----7--7--5--7---------|
E|------------------------------------------------------|

e|------------------------------------------------------|
B|------------------------------------------------------|
G|-5-----------------------(5)-\-6---7------------------|
D|-5-----------------------(5)-\-6---7----5H7P5---------|
A|-3-----------------------(3)-\-4---5--5-------7P5-----|
E|------------------------------------------------------|
 |							|
 |							|
 |							|
e|------------------------------------------------------|
B|------------------------------------------------------|
G|------------------------------------------------------|
D|---------------5----------------5---------------------|
A|---7--5--5--7-----7-------5--7-----7--7--5--7---------|
E|------------------------------------------------------|


e|-3--x--5--x--3--x--2--x--3--2---3--x--5---x--3---x--2-x---3--2----|
B|-3--x--5--x--3--x--2--x--3--2---3--x--5---x--3---x--2-x---3--2----|
G|------------------------------------------------------------------|
D|------------------------------------------------------------------|
A|------------------------------------------------------------------|
E|------------------------------------------------------------------|
 |								    |
 |								    |
 |								    |
e|-3p0-x-5p0-x-3p0-x-2p0-x-3p0-2p0-3p0-x-5p0-x-3p0-x-2p0-x-3p0-2p0--|
B|------------------------------------------------------------------|
G|------------------------------------------------------------------|
D|------------------------------------------------------------------|
A|------------------------------------------------------------------|
E|------------------------------------------------------------------|
 |								    |
 |								    |
 |							            |
e|------------------------------------------------------------------|
B|------------------------------------------------------------------|
G|------------------------------------------------------------------|
D|-8-------------------------------10-------------------------------|
A|-5--------------------------------7-------------------------------|
E|------------------------------------------------------------------|

(W/ FILL 1)

e|-3--x--5--x--3--x--2--x--3--2----3--x--5---x--7--x-8---x--7--5----|
B|-3--x--5--x--3--x--2--x--3--2----3--x--5---x--7--x-8---x--7--5----|
G|------------------------------------------------------------------|
D|------------------------------------------------------------------|
A|------------------------------------------------------------------|
E|------------------------------------------------------------------|
 |								    |
 |								    |
 |                                                                  |
e|-3p0-x-5p0-x-3p0-x-2p0-x-3p0-2p0-3p0-x-5p0-x-7p0-x-8p0-x-7p0-5p0--|
B|------------------------------------------------------------------|
G|------------------------------------------------------------------|
D|------------------------------------------------------------------|
A|------------------------------------------------------------------|
E|------------------------------------------------------------------|
 |								    |
 |								    |
 |								    |
e|------------------------------------------------------------------|
B|------------------------------------------------------------------|
G|------------------------------------------------------------------|
D|-7-------------------------------9--------------------------------|
A|-5-------------------------------7--------------------------------|
E|------------------------------------------------------------------|


W/ FILL2

e|-3--x--5--x--3--x--2--x--3--2---3--x--5---x--3---x--2-x---3--2----|
B|-3--x--5--x--3--x--2--x--3--2---3--x--5---x--3---x--2-x---3--2----|
G|------------------------------------------------------------------|
D|------------------------------------------------------------------|
A|------------------------------------------------------------------|
E|------------------------------------------------------------------|
 |								    |
 |								    |
 |								    |
e|-3p0-x-5p0-x-3p0-x-2p0-x-3p0-2p0-3p0-x-5p0-x-3p0-x-2p0-x-3p0-2p0--|
B|------------------------------------------------------------------|
G|------------------------------------------------------------------|
D|------------------------------------------------------------------|
A|------------------------------------------------------------------|
E|------------------------------------------------------------------|
 |								    |
 |								    |
 |							            |
e|------------------------------------------------------------------|
B|------------------------------------------------------------------|
G|------------------------------------------------------------------|
D|-8-------------------------------10-------------------------------|
A|-5--------------------------------7-------------------------------|
E|------------------------------------------------------------------|

e|-3--x--5--x--3--x--2--x--3--2----3--x--5---x--7--x-8---x--7--5----|
B|-3--x--5--x--3--x--2--x--3--2----3--x--5---x--7--x-8---x--7--5----|
G|------------------------------------------------------------------|
D|------------------------------------------------------------------|
A|------------------------------------------------------------------|
E|------------------------------------------------------------------|
 |								    |
 |								    |
 |                                                                  |
e|-3p0-x-5p0-x-3p0-x-2p0-x-3p0-2p0-3p0-x-5p0-x-7p0-x-8p0-x-7p0-5p0--|
B|------------------------------------------------------------------|
G|------------------------------------------------------------------|
D|------------------------------------------------------------------|
A|------------------------------------------------------------------|
E|------------------------------------------------------------------|
 |								    |
 |								    |
 |								    |
e|------------------------------------------------------------------|
B|------------------------------------------------------------------|
G|------------------------------------------------------------------|
D|-7-------------------------------9--------------------------------|
A|-5-------------------------------7--------------------------------|
E|------------------------------------------------------------------|


OUTRO (x16)

e|------------------------------------------------------|
B|------------------------------------------------------|
G|------------------------------------------------------|
D|---------------5----------------5---------------------|
A|---7--5--5--7-----7-------5--7-----7--7--5--7---------|
E|------------------------------------------------------|

Now, before we end, I have to give you the fills from above.

FILL 1

e|-17-15-13-17-15-13-------------------------------------------------------|
B|-------------------17-15-13-17-15-13----------17-15-13----------17-15-13-|
G|-------------------------------------17-15-13----------17-15-13----------|
D|-------------------------------------------------------------------------|
A|-------------------------------------------------------------------------|
E|-------------------------------------------------------------------------|

e|-------------------------------------|
B|-17-15-13----------------------------|
G|----------17-15-13-------------------|
D|-------------------17-15-13--15~~~---|
A|-------------------------------------|
E|-------------------------------------|

FILL 2

e|--------------------------------|
B|-17B19R17-----------------------|
G|----------WHAMMY BAR DIVEBOMB---|
D|--------------------------------|
A|--------------------------------|
E|--------------------------------|

Well, Here you go, my Washington is next tab. The greatest
song on United Abominations. Enjoy!


| /  slide up
| \  slide down
| h  hammer-on
| p  pull-off
| ~  vibrato
| < > harmonic
| x  Mute note
===============================================================================
comments
print report bad tab
8 comments total. Showing first comments.
0 reply
brett dixon wrote on August 4 2007, 03:45 pm

Wow I have no idea what happend, some of the lines connecting multiple tab lines for the two or more guitar parts got moved to the right a little bit. Weird.

+1 reply
buckethead_jr wrote on August 4 2007, 07:43 pm

Not bad, small errors in that intro melody but otherwise good

+1 reply
str8death6 wrote on August 21 2007, 04:35 pm

This tab rules, it is the best tab that you tabbed out so far

5 stars

I want to post or [tab]
guest
You may want to rate the tab now too:
select rating
Please do not post tabs as comments. Select "correction" instead!