Oops, an error
Loading. Please wait.

Washington Is Next Tab

ver3
ver3

Whole song

More versions @911Tabs.com
13,286 views 3 this week
4 commentsread comments
1 2 3 4 5
excellent!
x 4
Autoscroll
+/-
esc
set tempo
stop
Contributor
WARNING: You are trying to view
                                    content from Ultimate-Guitar.com
                                    in an unauthorized application,
                                    which is prohibited.

                                    Please use an official Ultimate
                                    Guitar Tabs application for iPhone,
                                    iPad or Android to access legitimate
                                    chords, guitar, bass, and drum tabs
                                    from Ultimate-Guitar.com database.

                                    Type "ultimate guitar tabs" in Apple
                                    App Store's or Android Market's
                                    search to find the application.
Megadeth:  Washington Is Next!
Transcribed by: Skullkrusher097

Tuning: Standard

Riff 1
Guitar 1
e|-------------------------------|
B|-------------------------------|
G|-------------------------------|
D|-9-------10--------7--------9--|
A|-7--------7--------5--------7--|
E|-------------------------------|

e|---------------------------------|
B|---------------------------------|
G|----------5----------------------|
D|-5--------4----4-----------------|
A|-3--------2----2----2-------5--2-|
E|--------------------0-------5--0-|

e|-------------------------------|
B|-------------------------------|
G|-------------------------------|
D|-9-------10--------7--------9--|
A|-7--------7--------5--------7--|
E|-------------------------------|

e|--------------------------|
B|--------------------------|
G|----------5---------------|
D|-5--------4----4----(4)/--|
A|-3--------2----2----(2)/--|
E|--------------------------|

e|---------------------------------|
B|---------------------------------|
G|-------------7-----------4-------|
D|-------9-----7-----7-----4---5---|
A|-------9-----------7---------5---|
E|-0-0-0---0-0---0-0---0-0---0---0-|
     * *   * *   * *   * *   *   *
e|---------------------------------|
B|---------------------------------|
G|---------------------------------|
D|-7-----4-----5-----2-----4---1---|
A|-7-----4-----5-----2-----4---1---|
E|---0-0---0-0---0-0---0-0---0---0-|
     * *   * *   * *   * *   *   *

Guitar 2                          x3
e|-3p0---5p0---3p0---2p0---3p0-2p0-|
B|-----0-----0-----0-----0---------|
G|---------------------------------|
D|---------------------------------|
A|---------------------------------|
E|---------------------------------|

e|-3p0---5p0---7p0---8p0---7p0-5p0-|
B|-----0-----0-----0-----0---------|
G|---------------------------------|
D|---------------------------------|
A|---------------------------------|
E|---------------------------------|
                                  x3
e|-3p0---5p0---3p0---2p0---3p0-2p0-|
B|-----0-----0-----0-----0---------|
G|---------------------------------|
D|---------------------------------|
A|---------------------------------|
E|---------------------------------|

e|-3p0---5p0---7p0---8p0---7p0-5p0-|
B|-----0-----0-----0-----0---------|
G|---------------------------------|
D|---------------------------------|
A|---------------------------------|
E|---------------------------------|
                                  x3
e|-3p0---5p0---3p0---2p0---3p0-2p0-|
B|-----0-----0-----0-----0---------|
G|---------------------------------|
D|---------------------------------|
A|---------------------------------|
E|---------------------------------|

e|-3p0---5p0---7p0---8p0---7p0-5p0-|
B|-----0-----0-----0-----0---------|
G|---------------------------------|
D|---------------------------------|
A|---------------------------------|
E|---------------------------------|

e|-3p0---5p0---3p0---2p0---3p0-2p0-|
B|-----0-----0-----0-----0---------|
G|---------------------------------|
D|---------------------------------|
A|---------------------------------|
E|---------------------------------|

e|-3p0---5p0---2p0---3p0---2p0----|
B|-----0-----0-----0-----0-----4--|
G|--------------------------------|
D|--------------------------------|
A|--------------------------------|
E|--------------------------------|

e|-12-0-0-7-0-0-10-0-0-5-0-0-7-0-3-0-|
B|-----------------------------------|
G|-----------------------------------|
D|-----------------------------------|
A|-----------------------------------|
E|-----------------------------------|

e|-5-0-0-2-0-0-3-0-0------------------|
B|-------------------5-0-0-7-0-4-0-5~-|
G|------------------------------------|
D|------------------------------------|
A|------------------------------------|
E|------------------------------------|

Guitar 3 (Comes in later)         x3
e|-7p0---8p0---7p0---5p0---7p0-5p0-|
B|-----0-----0-----0-----0---------|
G|---------------------------------|
D|---------------------------------|
A|---------------------------------|
E|---------------------------------|

e|-7p0---8p0---10p0---12p0---10p0-8p0-|
B|-----0-----0------0------0----------|
G|------------------------------------|
D|------------------------------------|
A|------------------------------------|
E|------------------------------------|

e|-7p0---8p0---7p0---5p0---7p0-5p0-|
B|-----0-----0-----0-----0---------|
G|---------------------------------|
D|---------------------------------|
A|---------------------------------|
E|---------------------------------|

e|-7p0---8p0---5p0---7p0---5p0----|
B|-----0-----0-----0-----0-----4--|
G|--------------------------------|
D|--------------------------------|
A|--------------------------------|
E|--------------------------------|



Riff 2
e|---------------------------------|
B|---------------------------------|
G|---------------------------------|
D|-9-----9-----9-----9-----9---9---|
A|-7-----7-----7-----7-----7---7---|
E|---0-0---0-0---0-0---0-0---0---0-|
     * *   * *   * *   * *   *   *
   "The quiet war..."
e|-------------------------------------|
B|-------------------------------------|
G|-------------------------------------|
D|-10-----10-----10-----10-------------|
A|--7------7------7------7-------------|
E|----0-0----0-0----0-0----0-0-3-2-0-3-|
      * *    * *    * *    * * * * * *
   "...begun..."
e|---------------------------------|
B|---------------------------------|
G|---------------------------------|
D|-7-----7-----7-----7-----7---7---|
A|-5-----5-----5-----5-----5---5---|
E|---0-0---0-0---0-0---0-0---0---0-|
     * *   * *   * *   * *   *   *
         "..and the new..."
e|-----------------------------------|
B|-----------------------------------|
G|-----------------------------------|
D|-9-----9-----9---------------------|
A|-7-----7-----7---------------------|
E|---0-0---0-0---0-5h7--0-3h5--0-2h3-|
     * *   * *   *      *      *
   "...slavery, is to..."
e|---------------------------------|
B|---------------------------------|
G|---------------------------------|
D|-5-----5-----5-----5-----5---5---|
A|-3-----3-----3-----3-----3---3---|
E|---0-0---0-0---0-0---0-0---0---0-|
     * *   * *   * *   * *   *   *
   "...poor and stupid..."
e|---------------------------------|
B|---------------------------------|
G|-5-----5-----5-------------------|
D|-4-----4-----4-------------------|
A|-2-----2-----2---2-3~----2-------|
E|---0-0---0-0---0-----------5-3-2-|
     * *   * *   *
   "...'Novus Ordo'..."
e|---------------------------------|
B|---------------------------------|
G|---------------------------------|
D|-2-----0-----2-----3-----2---0---|
A|-2-----0-----2-----3-----2---0---|
E|---0-0---0-0---0-0---0-0---0---0-|
     * *   * *   * *   * *   *   *
   "...'Seclorum'."
e|---------------------------------|
B|---------------------------------|
G|---------------------------------|
D|-2-----0-----2-----3-------------|
A|-2-----0-----2-----3-------------|
E|---0-0---0-0---0-0---0-0-7-5-5~--|
     * *   * *   * *   * *


Riff 3
e|---------------------------------|
B|---------------------------------|
G|---------------------------------|
D|-9-----9-----9-----9-----9---9---|
A|-7-----7-----7-----7-----7---7---|
E|---0-0---0-0---0-0---0-0---0---0-|
     * *   * *   * *   * *   *   *
   "...be any logic..."
e|-------------------------------------|
B|-------------------------------------|
G|-------------------------------------|
D|-10-----10-----10-----10-------------|
A|--7------7------7------7-------------|
E|----0-0----0-0----0-0----0-0-3-2-0-3-|
      * *    * *    * *    * * * * * *
   "...biological war..."
e|---------------------------------|
B|---------------------------------|
G|---------------------------------|
D|-7-----7-----7-----7-----7---7---|
A|-5-----5-----5-----5-----5---5---|
E|---0-0---0-0---0-0---0-0---0---0-|
     * *   * *   * *   * *   *   *
   "...know this is..."
e|-----------------------------------|
B|-----------------------------------|
G|-----------------------------------|
D|-9-----9-----9---------------------|
A|-7-----7-----7---------------------|
E|---0-0---0-0---0-5h7--0-3h5--0-2h3-|
     * *   * *   *      *      *
   "...New World Order..."
e|---------------------------------|
B|---------------------------------|
G|---------------------------------|
D|-5-----5-----5-----5-----5---5---|
A|-3-----3-----3-----3-----3---3---|
E|---0-0---0-0---0-0---0-0---0---0-|
     * *   * *   * *   * *   *   *
   "...door..."
e|-------------------------------|
B|-------------------------------|
G|-5-----5-----5-----5-----------|
D|-4-----4-----4-----4-----------|
A|-2-----2-----2-----2-----5-5-5-|
E|---0-0---0-0---0-0---0-0-5-5-5-|
     * *   * *   * *   * * * * *
   "...needs to be done."


Riff 4 (Play 2x)
Guitar 1
e|----------------------|
B|----------------------|
G|----------------------|
D|-9--------5--------2--|
A|-7--------3--------0--|
E|----------------------|
   "There was a king..."
e|-------------------------|
B|-------------------------|
G|-------------------------|
D|-2-2-2-2--3-4--4-4--4--4-|
A|-0-0-0-0--1-2--2-2--2--2-|
E|-------------------------|
   "...dreams..."

Guitar 2                          x3
e|---------------------------------|
B|---------------------------------|
G|---------------------------------|
D|-5---------5-----------5---------|
A|---7-7-5h7---7-7-7-5h7---7-7-5h7-|
E|---------------------------------|

e|---------------------------------|
B|---------------------------------|
G|---------------------------------|
D|-7---------5-----------5---------|
A|---7-7-5h7---7-7-7-5h9---9-5h6h7-|
E|---------------------------------|

Guitar 3                          x2
e|-3-0-0-2-0-3-0-0-0-3-0-2-2-0-3-0-|
B|---------------------------------|
G|---------------------------------|
D|---------------------------------|
A|---------------------------------|
E|---------------------------------|

e|---------------------------------|
B|---------------------------------|
G|--[Silent or drops out of mix]---|
D|---------------------------------|
A|---------------------------------|
E|---------------------------------|


Riff 5
Guitar 1
e|-------------------------------|
B|-------------------------------|
G|-------------------------------|
D|-9-------10--------7--------9--|
A|-7--------7--------5--------7--|
E|-------------------------------|
   "The words predicts..."
e|--------------------------|
B|--------------------------|
G|----------5---------------|
D|-5--------4----4----(4)/--|
A|-3--------2----2----(2)/--|
E|--------------------------|
   "...Eigth False King..."
e|---------------------------------|
B|---------------------------------|
G|-------------7-----------4-------|
D|-------9-----7-----7-----4---5---|
A|-------9-----------7---------5---|
E|-0-0-0---0-0---0-0---0-0---0---0-|
     * *   * *   * *   * *   *   *
   "...next!"
e|---------------------------------|
B|---------------------------------|
G|---------------------------------|
D|-7-----4-----5-----2-----4---1---|
A|-7-----4-----5-----2-----4---1---|
E|---0-0---0-0---0-0---0-0---0---0-|
     * *   * *   * *   * *   *   *

Guitar 2                          x3
e|---------------------------------|
B|---------------------------------|
G|---------------------------------|
D|-5---------5-----------5---------|
A|---7-7-5h7---7-7-7-5h7---7-7-5h7-|
E|---------------------------------|

e|---------------------------------|
B|---------------------------------|
G|---------------------------------|
D|-7---------5-----------5---------|
A|---7-7-5h7---7-7-7-5h7---7-7-5h7-|
E|---------------------------------|

e|---------------------------------|
B|---------------------------------|
G|---------------------------------|
D|-5---------5-----------5---------|
A|---7-7-5h7---7-7-7-5h7---7-7-5h7-|
E|---------------------------------|

e|---------------------------------|
B|---------------------------------|
G|---------------------------------|
D|-7---------5-----------5---------|
A|---7-7-5h7---7-7-7-5h9---9-5h6h7-|
E|---------------------------------|


Guitar 3                          x3
e|-3p0---5p0---3p0---2p0---3p0-2p0-|
B|-----0-----0-----0-----0---------|
G|---------------------------------|
D|---------------------------------|
A|---------------------------------|
E|---------------------------------|

e|-3p0---5p0---7p0---8p0---7p0-5p0-|
B|-----0-----0-----0-----0---------|
G|---------------------------------|
D|---------------------------------|
A|---------------------------------|
E|---------------------------------|

e|-3p0---5p0---3p0---2p0---3p0-2p0-|
B|-----0-----0-----0-----0---------|
G|---------------------------------|
D|---------------------------------|
A|---------------------------------|
E|---------------------------------|

e|-3p0---5p0---2p0---3p0---2p0----|
B|-----0-----0-----0-----0-----4--|
G|--------------------------------|
D|--------------------------------|
A|--------------------------------|
E|--------------------------------|

e|-12-0-0-7-0-0-10-0-0-5-0-0-7-0-3-0-|
B|-----------------------------------|
G|-----------------------------------|
D|-----------------------------------|
A|-----------------------------------|
E|-----------------------------------|

e|-5-0-0-2-0-0-3-0-0------------------|
B|-------------------5-0-0-7-0-4-0-5~-|
G|------------------------------------|
D|------------------------------------|
A|------------------------------------|
E|------------------------------------|


Guitar 4                          x3
e|-7p0---8p0---7p0---5p0---7p0-5p0-|
B|-----0-----0-----0-----0---------|
G|---------------------------------|
D|---------------------------------|
A|---------------------------------|
E|---------------------------------|

e|-7p0---8p0---10p0---12p0---10p0-8p0-|
B|-----0-----0------0------0----------|
G|------------------------------------|
D|------------------------------------|
A|------------------------------------|
E|------------------------------------|

e|-7p0---8p0---7p0---5p0---7p0-5p0-|
B|-----0-----0-----0-----0---------|
G|---------------------------------|
D|---------------------------------|
A|---------------------------------|
E|---------------------------------|

e|-7p0---8p0---5p0---7p0---5p0----|
B|-----0-----0-----0-----0-----4--|
G|--------------------------------|
D|--------------------------------|
A|--------------------------------|
E|--------------------------------|


Play Riff 2   "Disengage their minds..."
Play Riff 3 with alternate ending:
e|-------------------------------|
B|-------------------------------|
G|-5-----5-----5-----------------|
D|-4-----4-----4---1------4------|
A|-2-----2-----2-----3------6----|
E|---0-0---0-0---0-----2/-----5/-|
     * *   * *   *
   "... go to the 'haves'..."

Play Riff 4   "I am the King..."
Play Riff 5   "The word predicts..."

Interlude
Guitar 1
e|---------------------------|
B|---------------------------|
G|---------------------------|
D|----------0----------0-0-0-|
A|-2--------0-2--------0-0-0-|
E|-0----------0--------------|
            *          * * *
e|----------------------------|
B|----------------------------|
G|----------------------------|
D|----------------------0-0-0-|
A|-2----------2---------0-0-0-|
E|-0------000-0------00-------|
          ***        ** * * *

Guitar 2                              x2
e|-------------------------------------|
B|-------------------------------------|
G|-16p12----16p12----16p12----16p12----|
D|-------14-------14-------14-------14-|
A|-------------------------------------|
E|-------------------------------------|

e|-------------------------------------|
B|-------------------------------------|
G|-19p14----19p14----19p14----19p14----|
D|-------16-------16-------16-------16-|
A|-------------------------------------|
E|-------------------------------------|
                                   x2
e|----------------------------------|
B|----------------------------------|
G|-21p16----21p16----21p16----21p16-|
D|-------18-------18-------18-------|
A|----------------------------------|
E|----------------------------------|

e|-14p10----14p10----14p10----14p10----|
B|-------10-------10-------10-------10-|
G|-------------------------------------|
D|-------------------------------------|
A|-------------------------------------|
E|-------------------------------------|
                                      x2
e|-19p15----19p15----19p15----19p15----|--19--(19)\-|
B|-------17-------17-------17-------17-|------------|
G|-------------------------------------|------------|
D|-------------------------------------|------------|
A|-------------------------------------|------------|
E|-------------------------------------|------------|

Guitar 2
e|-15p12----15p12----15p12----15p12----|
B|-------12-------12-------12-------13-|
G|-------------------------------------|
D|-------------------------------------|
A|-------------------------------------|
E|-------------------------------------|

e|-15p12----15p12----15p12----15p12----|
B|-------13-------13-------13-------15-|
G|-------------------------------------|
D|-------------------------------------|
A|-------------------------------------|
E|-------------------------------------|

e|-17p14----17p14----17p14----17p14----|
B|-------15-------15-------15-------17-|
G|-------------------------------------|
D|-------------------------------------|
A|-------------------------------------|
E|-------------------------------------|

e|-19p15----19p15----19p15----19p15----|
B|-------17-------17-------17-------17-|
G|-------------------------------------|
D|-------------------------------------|
A|-------------------------------------|
E|-------------------------------------|

e|-20p15----20p15----20p15----20p15----|
B|-------17-------17-------17-------19-|
G|-------------------------------------|
D|-------------------------------------|
A|-------------------------------------|
E|-------------------------------------|

e|-22p17----22p17----22p17----22p17----|
B|-------19-------19-------19-------20-|
G|-------------------------------------|
D|-------------------------------------|
A|-------------------------------------|
E|-------------------------------------|
                                      x2
e|-24p19----24p19----24p19----24p19----|--24--(24)\-|
B|-------20-------20-------20-------20-|------------|
G|-------------------------------------|------------|
D|-------------------------------------|------------|
A|-------------------------------------|------------|
E|-------------------------------------|------------|



Riff 6 (Solo Rhythm, Play 2x)
e|------------------------------|
B|------------------------------|
G|------------------------------|
D|------------------------------|
A|----------2---3-----------2h3-|
E|-0--00000---0---0-3-0-2-0-----|
      *****   *   *   *   *      x2
e|--------------------------------|
B|--------------------------------|
G|--------------------------------|
D|--------------------------------|
A|------------2---3-----------2h3-|
E|-0--0000000---0---0-3-0-2-0-----|
      *******   *   *   *   *
e|-----------------------------------|
B|-----------------------------------|
G|-----------------------------------|
D|-----------------------------------|
A|-----------------------------------|
E|-0--000000000000000000000000000000-|
      ******************************
                                 x3
e|--------------------------------|
B|--------------------------------|
G|--------------------------------|
D|--------------------------------|
A|------------2---3-----------2h3-|
E|-0--0000000---0---0-3-0-2-0-----|
      *******   *   *   *   *
e|-----------------------------------|
B|-----------------------------------|
G|-----------------------------------|
D|-----------------------------------|
A|-----------------------------------|
E|-0--000000000000000000000000000000-|
      ******************************

Riff 6a (Solo Rhythm)
e|--------------------------------|
B|--------------------------------|
G|--------------------------------|
D|--------------------------------|
A|------------4---5---------------|
E|-2--2222222---2---2-5-2-4-5-4-3-|
      *******   *   *   * * * * *
e|--------------------------------|
B|--------------------------------|
G|--------------------------------|
D|--------------------------------|
A|------------4---5-------5---2-3-|
E|-2--2222222---2---x-x-0-3---0-1-|
      *******   *   * * *     * *
e|--------------------------------|
B|--------------------------------|
G|--------------------------------|
D|--------------------------------|
A|-4----------4---5---------------|
E|-2--2222222---2---2-5-2-4-5-4-3-|
      *******   *   *   * * * * *
e|--------------------------------|
B|--------------------------------|
G|----------------------------5-4-|
D|--------------------5-4-7-6-----|
A|------------5-4-7-6-------------|
E|-2--5-4-7-6---------------------|


Play Riff 6   Solo Rhythm


Solo (Drover)
e|---------------------12--13p12p11-12--/13-13-|
B|---------------------------------------------|
G|-/9~--9h10p9p8-9~----------------------------|
D|---------------------------------------------|
A|---------------------------------------------|
E|---------------------------------------------|

e|-/17-17--(17)\16-16--(16)/19-19/20~-|
B|------------------------------------|
G|------------------------------------|
D|------------------------------------|
A|------------------------------------|
E|------------------------------------|

e|-17--17h18p17p16-------16-------------|
B|-----------------18-17----18-17b18r17-|
G|--------------------------------------|
D|--------------------------------------|
A|--------------------------------------|
E|--------------------------------------|

e|---------------------------------|
B|-18p17-18p17-16-------16---------|
G|----------------17-16----17-16~~-|
D|---------------------------------|
A|---------------------------------|
E|---------------------------------|

e|----------------16-----------------|
B|-------18--------------------------|
G|-13-14----13-14----13-14----14-13~-|
D|-------------------------15--------|
A|-----------------------------------|
E|-----------------------------------|

e|----------------------------------------|
B|----------------------------------------|
G|-14h16p14----14----------------14-16-17-|
D|----------17----17-16-14-16-17----------|
A|----------------------------------------|
E|----------------------------------------|

e|----------------------------------------|
B|----------------------------------------|
G|-16h17p16----16----------------16-17-19-|
D|----------19----19-17-16-17-19----------|
A|----------------------------------------|
E|----------------------------------------|

e|----------------------------17-19-20-22~-|
B|----------17-19-20-17-19-20--------------|
G|-16-17-19--------------------------------|
D|-----------------------------------------|
A|-----------------------------------------|
E|-----------------------------------------|

e|-18h20h22p20p18-------------------------------|
B|----------------20-17h19h20p19p17-------------|
G|----------------------------------19-16h18h19-|
D|----------------------------------------------|
A|----------------------------------------------|
E|----------------------------------------------|

e|-------------------------------------------|
B|-17h19h20p19p17----------------------------|
G|----------------19-16h18h19p18p16----------|
D|----------------------------------18-16-18-|
A|-------------------------------------------|
E|-------------------------------------------|

e|-------------------------------------|
B|-------------------------------------|
G|-16h18h19p18p16----------------------|
D|----------------18-15h17h18p17p15----|
A|----------------------------------17-|
E|-------------------------------------|

e|----------------------------------------------|
B|----------------------------------------------|
G|----------------------------------------------|
D|----------15h17h18p17p15----------------------|
A|-14h16h17----------------17-14h16h17p16p14----|
E|-------------------------------------------16-|

e|-----------------------------------------------------------|
B|-----------------------------------------------------------|
G|-----------------------------------------------------------|
D|-------18-------19-------23----[raise 1.5 steps then dump]-|
A|-----------------------------------------------------------|
E|-14/16----16/17----17/21-----------------------------------|

End Solo

Solo (Mustaine)
e|-17-------------------------------|
B|----[quick dip then raise 1 step]-|
G|-16-------------------------------|
D|----------------------------------|
A|----------------------------------|
E|----------------------------------|

e|---------2------------6--3p0------------|
B|-------2---5-3p2---3---------6--3p0-----|
G|--xx-4-----------4------------------5-3-|
D|----------------------------------------|
A|----------------------------------------|
E|----------------------------------------|

e|---------2------------6--3p0------------|
B|-------2---5-3p2---3---------6--3p0-----|
G|--xx-4-----------4------------------5-3-|
D|----------------------------------------|
A|----------------------------------------|
E|----------------------------------------|

e|-----------------------------------|
B|-----------------------------------|
G|-------------------------------9-8-|
D|---------------------9-8-11-10-----|
A|-----------9-8-11-10---------------|
E|-9-8-11-10-------------------------|

End Solo

Solo (Drover)
e|------------------------------|
B|-15--------12----------15b17~-|
G|-14b16~-------15-14-12--------|
D|------------------------------|
A|------------------------------|
E|------------------------------|

e|-12----12----------15----12--------------------------------|
B|----15----15-12h15----15----15p12----12----12--------------|
G|----------------------------------15----15----15-14-13-12~-|
D|-----------------------------------------------------------|
A|-----------------------------------------------------------|
E|-----------------------------------------------------------|

e|-------------------------------------------------|
B|-------------------------------------------------|
G|-------------------------------------------------|
D|----------------------------------14----------14-|
A|----------14-------------14-16-17----14-16-17----|
E|-14-16-17----17-16-14-16-------------------------|
    *  *  *  *  *  *  *  *  *  *  *  *  *  *  *  *
e|-------------------------------------------------|
B|-------------------------------------------------|
G|----------------------------------16-------------|
D|----------------14-16-18-16-18-19----19-18-16-18-|
A|-17-16-14-16-17----------------------------------|
E|-------------------------------------------------|
    *  *  *  *  *  *  *  *  *  *
e|-------------------------------------------------|
B|----------16----------17-------------17-19-20-20-|
G|-16-18-19----16-18-19----19-18-16-18-------------|
D|-------------------------------------------------|
A|-------------------------------------------------|
E|-------------------------------------------------|

e|----------17----------------17h19p17----17-19-20-22-24~-|
B|-17-19-20----20-19-17-19-20----------20-----------------|
G|--------------------------------------------------------|
D|--------------------------------------------------------|
A|--------------------------------------------------------|
E|--------------------------------------------------------|

End Solo


Play Riff 4  "There was a King..."


Riff 5a
Guitar 1
e|----------------------|
B|----------------------|
G|----------------------|
D|-9--------5--------2--|
A|-7--------3--------0--|
E|----------------------|
   "I am a King..."
e|-------------------------|
B|-------------------------|
G|-------------------------|
D|-2-2-2-2--3-4--4-4--4--4-|
A|-0-0-0-0--1-2--2-2--2--2-|
E|-------------------------|
   "...dreams..."

Guitar 2
e|---------------------------------|
B|---------------------------------|
G|---------------------------------|
D|-5---------5-----------5---------|
A|---7-7-5h7---7-7-7-5h7---7-7-5h7-|
E|---------------------------------|


Guitar 3 (Play 2x)
e|-3p0---2p0---3p0---5p0---3p0-2p0-|
B|-----0-----0-----0-----0---------|
G|---------------------------------|
D|---------------------------------|
A|---------------------------------|
E|---------------------------------|

e|-3p0---5p0---7p0---5p0---3p0-2p0-|
B|-----0-----0-----0-----0---------|
G|---------------------------------|
D|---------------------------------|
A|---------------------------------|
E|---------------------------------|

e|-3p0---2p0---3p0---2p0---3p0-2p0-|
B|-----0-----0-----0-----0---------|
G|---------------------------------|
D|---------------------------------|
A|---------------------------------|
E|---------------------------------|

e|-3p0---2p0---3p0---5p0---3p0-2p0-|
B|-----0-----0-----0-----0---------|
G|---------------------------------|
D|---------------------------------|
A|---------------------------------|
E|---------------------------------|


Guitar 4 (Play 2x)
e|-7p0---5p0---7p0---8p0---7p0-5p0-|
B|-----0-----0-----0-----0---------|
G|---------------------------------|
D|---------------------------------|
A|---------------------------------|
E|---------------------------------|

e|-7p0---8p0---10p0---8p0---7p0-5p0-|
B|-----0-----0------0-----0---------|
G|----------------------------------|
D|----------------------------------|
A|----------------------------------|
E|----------------------------------|

e|-7p0---5p0---7p0---5p0---7p0-5p0-|
B|-----0-----0-----0-----0---------|
G|---------------------------------|
D|---------------------------------|
A|---------------------------------|
E|---------------------------------|

e|-7p0---5p0---7p0---8p0---7p0-5p0-|
B|-----0-----0-----0-----0---------|
G|---------------------------------|
D|---------------------------------|
A|---------------------------------|
E|---------------------------------|


Guitar fills over Riff 5a (Mustaine)

1st fill:
e|-17p12----12-17p12----12-------------|
B|-------15----------15----12----12----|
G|----------------------------15----15-|
D|-------------------------------------|
A|-------------------------------------|
E|-------------------------------------|

e|--------------------------------------------|
B|----------12----------------12--------------|
G|-12-14-15----15-14-12-14-15----15-14-12-----|
D|----------------------------------------14~-|
A|--------------------------------------------|
E|--------------------------------------------|

2nd fill:
e|-------|
B|-------|
G|-------|
D|-------|
A|-------|
E|--X\\--|

End guitar fills


Ending:
Guitar 1                           Final chord
e|---------------------------------|-----|
B|---------------------------------|-----|
G|---------------------------------|-----|
D|-5---------5-----------5---------|-----|
A|---7-7-5h7---7-7-7-5h7---7-7-5h7-|--2--|
E|---------------------------------|--0--|

Guitar 2                           Ending
e|---------------------------------|--------|
B|---------------------------------|--------|
G|-7---------7-----------7---------|-----5--|
D|---9-9-7h9---9-9-9-7h9---9-9-7h9-|-----h.-|
A|---------------------------------|--2-----|
E|---------------------------------|--0-----|

Guitar 3 (Comes in later)
e|---------------------------------|
B|-8---------8-----------8---------|
G|---9-9-7h9---9-9-9-7h9---9-9-7h9-|
D|---------------------------------|
A|---------------------------------|
E|---------------------------------|

Guitar fill over ending:
e|-------------------------------------------|
B|-12--------13--------10----------10----12--|
G|-------------------------------------------|
D|-------------------------------------------|
A|-------------------------------------------|
E|-------------------------------------------|


Miscellanous guitar noise throughout ending.



Notation:

10^        = bend a quarter step.
10b11      = bend a half step.
10b12      = bend a full step.
10b12r10   = bend and release.
[10]12     = pre-bend.
[10]12r10  = pre-bend and release.
{14}       = pick the 14th fret while holding the most 
             previous bend.
<17>       = touch the string above the 17th fret while 
             previous note(s) is(are) still ringing.

10b13*     = tremolo bar bend, from the 10th fret to the 13th fret.
7d4*       = tremolo bar dive, from the 7th fret to the 4th fret. 
12~*       = tremolo bar vibrato.

x   =  mute with fret-hand
*   =  palm mute
X\\ =  pick slide
h   =  hammer-on
p   =  pull-off
~   =  vibrato
t   =  finger tap
/   =  slide up
\   =  slide down
h.  =  natural harmonics
a   =  artificial harmonics
(9) =  ghost note
tm  =  trem picking
tr  =  trill
comments
print report bad tab
4 comments total. Showing first comments.
-1 reply
brett dixon wrote on August 8 2007, 07:44 am

very nice tab, only i think the pre solo part is tapping but the pull-off method you tabbed works well, too.

0 reply
Fallen Trooper wrote on December 13 2007, 12:38 pm

no, it is NOT tapping....watch Dave play this in a LIVE video, he uses his thumb and middle finger to do HO/PO's

0 reply
Megadeth77 wrote on May 2 2008, 10:54 pm

Yup Fallen Trooper is right, go to youtube man.
And Awesome Tab!!

I want to post or [tab]
guest
You may want to rate the tab now too:
select rating
Please do not post tabs as comments. Select "correction" instead!