Oops, an error
Loading. Please wait.

Washington Is Next Tab

ver4
ver4

Whole song

More versions @911Tabs.com
40,442 views 57 this week
5 commentsread comments
1 2 3 4 5
excellent!
x 16
Autoscroll
+/-
esc
set tempo
stop
Contributor
Hey! There's an official Ultimate Guitar app which is ideal
for learning songs when you're away from computer. Get the app
WARNING: You are trying to view
                                    content from Ultimate-Guitar.com
                                    in an unauthorized application,
                                    which is prohibited.

                                    Please use an official Ultimate
                                    Guitar Tabs application for iPhone,
                                    iPad or Android to access legitimate
                                    chords, guitar, bass, and drum tabs
                                    from Ultimate-Guitar.com database.

                                    Type "ultimate guitar tabs" in Apple
                                    App Store's or Android Market's
                                    search to find the application.
#----------------------------------PLEASE NOTE---------------------------------#
#This file is the author's own work and represents their interpretation of the #
#song. You may only use this file for private study, scholarship, or research. #
#------------------------------------------------------------------------------#

WASHINGTON IS NEXT!
As recorded by Megadeth
(From the 2007 Album UNITED ABOMINATIONS)

Transcribed by Russ Elton (webmaster@abysslord.com)
	

Words and Music by Dave Mustaine
Arranged by Megadeth

E5
x 7 9 x x x
	
C/E
x 7 10 x x x
	
D5
x 5 7 x x x
	
C5
x 3 5 x x x

C
x 2 4 5 x x
	
B5
x 2 4 x x x
	
A5
x 0 2 x x x
	
Bb5
x 1 3 x x x

Gtr I (E A D G B E) - 'Rhythm Guitar'
Gtr II (E A D G B E) - 'Rhythm Guitar'
Gtr III (E A D G B E) - 'Lead Guitar'
Gtr IV (E A D G B E) - 'Lead Guitar'
Gtr V (E A D G B E) - 'Lead Guitar'

 Intro
  Q=198
  E5                                    C/E
 4/4
  Gtr III
  E E E E E E E E    E  E E E E E E E    E E E E E E E E     E  E E E E E E E
|-3p0---5p0---3p0-|-----2p0---3p0-2p0-|--3p0---5p0---3p0-|------2p0---3p0-2p0-|
|-----0-----0-----|--0------0---------|------0-----0-----|---0------0---------|
|-----------------|-------------------|------------------|--------------------|
|-----------------|-------------------|------------------|--------------------|
|-----------------|-------------------|------------------|--------------------|
|-----------------|-------------------|------------------|--------------------|
|
| Gtrs I, II
| W                 +W                   W                  +W
|-----------------|-------------------|------------------|--------------------|
|-----------------|-------------------|------------------|--------------------|
|-----------------|-------------------|------------------|--------------------|
|-9---------------|-(9)---------------|-10---------------|-(10)---------------|
|-7---------------|-(7)---------------|--7---------------|--(7)---------------|
|-----------------|-------------------|------------------|--------------------|


  D5                                    E5
  E E E E E E E E    E  E E E E E E E   E E E E E E E E    E  E E E E E E E
|-3p0---5p0---3p0-|-----2p0---3p0-2p0-|-3p0---5p0---7p0-|-----8p0---7p0-5p0-|
|-----0-----0-----|--0------0---------|-----0-----0-----|--0------0---------|
|-----------------|-------------------|-----------------|-------------------|
|-----------------|-------------------|-----------------|-------------------|
|-----------------|-------------------|-----------------|-------------------|
|-----------------|-------------------|-----------------|-------------------|
|
| W                 +W                  W                 +W
|-----------------|-------------------|-----------------|-------------------|
|-----------------|-------------------|-----------------|-------------------|
|-----------------|-------------------|-----------------|-------------------|
|-7---------------|-(7)---------------|-9---------------|-(9)---------------|
|-5---------------|-(5)---------------|-7---------------|-(7)---------------|
|-----------------|-------------------|-----------------|-------------------|


  C5                                    C                 B5
  E E E E E E E E    E  E E E E E E E   E E E E E E E E   E E E E E E E E
|-3p0---5p0---3p0-|-----2p0---3p0-2p0-|-3p0---5p0---3p0-|---2p0---3p0-2p0-|
|-----0-----0-----|--0------0---------|-----0-----0-----|-0-----0---------|
|-----------------|-------------------|-----------------|-----------------|
|-----------------|-------------------|-----------------|-----------------|
|-----------------|-------------------|-----------------|-----------------|
|-----------------|-------------------|-----------------|-----------------|
|
| W                 +W                  W                 W
|-----------------|-------------------|-----------------|-----------------|
|-----------------|-------------------|-----------------|-----------------|
|-----------------|-------------------|-5---------------|-----------------|
|-5---------------|-(5)---------------|-4---------------|-4---------------|
|-3---------------|-(3)---------------|-2---------------|-2---------------|
|-----------------|-------------------|-----------------|-----------------|


  E5                              D5/A  E5
  E E E E E E E E    E  E E E E E E E   E E E E E E E E    E  E E E E E E E
|-3p0---5p0---3p0-|-----2p0---3p0-2p0-|-3p0---5p0---7p0-|-----8p0---7p0-5p0-|
|-----0-----0-----|--0------0---------|-----0-----0-----|--0------0---------|
|-----------------|-------------------|-----------------|-------------------|
|-----------------|-------------------|-----------------|-------------------|
|-----------------|-------------------|-----------------|-------------------|
|-----------------|-------------------|-----------------|-------------------|
|
| W                 +H.           Q     W                 +W
|-----------------|-------------------|-----------------|-------------------|
|-----------------|-------------------|-----------------|-------------------|
|-----------------|-------------------|-----------------|-------------------|
|-----------------|---------------0---|-----------------|-------------------|
|-2---------------|-(2)-----------0---|-2---------------|-(2)---------------|
|-0---------------|-(0)---------------|-0---------------|-(0)---------------|


                                        C/E
  Gtr IV
  E E E E E E E E    E  E E E E E E E    E E E E E E E E     E  E E E E E E E
|-7p0---8p0---7p0-|-----5p0---7p0-5p0-|--7p0---8p0---7p0-|------5p0-0-7p0-5p0-|
|-----0-----0-----|--0------0---------|------0-----0-----|---0----------------|
|-----------------|-------------------|------------------|--------------------|
|-----------------|-------------------|------------------|--------------------|
|-----------------|-------------------|------------------|--------------------|
|-----------------|-------------------|------------------|--------------------|
|
| Gtr III
| E E E E E E E E    E  E E E E E E E    E E E E E E E E     E  E E E E E E E
|-3p0---5p0---3p0-|-----2p0---3p0-2p0-|--3p0---5p0---3p0-|------2p0---3p0-2p0-|
|-----0-----0-----|--0------0---------|------0-----0-----|---0------0---------|
|-----------------|-------------------|------------------|--------------------|
|-----------------|-------------------|------------------|--------------------|
|-----------------|-------------------|------------------|--------------------|
|-----------------|-------------------|------------------|--------------------|
|
| Gtrs I, II
| W                 +W                   W                  +W
|-----------------|-------------------|------------------|--------------------|
|-----------------|-------------------|------------------|--------------------|
|-----------------|-------------------|------------------|--------------------|
|-9---------------|-(9)---------------|-10---------------|-(10)---------------|
|-7---------------|-(7)---------------|--7---------------|--(7)---------------|
|-----------------|-------------------|------------------|--------------------|


  D5                                    E5
  E E E E E E E E    E  E E E E E E E   E E E E E E  E E    E   E E E  E E E E
|-7p0---8p0---7p0-|-----5p0---7p0-5p0-|-7p0---8p0---10p0-|-----12p0---10p0-8p0-|
|-----0-----0-----|--0------0---------|-----0-----0------|--0-------0----------|
|-----------------|-------------------|------------------|---------------------|
|-----------------|-------------------|------------------|---------------------|
|-----------------|-------------------|------------------|---------------------|
|-----------------|-------------------|------------------|---------------------|
|
| E E E E E E E E    E  E E E E E E E   E E E E E E  E E    E   E E E  E E E E
|-3p0---5p0---3p0-|-----2p0---3p0-2p0-|-3p0---5p0----7p0-|------8p0----7p0-5p0-|
|-----0-----0-----|--0------0---------|-----0-----0------|--0-------0----------|
|-----------------|-------------------|------------------|---------------------|
|-----------------|-------------------|------------------|---------------------|
|-----------------|-------------------|------------------|---------------------|
|-----------------|-------------------|------------------|---------------------|
|
| W                 +W                  W                  +W
|-----------------|-------------------|------------------|---------------------|
|-----------------|-------------------|------------------|---------------------|
|-----------------|-------------------|------------------|---------------------|
|-7---------------|-(7)---------------|-9----------------|-(9)-----------------|
|-5---------------|-(5)---------------|-7----------------|-(7)-----------------|
|-----------------|-------------------|------------------|---------------------|


  C5                                    C                 B5
  E E E E E E E E    E  E E E E E E E   E E E E E E E E   E  E E E E E  Q
|-7p0---8p0---7p0-|-----5p0---7p0-5p0-|-7p0---8p0---5p0-|----7p0---5p0-------|
|-----0-----0-----|--0------0---------|-----0-----0-----|-0------0------4----|
|-----------------|-------------------|-----------------|--------------------|
|-----------------|-------------------|-----------------|--------------------|
|-----------------|-------------------|-----------------|--------------------|
|-----------------|-------------------|-----------------|--------------------|
|
| E E E E E E E E    E  E E E E E E E   E E E E E E E E   E  E E E E E  Q
|-3p0---5p0---3p0-|-----2p0---3p0-2p0-|-3p0---5p0---2p0-|----3p0---2p0-------|
|-----0-----0-----|--0------0---------|-----0-----0-----|-0------0------4----|
|-----------------|-------------------|-----------------|--------------------|
|-----------------|-------------------|-----------------|--------------------|
|-----------------|-------------------|-----------------|--------------------|
|-----------------|-------------------|-----------------|--------------------|
|
| W                 +W                  W                 H.           +Q
|-----------------|-------------------|-----------------|--------------------|
|-----------------|-------------------|-----------------|--------------------|
|-----------------|-------------------|-5---------------|--------------------|
|-5---------------|-(5)---------------|-4---------------|-4------------(4)/--|
|-3---------------|-(3)---------------|-2---------------|-2------------(2)/--|
|-----------------|-------------------|-----------------|--------------------|


  N.C.   B5/F# D5/A     A5/E  B5/FG5/D  A5/E  F#5/C#G5/D    E5/B  F#5/A#/G#
  Gtr III
   E E E E E E  E E   E E E E E E E E   E E E E E E E E   E E E E E E E E
|-12-0-0-7-0-0-10-0-|-0-5-0-0-7-0-3-0-|-5-0-0-2-0-0-3-0-|-0---------------||
|-------------------|-----------------|-----------------|---5-0-0-7-0-4-0-||
|-------------------|-----------------|-----------------|-----------------||
|-------------------|-----------------|-----------------|-----------------||
|-------------------|-----------------|-----------------|-----------------||
|-------------------|-----------------|-----------------|-----------------||
|
| Gtrs I, II
|    PM|   PM|    PM--|   PM|   PM  PM    PM|   PM|   PM--|   PM|   PM  PM
|  E E E E E E  E E   E E E E E E E E   E E E E E E E E   E E E E E E E E
|-------------------|-----------------|-----------------|-----------------||
|-------------------|-----------------|-----------------|-----------------||
|---------------7---|---------4-------|-----------------|-----------------||
|--------9------7---|---7-----4---5---|-7-----4-----5---|---2-----4---1---||
|--------9----------|---7---------5---|-7-----4-----5---|---2-----4---1---||
|--0-0-0---0-0----0-|-0---0-0---0---0-|---0-0---0-0---0-|-0---0-0---0---0-||


 Verse
  $
  E5                                    C/E                           N.C.
  W                 +W                   W                   W
|-----------------|-------------------|--------------------|------------------|
|-5---------------|-(5)---------------|--------------------|------------------|
|-----------------|-------------------|--------------------|------------------|
|-----------------|-------------------|--------------------|------------------|
|-----------------|-------------------|--------------------|------------------|
|-----------------|-------------------|--------------------|------------------|
|
|   PM|   PM|   PM--|     PM|   PM  PM     PM|    PM|    PM--|    PM--------|
| E E E E E E E E    E  E E E E E E E    E E E  E E E  E E   E  E E E E E E E
|-----------------|-------------------|--------------------|------------------|
|-----------------|-------------------|--------------------|------------------|
|-----------------|-------------------|--------------------|------------------|
|-9-----9-----9---|-----9-----9---9---|-10-----10-----10---|---10-------------|
|-7-----7-----7---|-----7-----7---7---|--7------7------7---|----7-------------|
|---0-0---0-0---0-|--0----0-0---0---0-|----0-0----0-0----0-|-0----0-0-3-2-0-3-|


  D5                                  E5                N.C.
  Gtrs I, II
    PM|   PM|   PM--|   PM|   PM  PM    PM|   PM|   PM      PM    PM
  E E E E E E E E   E E E E E E E E   E E E E E E E E   E E E E E E E E
|-----------------|-----------------|-----------------|-----------------|
|-----------------|-----------------|-----------------|-----------------|
|-----------------|-----------------|-----------------|-----------------|
|-7-----7-----7---|---7-----7---7---|-9-----9-----9---|-----------------|
|-5-----5-----5---|---5-----5---5---|-7-----7-----7---|-----------------|
|---0-0---0-0---0-|-0---0-0---0---0-|---0-0---0-0---0-|-5h7-0-3h5-0-2h3-|


  C5                                  C                 N.C.
    PM|   PM|   PM--|   PM|   PM  PM    PM|   PM|   PM    ~~
  E E E E E E E E   E E E E E E E E   E E E E E E E E   E Q.   E E E E
|-----------------|-----------------|-----------------|----------------|
|-----------------|-----------------|-----------------|----------------|
|-----------------|-----------------|-5-----5-----5---|----------------|
|-5-----5-----5---|---5-----5---5---|-4-----4-----4---|----------------|
|-3-----3-----3---|---3-----3---3---|-2-----2-----2---|-2-3----2-------|
|---0-0---0-0---0-|-0---0-0---0---0-|---0-0---0-0---0-|----------5-3-2-|


  E5/B  D5/A  E5/B    F5/C  E5/BD5/A  E5/B  D5/A  E5/B    F5/C  N.C.
    PM|   PM|   PM--|   PM|   PM  PM    PM|   PM|   PM--|   PM|     ~
  E E E E E E E E   E E E E E E E E   E E E E E E E E   E E E E E E Q
|-----------------|-----------------|-----------------|----------------|
|-----------------|-----------------|-----------------|----------------|
|-----------------|-----------------|-----------------|----------------|
|-2-----0-----2---|---3-----2---0---|-2-----0-----2---|---3------------|
|-2-----0-----2---|---3-----2---0---|-2-----0-----2---|---3------------|
|---0-0---0-0---0-|-0---0-0---0---0-|---0-0---0-0---0-|-0---0-0-7-5-5--|


  E5                                  C/E                           N.C.
    PM|   PM|   PM--|   PM|   PM  PM     PM|    PM|    PM--|    PM--------|
  E E E E E E E E   E E E E E E E E    E E E  E E E  E E   E  E E E E E E E
|-----------------|-----------------|--------------------|------------------|
|-----------------|-----------------|--------------------|------------------|
|-----------------|-----------------|--------------------|------------------|
|-9-----9-----9---|---9-----9---9---|-10-----10-----10---|---10-------------|
|-7-----7-----7---|---7-----7---7---|--7------7------7---|----7-------------|
|---0-0---0-0---0-|-0---0-0---0---0-|----0-0----0-0----0-|-0----0-0-3-2-0-3-|


                                                               To Coda
  D5                                  E5                N.C.
    PM|   PM|   PM--|   PM|   PM  PM    PM|   PM|   PM      PM    PM
  E E E E E E E E   E E E E E E E E   E E E E E E E E   E E E E E E E E
|-----------------|-----------------|-----------------|-----------------|
|-----------------|-----------------|-----------------|-----------------|
|-----------------|-----------------|-----------------|-----------------|
|-7-----7-----7---|---7-----7---7---|-9-----9-----9---|-----------------|
|-5-----5-----5---|---5-----5---5---|-7-----7-----7---|-----------------|
|---0-0---0-0---0-|-0---0-0---0---0-|---0-0---0-0---0-|-5h7-0-3h5-0-2h3-|


  C5                                  C                         D5/A
    PM|   PM|   PM--|   PM|   PM  PM    PM|   PM|   PM--|   PM------|
                                                                |-3-|
  E E E E E E E E   E E E E E E E E   E E E E E E E E   E E E E Q Q Q
|-----------------|-----------------|-----------------|----------------||
|-----------------|-----------------|-----------------|----------------||
|-----------------|-----------------|-5-----5-----5---|---5------------||
|-5-----5-----5---|---5-----5---5---|-4-----4-----4---|---4------------||
|-3-----3-----3---|---3-----3---3---|-2-----2-----2---|---2-----5-5-5--||
|---0-0---0-0---0-|-0---0-0---0---0-|---0-0---0-0---0-|-0---0-0-5-5-5--||


   Chorus
    $$
    E5                                    C5
    Gtr III
    E E E E E E E E    E  E E E E E E E   E E E E E E E E    E  E E E E E E E
||--3-0-0-2-0-3-0-0-|--0--3-0-2-2-0-3-0-|-3-0-0-2-0-3-0-0-|--0--3-0-2-2-0-3-0--|
||o-----------------|-------------------|-----------------|--------------------|
||------------------|-------------------|-----------------|--------------------|
||------------------|-------------------|-----------------|--------------------|
||o-----------------|-------------------|-----------------|--------------------|
||------------------|-------------------|-----------------|--------------------|
|
|   Gtr II
|   E E E E E E E E    E  E E E E E E E   E E E E E E E E    E  E E E E E E E
||------------------|-------------------|-----------------|--------------------|
||o-----------------|-------------------|-----------------|--------------------|
||------------------|-------------------|-----------------|--------------------|
||--5---------5-----|---------5---------|-5---------5-----|---------5----------|
||o---7-7-5h7---7-7-|--7--5h7---7-7-5h7-|---7-7-5h7---7-7-|--7--5h7---7-7-5h7--|
||------------------|-------------------|-----------------|--------------------|
|
|   Gtr I
|   W                 +W                  W                 +W
||------------------|-------------------|-----------------|--------------------|
||o-----------------|-------------------|-----------------|--------------------|
||------------------|-------------------|-----------------|--------------------|
||--9---------------|-(9)---------------|-5---------------|-(5)----------------|
||o-7---------------|-(7)---------------|-3---------------|-(3)----------------|
||------------------|-------------------|-----------------|--------------------|


  A5
  Gtr II
  E E E E E E E E    E  E E E E E E E
|-----------------|-------------------|
|-----------------|-------------------|
|-----------------|-------------------|
|-5---------5-----|---------5---------|
|---7-7-5h7---7-7-|--7--5h7---7-7-5h7-|
|-----------------|-------------------|
|
| Gtr I
| W                 +W
|-----------------|-------------------|
|-----------------|-------------------|
|-----------------|-------------------|
|-2---------------|-(2)---------------|
|-0---------------|-(0)---------------|
|-----------------|-------------------|


              BbB5
  E E E E  E  E E E    E  E E E E E E E
|-------------------|--------------------||
|-------------------|-------------------o||
|-------------------|--------------------||
|-7-----------5-----|---------5----------||
|---7-7-5h=7----7-7-|--7--5h9---9-5h6h7-o||
|-------------------|--------------------||
|
| E E E E +E  E Q     +E  E Q   Q   Q
|-------------------|--------------------||
|-------------------|-------------------o||
|-------------------|--------------------||
|-2-2-2-2-(2)-3-4---|-(4)-4-4---4---4----||
|-0-0-0-0-(0)-1-2---|-(2)-2-2---2---2---o||
|-------------------|--------------------||


  E5                                   C/E
  Gtr I
  W                 +W                 W                 +W
  |                  |                 |                  |
  /                  /                 /                  /

  Gtr IV
  E E E E E E E E    E E E E E E E E   E E E E E E E E    E E E E E E E E
|-7p0---8p0---7p0-|----5p0---7p0-5p0-|-7p0---8p0---7p0-|----5p0---7p0-5p0-|
|-----0-----0-----|--0-----0---------|-----0-----0-----|--0-----0---------|
|-----------------|------------------|-----------------|------------------|
|-----------------|------------------|-----------------|------------------|
|-----------------|------------------|-----------------|------------------|
|-----------------|------------------|-----------------|------------------|
|
| Gtr III
| E E E E E E E E    E E E E E E E E   E E E E E E E E    E E E E E E E E
|-3p0---5p0---3p0-|----2p0---3p0-2p0-|-3p0---5p0---3p0-|----2p0---3p0-2p0-|
|-----0-----0-----|--0-----0---------|-----0-----0-----|--0-----0---------|
|-----------------|------------------|-----------------|------------------|
|-----------------|------------------|-----------------|------------------|
|-----------------|------------------|-----------------|------------------|
|-----------------|------------------|-----------------|------------------|
|
| Gtr II
| E E E E E E E E    E E E E E E E E   E E E E E E E E    E E E E E E E E
|-----------------|------------------|-----------------|------------------|
|-----------------|------------------|-----------------|------------------|
|-----------------|------------------|-----------------|------------------|
|-5---------5-----|--------5---------|-5---------5-----|--------5---------|
|---7-7-5h7---7-7-|--7-5h7---7-7-5h7-|---7-7-5h7---7-7-|--7-5h7---7-7-5h7-|
|-----------------|------------------|-----------------|------------------|


  D5                                   E5
  W                 +W                 W                  +W
  |                  |                 |                   |
  /                  /                 /                   /

  E E E E E E E E    E E E E E E E E   E E E E E E  E E    E  E E E  E E E E
|-7p0---8p0---7p0-|----5p0---7p0-5p0-|-7p0---8p0---10p0-|----12p0---10p0-8p0-|
|-----0-----0-----|--0-----0---------|-----0-----0------|--0------0----------|
|-----------------|------------------|------------------|--------------------|
|-----------------|------------------|------------------|--------------------|
|-----------------|------------------|------------------|--------------------|
|-----------------|------------------|------------------|--------------------|
|
| E E E E E E E E    E E E E E E E E   E E E E E E  E E    E  E E E  E E E E
|-3p0---5p0---3p0-|----2p0---3p0-2p0-|-3p0---5p0----7p0-|-----8p0----7p0-5p0-|
|-----0-----0-----|--0-----0---------|-----0-----0------|--0------0----------|
|-----------------|------------------|------------------|--------------------|
|-----------------|------------------|------------------|--------------------|
|-----------------|------------------|------------------|--------------------|
|-----------------|------------------|------------------|--------------------|
|
| E E E E E E E E    E E E E E E E E   E E E E E E  E E    E  E E E  E E E E
|-----------------|------------------|------------------|--------------------|
|-----------------|------------------|------------------|--------------------|
|-----------------|------------------|------------------|--------------------|
|-5---------5-----|--------5---------|-7---------5------|---------5----------|
|---7-7-5h7---7-7-|--7-5h7---7-7-5h7-|---7-7-5h7----7-7-|--7--5h7----7-7-5h7-|
|-----------------|------------------|------------------|--------------------|


  C5                                   C                 B5
  W                 +W                 W                 H.           +Q
  |                  |                 |                 |             |
  /                  /                 /                 /             /

  E E E E E E E E    E E E E E E E E   E E E E E E E E   E  E E E E E  Q
|-7p0---8p0---7p0-|----5p0---7p0-5p0-|-7p0---8p0---5p0-|----7p0---5p0------|
|-----0-----0-----|--0-----0---------|-----0-----0-----|-0------0------4---|
|-----------------|------------------|-----------------|-------------------|
|-----------------|------------------|-----------------|-------------------|
|-----------------|------------------|-----------------|-------------------|
|-----------------|------------------|-----------------|-------------------|
|
| E E E E E E E E    E E E E E E E E   E E E E E E E E   E  E E E E E  Q
|-3p0---5p0---3p0-|----2p0---3p0-2p0-|-3p0---5p0---2p0-|----3p0---2p0------|
|-----0-----0-----|--0-----0---------|-----0-----0-----|-0------0------4---|
|-----------------|------------------|-----------------|-------------------|
|-----------------|------------------|-----------------|-------------------|
|-----------------|------------------|-----------------|-------------------|
|-----------------|------------------|-----------------|-------------------|
|
| E E E E E E E E    E E E E E E E E   E E E E E E E E   E  E E E E E  E E
|-----------------|------------------|-----------------|-------------------|
|-----------------|------------------|-----------------|-------------------|
|-----------------|------------------|-----------------|-------------------|
|-5---------5-----|--------5---------|-7---------5-----|--------5----------|
|---7-7-5h7---7-7-|--7-5h7---7-7-5h7-|---7-7-5h7---7-7-|-7--5h9---9-5h=6h7-|
|-----------------|------------------|-----------------|-------------------|


                                                            D.S. al Coda
                                                            D.S. al Coda
  N.C.   B5/F# D5/A     A5/E  B5/FG5/D  A5/E  F#5/C#G5/D    E5/B  F#5/A#/G#
  Gtr III
   E E E E E E  E E   E E E E E E E E   E E E E E E E E   E E E E E E E E
|-12-0-0-7-0-0-10-0-|-0-5-0-0-7-0-3-0-|-5-0-0-2-0-0-3-0-|-0---------------||
|-------------------|-----------------|-----------------|---5-0-0-7-0-4-0-||
|-------------------|-----------------|-----------------|-----------------||
|-------------------|-----------------|-----------------|-----------------||
|-------------------|-----------------|-----------------|-----------------||
|-------------------|-----------------|-----------------|-----------------||
|
| Gtrs I, II
|    PM|   PM|    PM--|   PM|   PM  PM    PM|   PM|   PM--|   PM|   PM  PM
|  E E E E E E  E E   E E E E E E E E   E E E E E E E E   E E E E E E E E
|-------------------|-----------------|-----------------|-----------------||
|-------------------|-----------------|-----------------|-----------------||
|---------------7---|---------4-------|-----------------|-----------------||
|--------9------7---|---7-----4---5---|-7-----4-----5---|---2-----4---1---||
|--------9----------|---7---------5---|-7-----4-----5---|---2-----4---1---||
|--0-0-0---0-0----0-|-0---0-0---0---0-|---0-0---0-0---0-|-0---0-0---0---0-||


  &                                             D.S.S. al Dbl. Coda
  C5                                  C                 N.C.
  Gtrs I, II
    PM|   PM|   PM--|   PM|   PM  PM    PM|   PM|   PM
                                                        |-3-|  |-3-|
  E E E E E E E E   E E E E E E E E   E E E E E E E E   Q Q Q  Q Q Q
|-----------------|-----------------|-----------------|---------------||
|-----------------|-----------------|-----------------|---------------||
|-----------------|-----------------|-5-----5-----5---|---------------||
|-5-----5-----5---|---5-----5---5---|-4-----4-----4---|-1------4------||
|-3-----3-----3---|---3-----3---3---|-2-----2-----2---|---3------6----||
|---0-0---0-0---0-|-0---0-0---0---0-|---0-0---0-0---0-|-----2/-----5/-||


 Interlude
  &&
  E5                                                                D5/A
  Gtr IV
   |--3--|  |--3--|  |--3--|  |--3--|    |--3---|  |--3--|  |--3--|  |--3--|
   E  E  E  E  E  E  E  E  E  E  E  E    E   E  E  E  E  E  E  E  E  E  E  E
|-15p12----15p12----15p12----15p12----|-15p=12----15p12----15p12----15p12----|
|-------12-------12-------12-------13-|--------13-------13-------13-------15-|
|-------------------------------------|--------------------------------------|
|-------------------------------------|--------------------------------------|
|-------------------------------------|--------------------------------------|
|-------------------------------------|--------------------------------------|
|
| Gtr III
|  |--3--|  |--3--|  |--3--|  |--3--|    |--3---|  |--3--|  |--3--|  |--3--|
|  E  E  E  E  E  E  E  E  E  E  E  E    E   E  E  E  E  E  E  E  E  E  E  E
|-------------------------------------|--------------------------------------|
|-------------------------------------|--------------------------------------|
|-16p12----16p12----16p12----16p12----|-16p=12----16p12----16p12----16p12----|
|-------14-------14-------14-------14-|--------14-------14-------14-------14-|
|-------------------------------------|--------------------------------------|
|-------------------------------------|--------------------------------------|
|
| Gtrs I, II
|                                                                    PM
|  W                                    +H.                          Q
|-------------------------------------|--------------------------------------|
|-------------------------------------|--------------------------------------|
|-------------------------------------|--------------------------------------|
|-------------------------------------|------------------------------0-------|
|--2----------------------------------|-(2)--------------------------0-------|
|--0----------------------------------|-(0)----------------------------------|


  E5                                                       D5/A
   |--3--|  |--3--|  |--3--|  |--3--|    |--3---|  |--3--|  |--3--|  |--3--|
   E  E  E  E  E  E  E  E  E  E  E  E    E   E  E  E  E  E  E  E  E  E  E  E
|-17p14----17p14----17p14----17p14----|-19p=15----19p15----19p15----19p15----|
|-------15-------15-------15-------17-|--------17-------17-------17-------17-|
|-------------------------------------|--------------------------------------|
|-------------------------------------|--------------------------------------|
|-------------------------------------|--------------------------------------|
|-------------------------------------|--------------------------------------|
|
|  |--3--|  |--3--|  |--3--|  |--3--|    |--3---|  |--3--|  |--3--|  |--3--|
|  E  E  E  E  E  E  E  E  E  E  E  E    E   E  E  E  E  E  E  E  E  E  E  E
|-------------------------------------|--------------------------------------|
|-------------------------------------|--------------------------------------|
|-19p14----19p14----19p14----19p14----|-21p=16----21p16----21p16----21p16----|
|-------16-------16-------16-------16-|--------18-------18-------18-------18-|
|-------------------------------------|--------------------------------------|
|-------------------------------------|--------------------------------------|
|
|                                                           PM---------|
|                                                           |-----3-----|
|  W                                    +H                  Q     Q     Q
|-------------------------------------|--------------------------------------|
|-------------------------------------|--------------------------------------|
|-------------------------------------|--------------------------------------|
|-------------------------------------|---------------------0-----0-----0----|
|--2----------------------------------|-(2)-----------------0-----0-----0----|
|--0----------------------------------|-(0)----------------------------------|


  E5
   |--3--|  |--3--|  |--3--|  |--3--|    |--3---|  |--3--|  |--3--|  |--3--|
   E  E  E  E  E  E  E  E  E  E  E  E    E   E  E  E  E  E  E  E  E  E  E  E
|-20p15----20p15----20p15----20p15----|-22p=17----22p17----22p17----22p17----|
|-------17-------17-------17-------19-|--------19-------19-------19-------20-|
|-------------------------------------|--------------------------------------|
|-------------------------------------|--------------------------------------|
|-------------------------------------|--------------------------------------|
|-------------------------------------|--------------------------------------|
|
|  |--3--|  |--3--|  |--3--|  |--3--|    |--3---|  |--3--|  |--3--|  |--3--|
|  E  E  E  E  E  E  E  E  E  E  E  E    E   E  E  E  E  E  E  E  E  E  E  E
|-------------------------------------|-14p=10----14p10----14p10----14p10----|
|-------------------------------------|--------10-------10-------10-------10-|
|-21p16----21p16----21p16----21p16----|--------------------------------------|
|-------18-------18-------18-------18-|--------------------------------------|
|-------------------------------------|--------------------------------------|
|-------------------------------------|--------------------------------------|
|
|                                                                    PM---|
|                                                                    |--3--|
|  W                                    +H.                          E  E  E
|-------------------------------------|--------------------------------------|
|-------------------------------------|--------------------------------------|
|-------------------------------------|--------------------------------------|
|-------------------------------------|--------------------------------------|
|--2----------------------------------|-(2)----------------------------------|
|--0----------------------------------|-(0)--------------------------0--0--0-|


   |--3--|  |--3--|  |--3--|  |--3--|
   E  E  E  E  E  E  E  E  E  E  E  E
|-24p19----24p19----24p19----24p19----|
|-------20-------20-------20-------20-|
|-------------------------------------|
|-------------------------------------|
|-------------------------------------|
|-------------------------------------|
|
|  |--3--|  |--3--|  |--3--|  |--3--|
|  E  E  E  E  E  E  E  E  E  E  E  E
|-19p15----19p15----19p15----19p15----|
|-------17-------17-------17-------17-|
|-------------------------------------|
|-------------------------------------|
|-------------------------------------|
|-------------------------------------|
|
|  W
|-------------------------------------|
|-------------------------------------|
|-------------------------------------|
|-------------------------------------|
|--2----------------------------------|
|--0----------------------------------|


                         D5/A
   |--3---|  |---3---|    |--3--|  |--3--|
   E   E  E  E  E    E    E  E  E  E  E  E
|-24p=19----24p19--------24p19----24p19----||
|--------20---------20---------20-------20-||
|------------------------------------------||
|------------------------------------------||
|------------------------------------------||
|------------------------------------------||
|
|  |--3---|  |---3---|    |--3--|  |--3--|
|  E   E  E  E  E    E    E  E  E  E  E  E
|-19p=15----19p15--------19p15----19p15----||
|--------17---------17---------17-------17-||
|------------------------------------------||
|------------------------------------------||
|------------------------------------------||
|------------------------------------------||
|
|                 PM-----------------|
|                         |-----3-----|
| +Q.             S    S  Q     Q     Q
|------------------------------------------||
|------------------------------------------||
|------------------------------------------||
|-------------------------0-----0-----0----||
|-(2)---------------------0-----0-----0----||
|-(0)-------------0----0-------------------||


 Guitar Solo (Drover)
  N.C.
  Gtr IV
   H            +H           W
|-24-----------(24)\-------|-----------------------------|
|-24-----------(24)\-------|-----------------------------|
|--------------------------|-----------------------------|
|--------------------------|-----------------------------|
|--------------------------|-----------------------------|
|--------------------------|-----------------------------|
|
| Gtr III
|  ~~            ~~~~~
|                                    |--3--|
|  Q  S  S S S   H           E  Q    S  S  S  Q     E  E
|--------------------------|---12---13p12p11-12---/13-13-|
|--------------------------|-----------------------------|
|-/9--9h10p9p8---9---------|-----------------------------|
|--------------------------|-----------------------------|
|--------------------------|-----------------------------|
|--------------------------|-----------------------------|
|
| Gtrs I, II
|     PM-------|       PM    PM   PM          PM       PM
|  Q  S  S S S   E   E E E   E  E E  E        E E   E  E
|--------------------------|-----------------------------|
|--------------------------|-----------------------------|
|--------------------------|-----------------------------|
|--------------------------|-----------------------------|
|--------------------2---3-|--------------------2h==3----|
|--0--0--0-0-0---0-----0---|-0--3-0--2--------0--------0-|


  Gtr III
                                                     ~~~~
   +Q        E    E    +Q     E  E    +E   E  E  E  +H
|-(13)-----/17---17---(17)s==16-16-|-(16)s19-19s20-(20)-------|
|----------------------------------|--------------------------|
|----------------------------------|--------------------------|
|----------------------------------|--------------------------|
|----------------------------------|--------------------------|
|----------------------------------|--------------------------|
|
| Gtrs I, II
|      PM-------------|       PM       PM     PM     PM     PM
|  +E  S S   S S  S S   E  E  E  E     E   E  E  E   E  E E E
|----------------------------------|--------------------------|
|----------------------------------|--------------------------|
|----------------------------------|--------------------------|
|----------------------------------|--------------------------|
|--------------------------2-----3-|--------------------2h3---|
|--(0)-0-0---0-0--0-0---0-----0----|---0---3--0--2---0------0-|


                                                                            ~~
   E   E    T  T  S  S  S  E  E  E  E       +E   S  S  S  S  S  S  E  E  E  E
|-----17---17h18p17p16-------16----------|------------------------------------|
|----------------------18-17----18-17b18r|=(17)-18p17h18p17p16-------16-------|
|----------------------------------------|---------------------17-16----17-16-|
|----------------------------------------|------------------------------------|
|----------------------------------------|------------------------------------|
|----------------------------------------|------------------------------------|
|
|      PM-----------------|      PM          PM        PM          PM       PM
| +E   S S  S     S  S  S  E  E  E  E        E   E     E     E     E  E  E  E
|----------------------------------------|------------------------------------|
|----------------------------------------|------------------------------------|
|----------------------------------------|------------------------------------|
|----------------------------------------|------------------------------------|
|-----------------------------2-----3----|----------------------------2h=3----|
|-(0)--0-0--0-----0--0--0--0-----0-------|---0---3-----0-----2-----0--------0-|


    ~~~~
   +E   E    E    E    E    E    E    E
|-------------------------------16--------|
|----------------18-----------------------|
|-(16)-13---14--------13---14--------13---|
|-----------------------------------------|
|-----------------------------------------|
|-----------------------------------------|
|
|       PM---------------------------------
|  +E   S S  S S  S S  S S  S S  S S  S S
|-----------------------------------------|
|-----------------------------------------|
|-----------------------------------------|
|-----------------------------------------|
|-----------------------------------------|
|--(0)--0-0--0-0--0-0--0-0--0-0--0-0--0-0-|


                  ~~~~~~~~~
   E    E    E    E    +H
|--------------------------------------|
|--------------------------------------|
|-14--------14---13---(13)-------------|
|------15------------------------------|
|--------------------------------------|
|--------------------------------------|
|
|----------------------------------|
|  S S  S S  S S  S S   S  S S S S S E
|--------------------------------------|
|--------------------------------------|
|--------------------------------------|
|--------------------------------------|
|--------------------------------------|
|--0-0--0-0--0-0--0-0---0--0-0-0-0-0-0-|


                |----3----|    |---3---|  |---3---|
   S   S  S  S  E    E    E    E  E    E  E  E    E
|---------------------------------------------------|
|---------------------------------------------------|
|-14h=16p14----14------------------------14-16---17-|
|-----------17------17---16---14-16---17------------|
|---------------------------------------------------|
|---------------------------------------------------|
|
|         PM------------------|           PM
| +E      S  S  S S    S    S  E    E     E    E
|---------------------------------------------------|
|---------------------------------------------------|
|---------------------------------------------------|
|---------------------------------------------------|
|-----------------------------------2----------3----|
|-(0)-----0--0--0-0----0----0--0----------0---------|


               |---3---|  |---3---|  |---3---|
   S  S  S  S  E  E    E  E  E    E  E  E    E
|----------------------------------------------|
|----------------------------------------------|
|-16h17p16----16--------------------16-17---19-|
|----------19----19---17-16-17---19------------|
|----------------------------------------------|
|----------------------------------------------|
|
|  PM          PM         PM              PM
|  E     E     E    E     E    E     E    E
|----------------------------------------------|
|----------------------------------------------|
|----------------------------------------------|
|----------------------------------------------|
|------------------------------2h====3---------|
|--0-----3-----0----2-----0---------------0----|


                                                        ~~~~~~~~~~~~~~~~~~
   |---3----|    |----3----|    |---3---|  |---3---|
   E   E    E    E    E    E    E  E    E  E  E    E    H.            +E  E
|-----------------------------------------17-19---20-|-22------------(22)----|
|---------------17---19---20---17-19---20------------|-----------------------|
|-16--17---19----------------------------------------|-----------------------|
|----------------------------------------------------|-----------------------|
|----------------------------------------------------|-----------------------|
|----------------------------------------------------|-----------------------|
|
|        PM--------------------|           PM           PM   PM  PM       PM
| +E     S    S  S S    S    S  E    E     E    E       E  E E E E E   E  E
|----------------------------------------------------|-----------------------|
|----------------------------------------------------|-----------------------|
|----------------------------------------------------|-----------------------|
|----------------------------------------------------|-----------------------|
|------------------------------------2----------3----|-------------2h==3-----|
|-(0)----0----0--0-0----0----0--0----------0---------|--0--3-0-2-0--------0--|


   |--3---|              |---3---|        |--3--|  |------6-------|
   S   S  S  S  S  S  S  S  S    S  S  S  S  S  S  S  S  S  S  S  S
|-18h=20h22p20p18---------------------------------------------------|
|-----------------20-17h19h20p==19p17-------------17h19h20p19p17----|
|-------------------------------------19-16h18h19----------------19-|
|-------------------------------------------------------------------|
|-------------------------------------------------------------------|
|-------------------------------------------------------------------|
|
|            PM--------------------|               PM
| +E         S  S  S  S  S    S     E     E        E        E
|-------------------------------------------------------------------|
|-------------------------------------------------------------------|
|-------------------------------------------------------------------|
|-------------------------------------------------------------------|
|-----------------------------------------2-----------------3-------|
|-(0)--------0--0--0--0--0----0-----0--------------0----------------|


   |--3--|                 |---3---|           |--3--|
   S  S  S  S  S  S  S  S  S  S    S  S  S  S  S  S  S  S  S
|-------------------------------------------------------------|
|-------------------------------------------------------------|
|-16h18h19p18p16----------16h18h==19p18p16--------------------|
|----------------18-16-18------------------18-15h17h18p17p15--|
|-------------------------------------------------------------|
|-------------------------------------------------------------|
|
|  PM             PM            PM                      PM
|  E        E     E     E       E        E     E        E
|-------------------------------------------------------------|
|-------------------------------------------------------------|
|-------------------------------------------------------------|
|-------------------------------------------------------------|
|----------------------------------------2h====3--------------|
|--0--------3-----0-----2-------0-----------------------0-----|


  Gtr III
                |---3---|              |---3---|
   S   S  S  S  S  S    S  S  S  S  S  S  S    S  S  S  E
|-----------------------------------------------------------|
|-----------------------------------------------------------|
|-----------------------------------------------------------|
|--------------15h17h==18p17p15-----------------------------|
|-17--14h16h17------------------17-14h16h17p==16p14---------|
|---------------------------------------------------16-14s==|
|
|         PM-------------------------------------------------
| +E      S  S  S    S     S  S  S  S  S    S     S  S  S S
|-----------------------------------------------------------|
|-----------------------------------------------------------|
|-----------------------------------------------------------|
|-----------------------------------------------------------|
|-----------------------------------------------------------|
|-(0)-----0--0--0----0-----0--0--0--0--0----0-----0--0--0-0-|


                                      ~~
   E    E    E    E    E    E    E    E
|---------------------------------------||
|---------------------------------------||
|---------------------------------------||
|------18-------------19-------------23-||
|---------------------------------------||
|-16--------16s==17--------17s==21------||
|
|----------------------------------|
|  S S  S S  S S  S S  S S  S S  S S  E
|---------------------------------------||
|---------------------------------------||
|---------------------------------------||
|---------------------------------------||
|---------------------------------------||
|--0-0--0-0--0-0--0-0--0-0--0-0--0-0--2-||


 Guitar Solo (Mustaine)
  N.C.
  Gtr IV
                    \0.5    /2_________________________|
   H               +E      +Q.         +H.            +Q
|-17--------------(17)----(17)------|-(17)-----------(17)---------|
|-----------------------------------|-----------------------------|
|-16--------------(16)----(16)------|-(16)-----------(16)---------|
|-----------------------------------|-----------------------------|
|-----------------------------------|-----------------------------|
|-----------------------------------|-----------------------------|
|
| Gtr III
|                   /1.5_______________________________\3______|
|  ~~~
|  H               +H                  +H.            +Q       a
|-----------------------------------|-----------------------------|
|-----------------------------------|-----------------------------|
|-----------------------------------|-----------------------------|
|-23--------------(23)--------------|-(23)-----------(23)----(23)-|
|-----------------------------------|-----------------------------|
|-----------------------------------|-----------------------------|
|
| Gtrs I, II
|     PM----------|             PM      PM   PM------|
| +E  S S S S S S   E       E   E E     E  E E E E E   E   E
|-----------------------------------|-----------------------------|
|-----------------------------------|-----------------------------|
|-----------------------------------|-----------------------------|
|-----------------------------------|-----------------------------|
|---------------------------4-----5-|-----------------------------|
|-(2)-2-2-2-2-2-2---2-----------2---|---2--5-2-4-5-4---3---2------|


  Gtr IV
   S  S E   E   E   E S S E E   E Q   S S  E  S S E E
|---------------2-------------|---6---3p0-------------|
|-----------2-------5-3p2---3-|------------6--3p0-----|
|--x--x-4-----------------4---|-------------------5-3-|
|-----------------------------|-----------------------|
|-----------------------------|-----------------------|
|-----------------------------|-----------------------|
|
| Gtrs I, II
|       PM----------|     PM        PM        PM--|
| +E    S S S S S S E E   E E   E E E E   +E  E   E E
|-----------------------------|-----------------------|
|-----------------------------|-----------------------|
|-----------------------------|-----------------------|
|-----------------------------|-----------------------|
|---------------------4-----5-|-------5---(5)-2---3-4-|
|-(2)---2-2-2-2-2-2-2-----2---|-x-x-0-3---(3)-0---1-2-|


   S  S E   E   E   E S S E E   E Q   S S E S S E E
|---------------2-------------|---6---3p0-----------|
|-----------2-------5-3p2---3-|-----------6-3p0-----|
|--x--x-4-----------------4---|-----------------5-3-|
|-----------------------------|---------------------|
|-----------------------------|---------------------|
|-----------------------------|---------------------|
|
|       PM----------|     PM    PM  PM----------|
| +E    S S S S S S E E   E E   E E E E   E E   E E
|-----------------------------|---------------------|
|-----------------------------|---------------------|
|-----------------------------|---------------------|
|-----------------------------|---------------------|
|-(4)-----------------4-----5-|---------------------|
|-(2)---2-2-2-2-2-2-2-----2---|-2-5-2-4---5-4---3-2-|


   E  E E  E  E E E  E    E E E  E  E E E  E
|----------------------|-------------------------||
|----------------------|------------------15-----||
|----------------------|--------------9-8-14b16==||
|----------------------|----9-8-11-10------------||
|---------------9-8-11-|-10----------------------||
|-----9-8-11-10--------|-------------------------||
|
|     PM-----|
| +E  E E  E  E E E  E    E E E  E  E E E  E
|----------------------|-------------------------||
|----------------------|-------------------------||
|----------------------|--------------5-4--------||
|----------------------|----5-4--7--6------------||
|---------------5-4--7-|--6----------------------||
|-(2)-5-4--7--6--------|-------------------0-----||


 Guitar Solo (Drover)
  N.C.
    ~~~~~~~~~~~~~~~~~~~~~                 ~~~~~~
                             |---3---|
   +H               +E    E  E  E    E    H.               +Q
|--------------------------------------|--------------------------|
|-(15)-------------(15)--12------------|-15b17============(15)r---|
|-(14)-------------(14)r----15-14---12-|--------------------------|
|--------------------------------------|--------------------------|
|--------------------------------------|--------------------------|
|--------------------------------------|--------------------------|
|
|      PM----------|         PM           PM      PM  PM        PM
|  +E  S S S S S S   E    E  E    E       E     E E E E E   E   E
|--------------------------------------|--------------------------|
|--------------------------------------|--------------------------|
|--------------------------------------|--------------------------|
|--------------------------------------|--------------------------|
|-------------------------2-------3----|----------------2h==3-----|
|--(0)-0-0-0-0-0-0---0-------0---------|--0-----3-0-2-0---------0-|


   |---3----|    |----3----|    |---3---|  |---3---|
   E   E    E    E    E    E    E  E    E  E  E    E
|-12-------12------------------15------12------------|
|-----15--------15---12h==15------15------15p12------|
|-------------------------------------------------15-|
|----------------------------------------------------|
|----------------------------------------------------|
|----------------------------------------------------|
|
|        PM--------------------|           PM
| +E     S    S  S S    S    S  E    E     E    E
|----------------------------------------------------|
|----------------------------------------------------|
|----------------------------------------------------|
|----------------------------------------------------|
|------------------------------------2----------3----|
|-(0)----0----0--0-0----0----0--0----------0---------|


                         ~~
   |---3---|  |---3---|
   E  E    E  E  E    E  H
|---------------------------------|
|-12------12----------------------|
|----15------15-14---13-12--------|
|---------------------------------|
|---------------------------------|
|---------------------------------|
|
|  PM         PM         PM    PM
|  E    E     E    E     E E E E
|---------------------------------|
|---------------------------------|
|---------------------------------|
|---------------------------------|
|--------------------------2h3----|
|--0----3-----0----2-----0-----0--|


   PM-----------------------------------------------
   S   S  S  S  S  S  S  S  S  S  S  S  S  S  S  S
|--------------------------------------------------|
|--------------------------------------------------|
|--------------------------------------------------|
|-----------------------------------14----------14-|
|-----------14-------------14-16-17----14-16-17----|
|-14--16-17----17-16-14-16-------------------------|
|
|         PM---------------|            PM
| +E      S  S  S  S  S  S  E     E     E     E
|--------------------------------------------------|
|--------------------------------------------------|
|--------------------------------------------------|
|--------------------------------------------------|
|---------------------------------2-----------3----|
|-(0)-----0--0--0--0--0--0--0-----------0----------|


 ----------------------------|
   S  S  S  S  S  S  S  S  S  S  S  S  S  S  S  S
|-------------------------------------------------|
|-------------------------------------------------|
|----------------------------------16-------------|
|----------------14-16-18-16-18-19----19-18-16-18-|
|-17-16-14-16-17----------------------------------|
|-------------------------------------------------|
|
|  PM          PM          PM                PM
|  E     E     E     E     E     E     E     E
|-------------------------------------------------|
|-------------------------------------------------|
|-------------------------------------------------|
|-------------------------------------------------|
|--------------------------------2h====3----------|
|--0-----3-----0-----2-----0-----------------0----|


   S   S  S  S  S  S  S  S  S  S  S  S  S  S  S  S
|--------------------------------------------------|
|-----------17----------17-------------17-19-20-20-|
|-16--18-19----16-18-19----19-18-16-18-------------|
|--------------------------------------------------|
|--------------------------------------------------|
|--------------------------------------------------|
|
|         PM----------------------------------------
| +E      S  S  S  S  S  S  S  S  S  S  S  S  S  S
|--------------------------------------------------|
|--------------------------------------------------|
|--------------------------------------------------|
|--------------------------------------------------|
|--------------------------------------------------|
|-(0)-----0--0--0--0--0--0--0--0--0--0--0--0--0--0-|


   S  S  S  S  S  S  S  T  T  S  S  S  S  S  S  S  S
|----------17----------------17h19p17----17-19-20-22--||
|-17-19-20----20-19-17-19-20----------20--------------||
|-----------------------------------------------------||
|-----------------------------------------------------||
|-----------------------------------------------------||
|-----------------------------------------------------||
|
|-------------------------------------------------|
|  S  S  S  S  S  S  S  S     S  S  S  S  S  S  S  S
|-----------------------------------------------------||
|-----------------------------------------------------||
|-----------------------------------------------------||
|-----------------------------------------------------||
|-----------------------------------------------------||
|--0--0--0--0--0--0--0--0-----0--0--0--0--0--0--0--0--||


 Out-Chorus
  E5
  Gtr III
   E E E E E E E E     E  E E E   E  E E E
|--3-0-0-2-0-3-0-0-|---0--3-0-2---2--0-3-0-|
|------------------|-----------------------|
|------------------|-----------------------|
|------------------|-----------------------|
|------------------|-----------------------|
|------------------|-----------------------|
|
| Gtrs II, IV
|  ~~                  ~~~~
|  E E E E E E E E     E  E E E   E  E E E
|-24---------------|-(24)-------(24)-------|
|------------------|-----------------------|
|------------------|-----------------------|
|--5---------5-----|----------5------------|
|----7-7-5h7---7-7-|---7--5h7-----7--7-5h7-|
|------------------|-----------------------|
|  W                  +H         +Q    Q
|
| Gtr I
|  W                  +W
|------------------|-----------------------|
|------------------|-----------------------|
|------------------|-----------------------|
|--9---------------|--(9)------------------|
|--7---------------|--(7)------------------|
|------------------|-----------------------|


  C5
  E E E E E E E E    E  E E E E E E E
|-3-0-0-2-0-3-0-0-|--0--3-0-2-2-0-3-0-|
|-----------------|-------------------|
|-----------------|-------------------|
|-----------------|-------------------|
|-----------------|-------------------|
|-----------------|-------------------|
|
| E E E E E E E E    E  E E E E E E E
|-----------------|-------------------|
|-----------------|-------------------|
|-----------------|-------------------|
|-5---------5-----|---------5---------|
|---7-7-5h7---7-7-|--7--5h7---7-7-5h7-|
|-----------------|-------------------|
| W                  W
|
| W                 +W
|-----------------|-------------------|
|-----------------|-------------------|
|-----------------|-------------------|
|-5---------------|-(5)---------------|
|-3---------------|-(3)---------------|
|-----------------|-------------------|


  A5                                                BbB5
  Gtr II
  E E E E E E E E    E  E E E E E E E   E E E E  E  E E E    E  E E E E E E E
|-----------------|-------------------|-------------------|-------------------|
|-----------------|-------------------|-------------------|-------------------|
|-----------------|-------------------|-------------------|-------------------|
|-5---------5-----|---------5---------|-7-----------5-----|---------5---------|
|---7-7-5h7---7-7-|--7--5h7---7-7-5h7-|---7-7-5h=7----7-7-|--7--5h9---9-5h6h7-|
|-----------------|-------------------|-------------------|-------------------|
|
| Gtr I
| W                 +W                  E E E E +E  E Q     +E  E Q   Q   Q
|-----------------|-------------------|-------------------|-------------------|
|-----------------|-------------------|-------------------|-------------------|
|-----------------|-------------------|-------------------|-------------------|
|-2---------------|-(2)---------------|-2-2-2-2-(2)-3-4---|-(4)-4-4---4---4---|
|-0---------------|-(0)---------------|-0-0-0-0-(0)-1-2---|-(2)-2-2---2---2---|
|-----------------|-------------------|-------------------|-------------------|


  E5                                    C5
  Gtr III
  E E E E E E E E    E  E E E E E E E   E E E E E E E E    E  E E E E E E E
|-3-0-0-2-0-3-0-0-|--0--3-0-2-2-0-3-0-|-3-0-0-2-0-3-0-0-|--0--3-0-2-2-0-3-0-|
|-----------------|-------------------|-----------------|-------------------|
|-----------------|-------------------|-----------------|-------------------|
|-----------------|-------------------|-----------------|-------------------|
|-----------------|-------------------|-----------------|-------------------|
|-----------------|-------------------|-----------------|-------------------|
|
| Gtr II
| E E E E E E E E    E  E E E E E E E   E E E E E E E E    E  E E E E E E E
|-----------------|-------------------|-----------------|-------------------|
|-----------------|-------------------|-----------------|-------------------|
|-----------------|-------------------|-----------------|-------------------|
|-5---------5-----|---------5---------|-5---------5-----|---------5---------|
|---7-7-5h7---7-7-|--7--5h7---7-7-5h7-|---7-7-5h7---7-7-|--7--5h7---7-7-5h7-|
|-----------------|-------------------|-----------------|-------------------|
|
| Gtr I
| W                 +W                  W                 +W
|-----------------|-------------------|-----------------|-------------------|
|-----------------|-------------------|-----------------|-------------------|
|-----------------|-------------------|-----------------|-------------------|
|-9---------------|-(9)---------------|-5---------------|-(5)---------------|
|-7---------------|-(7)---------------|-3---------------|-(3)---------------|
|-----------------|-------------------|-----------------|-------------------|


  A5                                                BbB5
  Gtr II
  E E E E E E E E    E  E E E E E E E   E E E E  E  E E E    E  E E E E E E E
|-----------------|-------------------|-------------------|-------------------|
|-----------------|-------------------|-------------------|-------------------|
|-----------------|-------------------|-------------------|-------------------|
|-5---------5-----|---------5---------|-7-----------5-----|---------5---------|
|---7-7-5h7---7-7-|--7--5h7---7-7-5h7-|---7-7-5h=7----7-7-|--7--5h9---9-5h6h7-|
|-----------------|-------------------|-------------------|-------------------|
|
| Gtr I
| W                 +W                  E E E E +E  E Q     +E  E Q   Q   Q
|-----------------|-------------------|-------------------|-------------------|
|-----------------|-------------------|-------------------|-------------------|
|-----------------|-------------------|-------------------|-------------------|
|-2---------------|-(2)---------------|-2-2-2-2-(2)-3-4---|-(4)-4-4---4---4---|
|-0---------------|-(0)---------------|-0-0-0-0-(0)-1-2---|-(2)-2-2---2---2---|
|-----------------|-------------------|-------------------|-------------------|


  E5                                   C5
  Gtr I
  W                 +W                 W                  +W
  |                  |                 |                   |
  /                  /                 /                   /

  Gtr IV
  E E E E E E E E    E E E E E E E E   E E E E E E  E E    E E E E E E E E
|-7p0---5p0---7p0-|----8p0---7p0-5p0-|-7p0---8p0---10p0-|----8p0---7p0-5p0-|
|-----0-----0-----|--0-----0---------|-----0-----0------|--0-----0---------|
|-----------------|------------------|------------------|------------------|
|-----------------|------------------|------------------|------------------|
|-----------------|------------------|------------------|------------------|
|-----------------|------------------|------------------|------------------|
|
| Gtr III
| E E E E E E E E    E E E E E E E E   E E E E E E  E E    E E E E E E E E
|-3p0---2p0---3p0-|----5p0---3p0-2p0-|-3p0---5p0----7p0-|----5p0---3p0-2p0-|
|-----0-----0-----|--0-----0---------|-----0-----0------|--0-----0---------|
|-----------------|------------------|------------------|------------------|
|-----------------|------------------|------------------|------------------|
|-----------------|------------------|------------------|------------------|
|-----------------|------------------|------------------|------------------|
|
| Gtr II
| E E E E E E E E    E E E E E E E E   E E E E E E  E E    E E E E E E E E
|-----------------|------------------|------------------|------------------|
|-----------------|------------------|------------------|------------------|
|-----------------|------------------|------------------|------------------|
|-5---------5-----|--------5---------|-5---------5------|--------5---------|
|---7-7-5h7---7-7-|--7-5h7---7-7-5h7-|---7-7-5h7----7-7-|--7-5h7---7-7-5h7-|
|-----------------|------------------|------------------|------------------|


  A5
  Gtr I
   W                                            +W
   |                                             |
   /                                             /

  Gtr V
   |---3---|  |---3---|  |---3---|  |---3---|    |---3---|  |---3---|  |---3---|  |---3---|
   E  E    E  E  E    E  E  E    E  E  E    E    E  E    E  E  E    E  E  E    E  E  E    E
|-17p12------12-17p==12----12-----------------|---------------------------------------------|
|---------15------------15------12----12------|------------12--------------------12---------|
|----------------------------------15------15-|-12-14---15----15---14-12-14---15----15---14-|
|---------------------------------------------|---------------------------------------------|
|---------------------------------------------|---------------------------------------------|
|---------------------------------------------|---------------------------------------------|
|
| Gtr IV
|  E    E     E    E     E    E     E    E       E    E     E    E     E    E     E    E
|--7p===0----------5p====0----------7p===0----|-------5p====0----------7p===0-----5p===0----|
|-------------0---------------0---------------|--0---------------0--------------------------|
|---------------------------------------------|---------------------------------------------|
|---------------------------------------------|---------------------------------------------|
|---------------------------------------------|---------------------------------------------|
|---------------------------------------------|---------------------------------------------|
|
| Gtrs II, III
|  E    E     E    E     E    E     E    E       E    E     E    E     E    E     E    E
|--3p===0----------2p====0----------3p===0----|-------2p====0----------3p===0-----2p===0----|
|-------------0---------------0---------------|--0---------------0--------------------------|
|---------------------------------------------|---------------------------------------------|
|--5--------------------------5---------------|------------------5--------------------------|
|-------7-----7----5h====7----------7----7----|--7----5h====7----------7----7-----5h===7----|
|---------------------------------------------|---------------------------------------------|


                    BbB5
   E    E   E  E +E E Q      +E   E Q   Q   Q
   |    |   |  |  | | |       |   | |   |   |
   /    /   /  /  / / /       /   / /   /   /

      ~~~~~~~~~
   |3-|
   E  Q    +H.               +W
|-------------------------|-----------------------|
|-------------------------|-----------------------|
|-12----------------------|-----------------------|
|----14---(14)------------|-(14)\-----------------|
|-------------------------|-----------------------|
|-------------------------|-----------------------|
|
|  E    E   E  E  E E E E     E   E E E E E E E
|--7p===0------5p=0---7p0-|-------8p0---7p0-5p0---|
|-----------0-------0-----|---0-------0-----------|
|-------------------------|-----------------------|
|-------------------------|-----------------------|
|-------------------------|-----------------------|
|-------------------------|-----------------------|
|
|  E    E   E  E  E E E E     E   E E E E E E E
|--3p===0------2p=0---3p0-|-------5p0---3p0-2p0---|
|-----------0-------0-----|---0-------0-----------|
|-------------------------|-----------------------|
|--5----------------5-----|-----------5-----------|
|-------7---7--5h=7---7-7-|---7---5h7---7-7-5h7---|
|-------------------------|-----------------------|


  E5                                   C5
  Gtr I
  W                 +W                 W                  +W
  |                  |                 |                   |
  /                  /                 /                   /

  Gtr IV
  E E E E E E E E    E E E E E E E E   E E E E E E  E E    E  E E E E E E E
|-7p0---5p0---7p0-|----8p0---7p0-5p0-|-7p0---8p0---10p0-|-----8p0---7p0-5p0-|
|-----0-----0-----|--0-----0---------|-----0-----0------|--0------0---------|
|-----------------|------------------|------------------|-------------------|
|-----------------|------------------|------------------|-------------------|
|-----------------|------------------|------------------|-------------------|
|-----------------|------------------|-x\---------------|--x\---------------|
|                                      W                   W
|
| Gtr III
| E E E E E E E E    E E E E E E E E   E E E E E E  E E    E  E E E E E E E
|-3p0---2p0---3p0-|----5p0---3p0-2p0-|-3p0---5p0----7p0-|-----5p0---3p0-2p0-|
|-----0-----0-----|--0-----0---------|-----0-----0------|--0------0---------|
|-----------------|------------------|------------------|-------------------|
|-----------------|------------------|------------------|-------------------|
|-----------------|------------------|------------------|-------------------|
|-----------------|------------------|------------------|-------------------|
|
| Gtr II
| E E E E E E E E    E E E E E E E E   E E E E E E  E E    E  E E E E E E E
|-----------------|------------------|------------------|-------------------|
|-----------------|------------------|------------------|-------------------|
|-----------------|------------------|------------------|-------------------|
|-5---------5-----|--------5---------|-5---------5------|---------5---------|
|---7-7-5h7---7-7-|--7-5h7---7-7-5h7-|---7-7-5h7----7-7-|--7--5h7---7-7-5h7-|
|-----------------|------------------|------------------|-------------------|


  A5                                              BbB5
  W                 +W                 E E E E +E E Q     +E E Q   Q   Q
  |                  |                 | | | |  | | |      | | |   |   |
  /                  /                 / / / /  / / /      / / /   /   /

  E E E E E E E E    E E E E E E E E   E E E E  E E E E    E E E E E E E E
|-7p0---5p0---7p0-|----5p0---7p0-5p0-|-7p0---5p=0---7p0-|----8p0---7p0-5p0-||
|-----0-----0-----|--0-----0---------|-----0------0-----|--0-----0---------||
|-----------------|------------------|------------------|------------------||
|-----------------|------------------|------------------|------------------||
|-----------------|------------------|------------------|------------------||
|-----------------|------------------|------------------|------------------||
|
| E E E E E E E E    E E E E E E E E   E E E E  E E E E    E E E E E E E E
|-3p0---2p0---3p0-|----2p0---3p0-2p0-|-3p0---2p=0---3p0-|----5p0---3p0-2p0-||
|-----0-----0-----|--0-----0---------|-----0------0-----|--0-----0---------||
|-----------------|------------------|------------------|------------------||
|-----------------|------------------|------------------|------------------||
|-----------------|------------------|------------------|------------------||
|-----------------|------------------|------------------|------------------||
|
| E E E E E E E E    E E E E E E E E   E E E E  E E E E    E E E E E E E E
|-----------------|------------------|------------------|------------------||
|-----------------|------------------|------------------|------------------||
|-----------------|------------------|------------------|------------------||
|-5---------5-----|--------5---------|-5----------5-----|--------5---------||
|---7-7-5h7---7-7-|--7-5h7---7-7-5h7-|---7-7-5h=7---7-7-|--7-5h7---7-7-5h7-||
|-----------------|------------------|------------------|------------------||


   Outro
    N.C.
    Gtr II
    E E E E E E E E   E E E E E E E E   E E E E E E E E   E E E E E E E E   4x
||------------------|-----------------|-----------------|-------------------||
||o-----------------|-----------------|-----------------|------------------o||
||--7---------7-----|-------7---------|-7---------7-----|-------7-----------||
||----9-9-7h9---9-9-|-9-7h9---9-9-7h9-|---9-9-7h9---9-9-|-9-7h9---9-9-7h9---||
||o-----------------|-----------------|-----------------|------------------o||
||------------------|-----------------|-----------------|-------------------||
|
|   Gtr I
|   E E E E E E E E   E E E E E E E E   E E E E E E E E   E E E E E E E E   4x
||------------------|-----------------|-----------------|-------------------||
||o-----------------|-----------------|-----------------|------------------o||
||------------------|-----------------|-----------------|-------------------||
||--5---------5-----|-------5---------|-5---------5-----|-------5-----------||
||o---7-7-5h7---7-7-|-7-5h7---7-7-5h7-|---7-7-5h7---7-7-|-7-5h7---7-7-5h7--o||
||------------------|-----------------|-----------------|-------------------||


    Gtr III
     W                  +W
||-------------------|--------------------|
||o-12---------------|-(12)---------------|
||-------------------|--------------------|
||-------------------|--------------------|
||o------------------|--------------------|
||-------------------|--------------------|
|
|   Gtr II
|    E E E E E E E E     E  E E E E E E E
||-------------------|--------------------|
||o--8---------8-----|----------8---------|
||---7-9-9-7h9-7-9-9-|---9--7h9-7-9-9-7h9-|
||-----9-9-7h9---9-9-|---9--7h9---9-9-7h9-|
||o------------------|--------------------|
||-------------------|--------------------|
|
|   Gtr I
|    E E E E E E E E     E  E E E E E E E
||-------------------|--------------------|
||o------------------|--------------------|
||-------------------|--------------------|
||---5---------5-----|----------5---------|
||o----7-7-5h7---7-7-|---7--5h7---7-7-5h7-|
||-------------------|--------------------|


   W                  +W
|------------------|---------------------|
|-13---------------|-(13)----------------|
|------------------|---------------------|
|------------------|---------------------|
|------------------|---------------------|
|------------------|---------------------|
|
|  E E E E E E E E     E  E E E E E E E
|------------------|---------------------|
|--8---------8-----|----------8----------|
|--7-9-9-7h9-7-9-9-|---9--7h9-7-9-9-7h9--|
|----9-9-7h9---9-9-|---9--7h9---9-9-7h9--|
|------------------|---------------------|
|------------------|---------------------|
|
|  E E E E E E E E     E  E E E E E E E
|------------------|---------------------|
|------------------|---------------------|
|------------------|---------------------|
|--5---------5-----|----------5----------|
|----7-7-5h7---7-7-|---7--5h7---7-7-5h7--|
|------------------|---------------------|


   W                  +W
|------------------|--------------------|
|-10---------------|-(10)---------------|
|------------------|--------------------|
|------------------|--------------------|
|------------------|--------------------|
|------------------|--------------------|
|
|  E E E E E E E E     E  E E E E E E E
|------------------|--------------------|
|--8---------8-----|----------8---------|
|--7-9-9-7h9-7-9-9-|---9--7h9-7-9-9-7h9-|
|----9-9-7h9---9-9-|---9--7h9---9-9-7h9-|
|------------------|--------------------|
|------------------|--------------------|
|
|  E E E E E E E E     E  E E E E E E E
|------------------|--------------------|
|------------------|--------------------|
|------------------|--------------------|
|--5---------5-----|----------5---------|
|----7-7-5h7---7-7-|---7--5h7---7-7-5h7-|
|------------------|--------------------|


   H.            Q      +W
|--------------------|---------------------||
|-10------------12---|-(12)---------------o||
|--------------------|---------------------||
|--------------------|---------------------||
|--------------------|--------------------o||
|--------------------|---------------------||
|
|  E  E E E E E  E E     E  E E E E E E E
|--------------------|---------------------||
|--8----------8------|----------8---------o||
|--7--9-9-7h9-7--9-9-|---9--7h9-7-9-9-7h9--||
|-----9-9-7h9----9-9-|---9--7h9---9-9-7h9--||
|--------------------|--------------------o||
|--------------------|---------------------||
|
|  E  E E E E E  E E     E  E E E E E E E
|--------------------|---------------------||
|--------------------|--------------------o||
|--------------------|---------------------||
|--5----------5------|----------5----------||
|-----7-7-5h7----7-7-|---7--5h7---7-7-5h7-o||
|--------------------|---------------------||


  E5 N.C.
  GtrGtr III
  Q   H.         +W             +W             +W
|-------------|--------------|--------------|----------*|
|-------------|--------------|--------------|----------*|
|----<5>------|-(<5>)--------|-(<5>)--------|-(<5>)----*|
|-------------|--------------|--------------|----------*|
|-2-----------|--------------|--------------|----------*|
|-0-----------|--------------|--------------|----------*|



Duration Legend
---------------
W - whole; H - half; Q - quarter; E - 8th; S - 16th; T - 32nd; X - 64th; a - acciaccatura
+ - note tied to previous; . - note dotted; .. - note double dotted
Uncapitalized letters represent notes that are staccato (1/2 duration)
Irregular groupings are notated above the duration line
Duration letters will always appear directly above the note/fret number it represents the
duration for.  Duration letters with no fret number below them represent rests.  Multi-
bar rests are notated in the form Wxn, where n is the number of bars to rest for.  Low
melody durations appear below the staff

Tablature Legend
----------------
 h   - hammer-on
 p   - pull-off
 b   - bend
 pb  - pre-bend
 r   - bend release (if no number after the r, then release immediately)
 /\  - slide into or out of (from/to "nowhere")
 s   - legato slide
 S   - shift slide
 - natural harmonic
[n]  - artificial harmonic
n(n) - tapped harmonic
 ~   - vibrato
 tr  - trill
 T   - tap
 TP  - trem. picking
 PM  - palm muting
\n/  - tremolo bar dip; n = amount to dip
 \n  - tremolo bar down
 n/  - tremolo bar up
/n\  - tremolo bar inverted dip
 =   - hold bend; also acts as connecting device for hammers/pulls
 <> - volume swell (louder/softer)
 x   - on rhythm slash represents muted slash
 o   - on rhythm slash represents single note slash

Misc Legend
-----------
 |  - bar
||  - double bar
||o - repeat start
o|| - repeat end
*|  - double bar (ending)
 :  - bar (freetime)
 $  - Segno
 &  - Coda
Tempo markers -  = BPM(8/16=s8/s16), where s8 = swing 8ths, s16 = swing 16ths

comments
print report bad tab
5 comments total. Showing first comments.
0 reply
kicknas wrote on August 23 2008, 09:27 pm

Nicely done!!!
5*

0 reply
JamesxHetfield wrote on November 15 2008, 01:11 pm

Great Tab for A Great song 5*

0 reply
drgn wzrd94 wrote on March 18 2009, 06:46 pm

awesome, Megadeth rulz

I want to post or [tab]
guest
You may want to rate the tab now too:
select rating
Please do not post tabs as comments. Select "correction" instead!