Oops, an error
Loading. Please wait.

When Tab

ver3
ver3

Whole song

More versions @911Tabs.com
198 views 1 this week
no commentswrite comment
1 2 3 4 5
please rate
Autoscroll
+/-
esc
set tempo
stop
Contributor
WARNING: You are trying to view
                                    content from Ultimate-Guitar.com
                                    in an unauthorized application,
                                    which is prohibited.

                                    Please use an official Ultimate
                                    Guitar Tabs application for iPhone,
                                    iPad or Android to access legitimate
                                    chords, guitar, bass, and drum tabs
                                    from Ultimate-Guitar.com database.

                                    Type "ultimate guitar tabs" in Apple
                                    App Store's or Android Market's
                                    search to find the application.
#----------------------------------PLEASE NOTE---------------------------------#
#This file is the author's own work and represents their interpretation of the #
#song. You may only use this file for private study, scholarship, or research. #
#------------------------------------------------------------------------------#

WHEN
As recorded by Megadeth
(From the 2001 Album THE WORLD NEEDS A HERO)

Transcribed by Zed Chuva
	

Words by Dave Mustaine Music by Dave Mustaine & Brian Tatler

Amadd9
x 0 7 5 0 0
	
Amadd9/E
x 7 7 5 0 0
	
Amadd9/Eb
x 6 7 5 0 0
	
Em
0 7 5 x x x

Em/B
7 7 5 x x x
	
Em/Bb
6 7 5 x x x
	
Em/A
5 7 5 x x x
	
Am
x 0 7 5 x x

Am/E
x 7 7 5 x x
	
Am/C
8 x 7 5 x x
	
Am/Eb
x 6 7 5 x x
	
D5/A
x 0 x 2 3 x

D5/Bb
x 1 x 2 3 x
	
Dm/F
x x 3 2 3 x
	
D5
x x 0 2 3 x
	
D5/C
x 3 x 2 3 x

Gtr I (E A D G B E) - 'Dave Clean'
Gtr II (E A D G B E) - 'Left Dirty'
Gtr III (E A D G B E) - 'Right Dirty'
Gtr IV (E A D G B E) - 'Lead'

             Q=115
               Amadd9            Amadd9/E          Amadd9/Eb
 4/4
  Gtr I
  Wx2          E E E E E E E E   E E E E E E E E   E E E E E E E E
|------------|---------0-------|---------0-------|---------0--------|
|------------|-------0---0-----|-------0---0-----|-------0---0------|
|------------|-----5-------5---|-----5-------5---|-----5-------5----|
|------------|---7-----------7-|---7-----------7-|---7-----------7--|
|------------|-0---------------|-7---------------|-6----------------|
|------------|-----------------|-----------------|------------------|


    (C5)    (B5)   (Bb5)    (A5)
   9/8                     4/4
     E  E E E  E E E  E E   E E E E  E   E E E
||------------------------|----------0---------|
||o-----------------------|-------0------0-----|
||--------5------5------5-|-----5----------5---|
||------7------7------7---|---7--------------7-|
||o-----------------------|-0------------------|
||---8------7------6------|--------------------|
|
|   Gtrs II, III
|    Q.     Q.     Q.       H       +H
||------------------------|--------------------|
||o-----------------------|--------------------|
||------------------------|--------------------|
||------------------------|--------------------|
||o-10------9------8------|-7-------(7)\-------|
||---8------7------6------|-5-------(5)\-------|


  Amadd9/E          Amadd9/Eb
  E E E E E E E E   E E E E E E E E  3x
|---------0-------|---------0--------||
|-------0---0-----|-------0---0-----o||
|-----5-------5---|-----5-------5----||
|---7-----------7-|---7-----------7--||
|-7---------------|-6---------------o||
|-----------------|------------------||
|
| W                 W                3x
|-----------------|------------------||
|-----------------|-----------------o||
|-----------------|------------------||
|-----------------|------------------||
|-----------------|-----------------o||
|-----------------|------------------||


  (C5)    (B5)   (Bb5)    (A5)    Am/E
 9/8                     4/4
   E  E E E  E E E  E E   E E E E  E   E E E
|-----------------------|--------------------|
|-----------------------|--------------------|
|-------5------5------5-|-----5----------5---|
|-----7------7------7---|---7---7------7---7-|
|-----------------------|-0--------7---------|
|--8------7------6------|--------------------|
|
|  Q.     Q.     Q.       H       +H
|-----------------------|--------------------|
|-----------------------|--------------------|
|-----------------------|--------------------|
|-----------------------|--------------------|
|-10------9------8------|-7-------(7)\-------|
|--8------7------6------|-5-------(5)\-------|


  Am/Eb   Am/C      Am      Am/E      Am/E(C5) (B5)(Bb5)
  E E E E E E E E   E E E E E E E E   E E  E E E E E E
|-----------------|-----------------|---------------------|
|-----------------|-----------------|---------------------|
|-----5-------5---|-----5-------5---|------5-------5------|
|---7---7---7---7-|---7---7---7---7-|---7----7---7---7----|
|-6---------------|-0-------7-------|-6-------------------|
|---------8-------|-----------------|----------8----------|
|
| W                 W                 Q    Q   Q   Q
|-----------------|-----------------|---------------------|
|-----------------|-----------------|---------------------|
|-----------------|-----------------|---------------------|
|-----------------|-----------------|---------------------|
|-----------------|-----------------|-----10---9---8------|
|-----------------|-----------------|------8---7---6------|


    (A5)    Am/E         Am/Eb   Am/C
    E E E E  E   E E E   E E E E E E E E
||---------------------|-----------------|
||o--------------------|-----------------|
||------5----------5---|-----5-------5---|
||----7---7------7---7-|---7---7---7---7-|
||o-0--------7---------|-6---------------|
||---------------------|---------8-------|
|
|   H       +H           W
||---------------------|-----------------|
||o--------------------|-----------------|
||---------------------|-----------------|
||---------------------|-----------------|
||o-7-------(7)\-------|-----------------|
||--5-------(5)\-------|-----------------|


  Am      Am/E          (C5) (B5)(Bb5)
  E E E E E E E E   E E  E E E E E E   3x
|-----------------|--------------------||
|-----------------|-------------------o||
|-----5-------5---|--------5---5---5---||
|---7---7---7---7-|---7----------------||
|-0-------7-------|-6-----------------o||
|-----------------|------8---7---6-----||
|
| W                 Q    Q   Q   Q     3x
|-----------------|--------------------||
|-----------------|-------------------o||
|-----------------|--------------------||
|-----------------|--------------------||
|-----------------|-----10---9---8----o||
|-----------------|------8---7---6-----||


    (A5)    Am/E             (C5) (B5)(Bb5)
    E E E E  E   E E E   E E  E E E E E E
||---------------------|------------------|
||o--------------------|------------------|
||------5----------5---|--------5---5---5-|
||----7---7------7---7-|---7--------------|
||o-0--------7---------|-6----------------|
||---------------------|------8---7---6---|
|
|   H       +Q     Q     Q    Q   Q   Q
||---------------------|------------------|
||o--------------------|------------------|
||---------------------|------------------|
||---------------------|------------------|
||o-7-------(7)\-------|-----10---9---8---|
||--5-------(5)\-------|------8---7---6---|


  (A5)    Am/E             (C5) (B5)(Bb5)
  E E E E  E   E E E   E E  E E E E E E
|--------------------|--------------------||
|--------------------|-------------------o||
|-----5----------5---|--------5---5---5---||
|---7---7------7---7-|---7----------------||
|-0--------7---------|-6-----------------o||
|--------------------|------8---7---6-----||
|
| H       +Q     Q     Q    Q   Q   Q
|--------------------|--------------------||
|--------------------|-------------------o||
|--------------------|--------------------||
|--------------------|--------------------||
|-7-------(7)\-------|-----10---9---8----o||
|-5-------(5)\-------|------8---7---6-----||


  (D5/A)  D5/A      D5/Bb     Dm/F      D5      D5/A      D5/Bb   D5/C
  E E E E E E E E    E  E E E E E E E   E E E E E E E E   E E E E E E E E
|-----------------|-------------------|-----------------|-----------------|
|-----3-------3---|-------3-------3---|-----3-------3---|-----3-------3---|
|---2---2---2---2-|-----2---2---2---2-|---2---2---2---2-|---2---2---2---2-|
|-0---------------|-----------3-------|-0---------------|-----------------|
|---------0-------|--1----------------|---------0-------|-1-------3-------|
|-----------------|-------------------|-----------------|-----------------|
|
|                    >
| W                 +W                  W                 W
|-----------------|-------------------|-----------------|-----------------|
|-3---------------|-(3)---------------|-----------------|-----------------|
|-2---------------|-(2)---------------|-----------------|-----------------|
|-0---------------|-(0)---------------|-----------------|-----------------|
|-0---------------|-(0)---------------|-----------------|-----------------|
|-----------------|-------------------|-----------------|-----------------|


  D5      D5/A      D5/Bb   Dm/F      D5      D5/A        D5/Bb
  E E E E E E E E   E E E E E E E E   E E E E E E E  E     W
|-----------------|-----------------|-------------------|--------||
|-----3-------3---|-----3-------3---|-----3-------3-(3)-|-(3)----||
|---2---2---2---2-|---2---2---2---2-|---2---2---2----2--|-(2)----||
|-0---------------|---------3-------|-0-----------------|--------||
|---------0-------|-1---------------|---------0---------|--1-----||
|-----------------|-----------------|-------------------|--------||


  Em      Em/B      Em/Bb   Em/A      Em      Em/B      Em/Bb   Em/A
  E E E E E E E E   E E E E E E E E   E E E E E E E E   E E E E E E E E
|-----------------|-----------------|-----------------|-----------------|
|-----------------|-----------------|-----------------|-----------------|
|-----------------|-----------------|-----------------|-----------------|
|-----5-------5---|-----5-------5---|-----5-------5---|-----5-------5---|
|---7---7---7---7-|---7---7---7---7-|---7---7---7---7-|---7---7---7---7-|
|-0-------7-------|-6-------5-------|-0-------7-------|-6-------5-------|


  Em      Em/B      Em/Bb   Em/A      Em      Em/B          (G5)(F#5(F5)
  E E E E E E E E   E E E E E E E E   E E E E E E E E   E E E E E E E E
|-----------------|-----------------|-----------------|-----------------|
|-----------------|-----------------|-----------------|-----------------|
|-----------------|-----------------|-----------------|-----------------|
|-----5-------5---|-----5-------5---|-----5-------5---|-------0---0---0-|
|---7---7---7---7-|---7---7---7---7-|---7---7---7---7-|---7-------------|
|-0-------7-------|-6-------5-------|-0-------7-------|-6---3---2---1---|
|
| Gtrs II, III
| W                 W                 W                 Q   Q   Q   Q
|-----------------|-----------------|-----------------|-----------------|
|-----------------|-----------------|-----------------|-----------------|
|-----------------|-----------------|-----------------|-----------------|
|-----------------|-----------------|-----------------|-----------------|
|-----------------|-----------------|-----------------|-----5---4---3---|
|-----------------|-----------------|-----------------|-----3---2---1---|


    Em      (E5)Em/B        Em/Bb     Em/A
    E   E   E E  E  E E E    E  E E E E E E E
||------------------------|-------------------|
||o-----------------------|-------------------|
||------------------------|-------------------|
||----------5---------5---|-------5-------5---|
||o-----7-----7-----7---7-|-----7---7---7---7-|
||--0------------7--------|--6--------5-------|
|
|   PM----|
|   |--3--|
|   E E   E Q   +H          +W
||------------------------|-------------------|
||o-----------------------|-------------------|
||------------------------|-------------------|
||------------------------|-------------------|
||o---------2---(2)-------|-(2)---------------|
||--0-0---0-0---(0)-------|-(0)---------------|


  Em        Em/B          (G5)(F#5(F5)
   E  E E E E E E E   E E E E E E E E   4x
|-------------------|-------------------||
|-------------------|------------------o||
|-------------------|-------------------||
|-------5-------5---|-------0---0---0---||
|-----7---7---7---7-|---7--------------o||
|--0--------7-------|-6---3---2---1-----||
|
| +W                  Q   Q   Q   Q     4x
|-------------------|-------------------||
|-------------------|------------------o||
|-------------------|-------------------||
|-------------------|-------------------||
|-(2)---------------|-----5---4---3----o||
|-(0)---------------|-----3---2---1-----||


    Em      (E5)Em/B              (G5)(F#5(F5)
    E   E   E E  E  E E E    E  E E E E E E E
||------------------------|-------------------|
||o-----------------------|-------------------|
||------------------------|-------------------|
||----------5---------5---|---------0---0---0-|
||o-----7-----7-----7---7-|-----7-------------|
||--0------------7--------|--6----3---2---1---|
|
|   PM----|
|   |--3--|
|   E E   E Q   +H          +Q    Q   Q   Q
||------------------------|-------------------|
||o-----------------------|-------------------|
||------------------------|-------------------|
||------------------------|-------------------|
||o---------2---(2)-------|-(2)---5---4---3---|
||--0-0---0-0---(0)-------|-(0)---3---2---1---|


  Em      (E5)Em/B              (G5)(F#5(F5)
  E   E   E E  E  E E E    E  E E E E E E E
|-----------------------|---------------------||
|-----------------------|--------------------o||
|-----------------------|---------------------||
|---------5---------5---|---------0---0---0---||
|-----7-----7-----7---7-|-----7--------------o||
|-0------------7--------|--6----3---2---1-----||
|
| PM----|
| |--3--|
| E E   E Q   +H          +Q    Q   Q   Q
|-----------------------|---------------------||
|-----------------------|--------------------o||
|-----------------------|---------------------||
|-----------------------|---------------------||
|---------2---(2)-------|-(2)---5---4---3----o||
|-0-0---0-0---(0)-------|-(0)---3---2---1-----||


   Break
    E5                                                             G5 F#5F5
    Gtrs II, III
    PM--------|        PM--------|        PM--------|        PM--|
    |-3-| |-3-|        |-3-| |-3-|        |-3-| |-3-|        |-3-|
    E E E E E E H      E E E E E E H      E E E E E E H      E E E Q  Q  Q    4x
||-------------------|------------------|------------------|------------------||
||o------------------|------------------|------------------|-----------------o||
||-------------------|------------------|------------------|------------------||
||-------------------|------------------|------------------|------------------||
||o-2-2-2-2-2-2------|-2-2-2-2-2-2------|-2-2-2-2-2-2------|-2-2-2-5--4--3---o||
||--0-0-0-0-0-0------|-0-0-0-0-0-0------|-0-0-0-0-0-0------|-0-0-0-3--2--1----||


  Q=75                                    H=H
  E5 G5 F#5C5   B5 G5 F#5Eb5   E5
  Q  Q  Q  Q    Q  Q  Q   Q    W          +W
|-------------|--------------|----------|--------||
|-------------|--------------|----------|--------||
|-------------|--------------|----------|--------||
|----------5--|-4--------/8--|-9--------|-(9)----||
|-2--5--4--3--|-2--5--4--/6--|-7--------|-(7)----||
|-0--3--2-----|----3--2------|-0--------|-(0)----||


   Pre-Verse
    Q=147
            G5A5          A5Bb5   A5Bb5         G5A5          A5Bb5   A5Bb5
    PM----|     PM------|     PM|       PM----|     PM------|     PM|
    E E E E E E E E   E E E E E E E E   E E E E E E E E   E E E E E E E E   4x
||------------------|-----------------|-----------------|-------------------||
||o-----------------|-----------------|-----------------|------------------o||
||------------------|-----------------|-----------------|-------------------||
||------------------|-----------------|-----------------|-------------------||
||o---------5s7-----|-----7s8-----7s8-|---------5s7-----|-----7s8-----7s8--o||
||--0-0-0-0-3s5-0-0-|-0-0-5s6-0-0-5s6-|-0-0-0-0-3s5-0-0-|-0-0-5s6-0-0-5s6---||


   Verse
            G5A5          A5Bb5   A5Bb5         G5A5          A5Bb5   A5Bb5
    PM----|     PM------|     PM|       PM----|     PM------|     PM|
    E E E E E E E E   E E E E E E E E   E E E E E E E E   E E E E E E E E   4x
||------------------|-----------------|-----------------|-------------------||
||o-----------------|-----------------|-----------------|------------------o||
||------------------|-----------------|-----------------|-------------------||
||------------------|-----------------|-----------------|-------------------||
||o---------5s7-----|-----7s8-----7s8-|---------5s7-----|-----7s8-----7s8--o||
||--0-0-0-0-3s5-0-0-|-0-0-5s6-0-0-5s6-|-0-0-0-0-3s5-0-0-|-0-0-5s6-0-0-5s6---||


            D5E5          E5F5     E5F5
    PM----|     PM------|      PM|
    E E E E E E E E   E E E  E E E E  E
||------------------|-------------------|
||o-----------------|-------------------|
||------------------|-------------------|
||----------7s9-----|-----9s10-----9s10-|
||o---------5s7-----|-----7s=8-----7s=8-|
||--7-7-7-7-----7-7-|-7-7------7-7------|


          D5E5          E5F5     E5F5
  PM----|     PM------|      PM|
  E E E E E E E E   E E E  E E E E  E
|-----------------|---------------------||
|-----------------|--------------------o||
|-----------------|---------------------||
|---------7s9-----|-----9s10-----9s10---||
|---------5s7-----|-----7s=8-----7s=8--o||
|-7-7-7-7-----7-7-|-7-7------7-7--------||


            G5A5          A5Bb5   A5Bb5         G5A5          A5Bb5   A5Bb5
    PM----|     PM------|     PM|       PM----|     PM------|     PM|
    E E E E E E E E   E E E E E E E E   E E E E E E E E   E E E E E E E E
||------------------|-----------------|-----------------|-------------------||
||o-----------------|-----------------|-----------------|------------------o||
||------------------|-----------------|-----------------|-------------------||
||------------------|-----------------|-----------------|-------------------||
||o---------5s7-----|-----7s8-----7s8-|---------5s7-----|-----7s8-----7s8--o||
||--0-0-0-0-3s5-0-0-|-0-0-5s6-0-0-5s6-|-0-0-0-0-3s5-0-0-|-0-0-5s6-0-0-5s6---||


   Pre-Verse
            G5A5          A5Bb5   A5Bb5         G5A5          A5Bb5   A5Bb5
    PM----|     PM------|     PM|       PM----|     PM------|     PM|
    E E E E E E E E   E E E E E E E E   E E E E E E E E   E E E E E E E E
||------------------|-----------------|-----------------|-------------------||
||o-----------------|-----------------|-----------------|------------------o||
||------------------|-----------------|-----------------|-------------------||
||------------------|-----------------|-----------------|-------------------||
||o---------5s7-----|-----7s8-----7s8-|---------5s7-----|-----7s8-----7s8--o||
||--0-0-0-0-3s5-0-0-|-0-0-5s6-0-0-5s6-|-0-0-0-0-3s5-0-0-|-0-0-5s6-0-0-5s6---||


   Verse
            G5A5          A5Bb5   A5Bb5         G5A5          A5Bb5   A5Bb5
    PM----|     PM------|     PM|       PM----|     PM------|     PM|
    E E E E E E E E   E E E E E E E E   E E E E E E E E   E E E E E E E E   4x
||------------------|-----------------|-----------------|-------------------||
||o-----------------|-----------------|-----------------|------------------o||
||------------------|-----------------|-----------------|-------------------||
||------------------|-----------------|-----------------|-------------------||
||o---------5s7-----|-----7s8-----7s8-|---------5s7-----|-----7s8-----7s8--o||
||--0-0-0-0-3s5-0-0-|-0-0-5s6-0-0-5s6-|-0-0-0-0-3s5-0-0-|-0-0-5s6-0-0-5s6---||


            D5E5          E5F5     E5F5
    PM----|     PM------|      PM|
    E E E E E E E E   E E E  E E E E  E
||------------------|-------------------|
||o-----------------|-------------------|
||------------------|-------------------|
||----------7s9-----|-----9s10-----9s10-|
||o---------5s7-----|-----7s=8-----7s=8-|
||--7-7-7-7-----7-7-|-7-7------7-7------|


          D5E5          E5F5     E5F5
  PM----|     PM------|      PM|
  E E E E E E E E   E E E  E E E E  E
|-----------------|---------------------||
|-----------------|--------------------o||
|-----------------|---------------------||
|---------7s9-----|-----9s10-----9s10---||
|---------5s7-----|-----7s=8-----7s=8--o||
|-7-7-7-7-----7-7-|-7-7------7-7--------||


   Verse
            G5A5          A5Bb5   A5Bb5         G5A5          A5Bb5   A5Bb5
    PM----|     PM------|     PM|       PM----|     PM------|     PM|
    E E E E E E E E   E E E E E E E E   E E E E E E E E   E E E E E E E E
||------------------|-----------------|-----------------|-------------------||
||o-----------------|-----------------|-----------------|------------------o||
||------------------|-----------------|-----------------|-------------------||
||------------------|-----------------|-----------------|-------------------||
||o---------5s7-----|-----7s8-----7s8-|---------5s7-----|-----7s8-----7s8--o||
||--0-0-0-0-3s5-0-0-|-0-0-5s6-0-0-5s6-|-0-0-0-0-3s5-0-0-|-0-0-5s6-0-0-5s6---||


  E5        B5  Bb5     A5G5D5/A                G5A5          A5Bb5   A5Bb5
                                        PM----|     PM------|     PM|
  E E E E E E E E   +E  E E Q.   +Q     E E E E E E E E   E E E E E E E E
|-----------------|-------------------|-----------------|-----------------|
|-----------------|-------------------|-----------------|-----------------|
|-----------------|-------------------|-----------------|-----------------|
|-9-9-9-9-9-------|---------7----(7)--|-----------------|-----------------|
|-7-7-7-7-7-9---8-|-(8)-7-5-5----(5)--|---------5s7-----|-----7s8-----7s8-|
|-----------7---6-|-(6)-5-3-5----(5)--|-0-0-0-0-3s5-0-0-|-0-0-5s6-0-0-5s6-|


   Bridge
    E5        B5  Bb5     A5G5D5/A          E5        B5  Bb5   A5  G5
    E E E E E E E E   +E  E E Q.   +Q    3x E E E E E E E E   E E E H    +E
||------------------|--------------------||-----------------|-----------------|
||o-----------------|-------------------o||-----------------|-----------------|
||------------------|--------------------||-----------------|-----------------|
||--9-9-9-9-9-------|---------7----(7)---||-9-9-9-9-9-------|-------0----(0)--|
||o-7-7-7-7-7-9---8-|-(8)-7-5-5----(5)--o||-7-7-7-7-7-9---8-|---7---5----(5)--|
||------------7---6-|-(6)-5-3-5----(5)---||-----------7---6-|---5---3----(3)--|


                                        2/4
  +W           +W           +W           +H
|------------|------------|------------|--------||
|------------|------------|------------|--------||
|------------|------------|------------|--------||
|-(0)--------|-(0)--------|-(0)--------|-(0)----||
|-(5)--------|-(5)--------|-(5)--------|-(5)----||
|-(3)--------|-(3)--------|-(3)--------|-(3)----||


   Lead
   4/4
    Gtr IV
     TP                        TP
     W                         W
||--19-----------------||-||--18-----------------||
||o-------------------o||-||o-------------------o||
||---------------------||-||---------------------||
||---------------------||-||---------------------||
||o-------------------o||-||o-------------------o||
||---------------------||-||---------------------||
|
|   Gtrs II, III
|    PM--------|               PM--------|
|    S S E S S E H             S S E S S E H
||---------------------||-||---------------------||
||o-------------------o||-||o-------------------o||
||---------------------||-||---------------------||
||---------------------||-||---------------------||
||o-------------------o||-||o-------------------o||
||---0-0-0-0-0-0-------||-||---0-0-0-0-0-0-------||


     TP                        TP
     W                         W
||--15-----------------||-||---------------------||
||o-------------------o||-||o-17----------------o||
||---------------------||-||---------------------||
||---------------------||-||---------------------||
||o-------------------o||-||o-------------------o||
||---------------------||-||---------------------||
|
|    PM--------|               PM--------|
|    S S E S S E H             S S E S S E H
||---------------------||-||---------------------||
||o-------------------o||-||o-------------------o||
||---------------------||-||---------------------||
||---------------------||-||---------------------||
||o-------------------o||-||o-------------------o||
||---0-0-0-0-0-0-------||-||---0-0-0-0-0-0-------||


   E.      S  S  S  S  S  S  S  S  S  S  S  S  S
|------------------------------------------------|
|-17\-----16p12----17p12----16p12----15p12----12-|
|---------------14-------14-------14-------14----|
|------------------------------------------------|
|------------------------------------------------|
|------------------------------------------------|
|
|  PM--------------|
|  S  S E     S  S  E     H
|------------------------------------------------|
|------------------------------------------------|
|------------------------------------------------|
|------------------------------------------------|
|------------------------------------------------|
|--0--0-0-----0--0--0----------------------------|


   S  S  S  S  S  S  S  S  S  S  S  S  S  S  S  S
|-------------------------------------------------|
|-15p12----16p12----17p12----16p12----15p12----12-|
|-------14-------14-------14-------14-------14----|
|-------------------------------------------------|
|-------------------------------------------------|
|-------------------------------------------------|
|
|  PM---------------|
|  S  S  E     S  S  E     H
|-------------------------------------------------|
|-------------------------------------------------|
|-------------------------------------------------|
|-------------------------------------------------|
|-------------------------------------------------|
|--0--0--0-----0--0--0----------------------------|


   S  S  S  S  S  S  S  S  S  S  S  S  S  S  S  S
|-------------------------------------------------|
|-15p12----16p12----17p12----16p12----15p12----12-|
|-------14-------14-------14-------14-------14----|
|-------------------------------------------------|
|-------------------------------------------------|
|-------------------------------------------------|
|
|  PM---------------|
|  S  S  E     S  S  E     H
|-------------------------------------------------|
|-------------------------------------------------|
|-------------------------------------------------|
|-------------------------------------------------|
|-------------------------------------------------|
|--0--0--0-----0--0--0----------------------------|


   S  S  S  S  S  S  S  S  S  S  S  S  S  S  E
|----------------------------------------------|
|-15p12----16p12----17p12----16p12----15p12----|
|-------14-------14-------14-------14-------14-|
|----------------------------------------------|
|----------------------------------------------|
|----------------------------------------------|
|
|  PM---------------|
|  S  S  E     S  S  E     H
|----------------------------------------------|
|----------------------------------------------|
|----------------------------------------------|
|----------------------------------------------|
|----------------------------------------------|
|--0--0--0-----0--0--0-------------------------|


     |---3---|        |---3---|        |--3--|        |--3--|
     S  S    S  S  S  S  S    S  S  S  S  S  S  S  S  S  S  S  S  S
||--12h17p==12----12-12h17p==12----12-12h17p12----12-12h17p12----12-|
||o------------15---------------15-------------15-------------15----|
||------------------------------------------------------------------|
||------------------------------------------------------------------|
||o-----------------------------------------------------------------|
||------------------------------------------------------------------|
|
|    PM-------------------------|
|    S    S     E     S    S     E     H
||------------------------------------------------------------------|
||o-----------------------------------------------------------------|
||------------------------------------------------------------------|
||------------------------------------------------------------------|
||o-----------------------------------------------------------------|
||---0----0-----0-----0----0-----0----------------------------------|


   |---3---|        |---3---|        |--3--|        |--3--|
   S  S    S  S  S  S  S    S  S  S  S  S  S  S  S  S  S  S  S  S
|-12h17p==12----12-12h17p==12----12-12h17p12----12-12h17p12----12---||
|------------15---------------15-------------15-------------15-----o||
|-------------------------------------------------------------------||
|-------------------------------------------------------------------||
|------------------------------------------------------------------o||
|-------------------------------------------------------------------||
|
|  PM-------------------------|
|  S    S     E     S    S     E     H
|-------------------------------------------------------------------||
|------------------------------------------------------------------o||
|-------------------------------------------------------------------||
|-------------------------------------------------------------------||
|------------------------------------------------------------------o||
|--0----0-----0-----0----0-----0------------------------------------||


   Q           +H.                          +W
|-17b19-------(17)-----------------------|-(17)-------------------------------|
|----------------------------------------|------------------------------------|
|----------------------------------------|------------------------------------|
|----------------------------------------|------------------------------------|
|----------------------------------------|------------------------------------|
|----------------------------------------|------------------------------------|
|
|  PM-----------------------------------------------------------------------|
|  S    S S S   S  S S S S S S S S S S S     S  S S S S S S S S S S S S S S S
|----------------------------------------|------------------------------------|
|----------------------------------------|------------------------------------|
|----------------------------------------|------------------------------------|
|----------------------------------------|------------------------------------|
|----------------------------------------|------------------------------------|
|--7----7-7-7---7--7-7-7-7-7-7-7-7-7-7-7-|---6--6-6-6-6-6-6-6-5-5-5-5-3-3-3-3-|


  W                                 W
|---------------------------------|---------------------------------|
|---------------------------------|---------------------------------|
|---------------------------------|---------------------------------|
|---------------------------------|---------------------------------|
|---------------------------------|---------------------------------|
|---------------------------------|---------------------------------|
|
| PM--------------------------------------------------------------|
| S S S S S S S S S S S S S S S S   S S S S S S S S S S S S S S S S
|---------------------------------|---------------------------------|
|---------------------------------|---------------------------------|
|---------------------------------|---------------------------------|
|---------------------------------|---------------------------------|
|---------------------------------|---------------------------------|
|-7-7-7-7-7-7-7-7-7-7-7-7-7-7-7-7-|-6-6-6-6-6-6-6-6-5-5-5-5-3-3-3-3-|


 Wah-Lead
  TP                 TP  TPTP  TPTPTPTPTP
  W                  E   E E   E E E E E
|------------------|---------------------|
|------------------|---------------------|
|------------------|---------------------|
|------------------|-----------7-6-7-9-7-|
|-7----------------|-8---7-7-------------|
|------------------|---------------------|
|
| PM--------|        PM--------|
| S S E S S E H      S S E S S E H
|------------------|---------------------|
|------------------|---------------------|
|------------------|---------------------|
|------------------|---------------------|
|------------------|---------------------|
|-0-0-0-0-0-0------|-0-0-0-0-0-0---------|


   TP  TPTP   TPTPTP TPTP  TP   TP TP  TP TP TP TP TP
   E   E E    E E E  E E   E    E  E   E  E  E  E  E
|------------------------|---------------------------|
|------------------------|-9------10---9-12-10-13-12-|
|--------7------9-7-10-9-|-----10--------------------|
|-10---9-----10----------|---------------------------|
|------------------------|---------------------------|
|------------------------|---------------------------|
|
|  PM--------|             PM----------|
|  S S E S S  E H          S S  E  S S E  H
|------------------------|---------------------------|
|------------------------|---------------------------|
|------------------------|---------------------------|
|------------------------|---------------------------|
|------------------------|---------------------------|
|--0-0-0-0-0--0----------|-0-0--0--0-0-0-------------|


   ~~~~~~~~~~~~~~~~~~~~~~~~~~~~~~~~~~~~~~~~~~~~~~~~~~~~~~~~~~~~~~~~~~~
   Q        Q        Q        Q          Q        Q        Q        Q
|-------------------------------------|-------------------------------------|
|-------------------------------------|-------------------------------------|
|-16-------16-------16-------16-------|-16-------16-------16-------16-------|
|-------------------------------------|-------------------------------------|
|-------------------------------------|-------------------------------------|
|-------------------------------------|-------------------------------------|
|
|  PM---------------------------------------------------------------------|
|  S S S S  S S S S  S S S S  S S S S    S S S S  S S S S  S S S S  S S S S
|-------------------------------------|-------------------------------------|
|-------------------------------------|-------------------------------------|
|-------------------------------------|-------------------------------------|
|-------------------------------------|-------------------------------------|
|-------------------------------------|-------------------------------------|
|--7-7-7-7--7-7-7-7--7-7-7-7--7-7-7-7-|--6-6-6-6--6-6-6-6--5-5-5-5--3-3-3-3-|


   ~~~~~~~~~~~~~~~~~~~~~~~~~~~~~~~~~~~~~~~~~~~~~~~~~~~~~~~~~~~~~~~~~~~~~
   Q        Q        Q        Q          Q        Q        Q         Q
|-------------------------------------|---------------------------------------|
|-------------------------------------|---------------------------------------|
|-16-------16-------16-------16-------|-16-------16-------16-------[16]-------|
|-------------------------------------|---------------------------------------|
|-------------------------------------|---------------------------------------|
|-------------------------------------|---------------------------------------|
|
|  PM-----------------------------------------------------------------------|
|  S S S S  S S S S  S S S S  S S S S    S S S S  S S S S  S S S S   S  S S S
|-------------------------------------|---------------------------------------|
|-------------------------------------|---------------------------------------|
|-------------------------------------|---------------------------------------|
|-------------------------------------|---------------------------------------|
|-------------------------------------|---------------------------------------|
|--7-7-7-7--7-7-7-7--7-7-7-7--7-7-7-7-|--6-6-6-6--6-6-6-6--5-5-5-5---3--3-3-3-|


   ~~~~~~~~~~~~~~~~~~~~~~~~~~~~~                ~~~~~~~
   |--------3---------|       |--------3--------|
   Q       Q          Q       Q       Q         Q
|-----------------------------------------------------|
|-----------------------------------------------------|
|-16-----[16]-------[16]-----16-----[16]-------16-----|
|-----------------------------------------------------|
|-----------------------------------------------------|
|-----------------------------------------------------|
|
|  PM--------------------------------------------------
|  S S S      S S S      S S  S S S      S S S    S S
|-----------------------------------------------------|
|-----------------------------------------------------|
|-----------------------------------------------------|
|-----------------------------------------------------|
|-----------------------------------------------------|
|--7-7-7------7-7-7------7-7--7-7-7------7-7-7----7-7-|


 ~~~~~~~~~~~~~~~~~~~~~~~~~~~~~~~~~~~~~~~~~~~~~~~
            |--------3---------|
   Q        Q       Q          Q       E     E
|-------------------------------------------------|
|-------------------------------------------------|
|-16-------16-----[16]-------[16]-----16---[16]---|
|-------------------------------------------------|
|-------------------------------------------------|
|-------------------------------------------------|
|
|-----------------------------------------------|
|  S S S S  S S S      S S S      S S  S S   S  S
|-------------------------------------------------|
|-------------------------------------------------|
|-------------------------------------------------|
|-------------------------------------------------|
|-------------------------------------------------|
|--6-6-6-6--6-6-6------6-5-5------5-5--3-3---3--3-|


   TP           TP      TP           TP
   H            H       H            H
|-20-----------19----|-17-----------16----|
|--------------------|--------------------|
|--------------------|--------------------|
|--------------------|--------------------|
|--------------------|--------------------|
|--------------------|--------------------|
|
|  PM--------|          PM--------|
|  S S E S S E  H       S S E S S E  H
|--------------------|--------------------|
|--------------------|--------------------|
|--------------------|--------------------|
|--------------------|--------------------|
|--------------------|--------------------|
|--0-0-0-0-0-0-------|--0-0-0-0-0-0-------|


                              (G5(F#5(F5)
   TP           TP      TP        TP
   H            H       H         H
|--------------------|------------------|
|-18-----------17----|-15--------13-----|
|--------------------|------------------|
|--------------------|------------------|
|--------------------|------------------|
|--------------------|------------------|
|
|  PM--------|          PM--|
|  S S E S S E  H       S S E Q   Q  Q
|--------------------|------------------|
|--------------------|------------------|
|--------------------|------------------|
|--------------------|------------------|
|--------------------|--------5---4--3--|
|--0-0-0-0-0-0-------|--0-0-0-3---2--1--|


   TP           TP      TP           TP
   H            H       H            H
|--------------------|--------------------|
|-12-----------------|--------------------|
|--------------14----|-13-----------10----|
|--------------------|--------------------|
|--------------------|--------------------|
|--------------------|--------------------|
|
|  PM--------|          PM--------|
|  S S E S S E  H       S S E S S E  H
|--------------------|--------------------|
|--------------------|--------------------|
|--------------------|--------------------|
|--------------------|--------------------|
|--------------------|--------------------|
|--0-0-0-0-0-0-------|--0-0-0-0-0-0-------|


                            (G5(F#(F5)
  TP          TP      TP       TP
  H           H       H        H
|------------------|-----------------|
|------------------|-----------------|
|-9-----------7----|-----------------|
|------------------|-10--------9-----|
|------------------|-----------------|
|------------------|-----------------|
|
| PM--------|         PM--|
| S S E S S E H       S S E Q  Q  Q
|------------------|-----------------|
|------------------|-----------------|
|------------------|-----------------|
|------------------|-----------------|
|------------------|--------5--4--3--|
|-0-0-0-0-0-0------|--0-0-0-3--2--1--|


  TP          TP     TP          TP
  H           H      H           H
|------------------|------------------|
|------------------|------------------|
|------------------|------------------|
|-7-----------6----|------------------|
|------------------|-8-----------7----|
|------------------|------------------|
|
| PM--------|        PM--------|
| S S E S S E H      S S E S S E H
|------------------|------------------|
|------------------|------------------|
|------------------|------------------|
|------------------|------------------|
|------------------|------------------|
|-0-0-0-0-0-0------|-0-0-0-0-0-0------|


                           (G5(F#(F5)
  TP          TP     TP       TP
  H           H      H        H
|------------------|----------------|
|------------------|----------------|
|------------------|----------------|
|------------------|----------------|
|-5-----------3----|-2--------0-----|
|------------------|----------------|
|
| PM--------|        PM--|
| S S E S S E H      S S E Q  Q  Q
|------------------|----------------|
|------------------|----------------|
|------------------|----------------|
|------------------|----------------|
|------------------|-------5--4--3--|
|-0-0-0-0-0-0------|-0-0-0-3--2--1--|


  TP          TP     TP    TP    TP TP
  H           H      Q     Q     Q  Q
|------------------|-------------------|
|------------------|-------------------|
|------------------|-------------------|
|------------------|-------------------|
|------------------|-------------------|
|-4-----------1----|-0-----1-----2--3--|
|
| PM--------|        PM--------|
| S S E S S E H      S S E S S E H
|------------------|-------------------|
|------------------|-------------------|
|------------------|-------------------|
|------------------|-------------------|
|------------------|-------------------|
|-0-0-0-0-0-0------|-0-0-0-0-0-0-------|


                            (G5(F#5(F5)
  TP    TP    TP TP   TP    TP  TP  TP
  Q     Q     Q  Q    Q     Q   Q   Q
|-------------------|------------------||
|-------------------|------------------||
|-------------------|------------------||
|-------------------|------------------||
|-------------------|------------------||
|-4-----5-----6--7--|-8-----9--10--11--||
|
| PM--------|         PM--|
| S S E S S E H       S S E Q   Q   Q
|-------------------|------------------||
|-------------------|------------------||
|-------------------|------------------||
|-------------------|------------------||
|-------------------|-------5---4---3--||
|-0-0-0-0-0-0-------|-0-0-0-3---2---1--||


 Outro
  Q=115
  (E5)     Em/B      Em/Bb      Em/A
  Gtr I
   E E E E E E E E     E  E E E E E E E
|------------------|--------------------|
|------------------|--------------------|
|------------------|--------------------|
|------5-------5---|--------5-------5---|
|----7---7---7---7-|------7---7---7---7-|
|--0-------7-------|---6--------5-------|
|
|  W                  +W
|------------------|--------------------|
|------------------|--------------------|
|------------------|--------------------|
|------------------|--------------------|
|--2---------------|--(2)---------------|
|--0---------------|--(0)---------------|
|
| Gtr IV
|  W                  +W
|------------------|--------------------|
|------------------|--------------------|
|------------------|--------------------|
|------------------|--------------------|
|------------------|--------------------|
|-12---------------|-(12)---------------|


  Em         Em/B      Em/Bb      Em/A
    E  E E E E E E E     E  E E E E E E E
|--------------------|--------------------|
|--------------------|--------------------|
|--------------------|--------------------|
|--------5-------5---|--------5-------5---|
|------7---7---7---7-|------7---7---7---7-|
|---0--------7-------|---6--------5-------|
|
|  +W                   +W
|--------------------|--------------------|
|--------------------|--------------------|
|--------------------|--------------------|
|--------------------|--------------------|
|--(2)---------------|--(2)---------------|
|--(0)---------------|--(0)---------------|
|
|                        >
|  +W                   +W
|--------------------|--------------------|
|--------------------|--------------------|
|--------------------|--------------------|
|--------------------|--------------------|
|--------------------|--------------------|
|-(12)---------------|-(12)---------------|


  Em      Em/B      Em/Bb   Em/A      Em      Em/B          (G5)(F#5(F5)
  E E E E E E E E   E E E E E E E E   E E E E E E E E   E E E E E E E E
|-----------------|-----------------|-----------------|-----------------|
|-----------------|-----------------|-----------------|-----------------|
|-----------------|-----------------|-----------------|-----------------|
|-----5-------5---|-----5-------5---|-----5-------5---|-------0---0---0-|
|---7---7---7---7-|---7---7---7---7-|---7---7---7---7-|---7-------------|
|-0-------7-------|-6-------5-------|-0-------7-------|-6---3---2---1---|
|
| W                 W                 W                 Q   Q   Q   Q
|-----------------|-----------------|-----------------|-----------------|
|-----------------|-----------------|-----------------|-----------------|
|-----------------|-----------------|-----------------|-----------------|
|-----------------|-----------------|-----------------|-----------------|
|-----------------|-----------------|-----------------|-----5---4---3---|
|-----------------|-----------------|-----------------|-----3---2---1---|


    Em      (E5)Em/B        Em/Bb     Em/A
    E   E   E E  E  E E E    E  E E E E E E E
||------------------------|-------------------|
||o-----------------------|-------------------|
||------------------------|-------------------|
||----------5---------5---|-------5-------5---|
||o-----7-----7-----7---7-|-----7---7---7---7-|
||--0------------7--------|--6--------5-------|
|
|   PM----|
|   |--3--|
|   E E   E Q   +H          +W
||------------------------|-------------------|
||o-----------------------|-------------------|
||------------------------|-------------------|
||------------------------|-------------------|
||o---------2---(2)-------|-(2)---------------|
||--0-0---0-0---(0)-------|-(0)---------------|


  Em        Em/B          (G5)(F#5(F5)
   E  E E E E E E E   E E E E E E E E
|-------------------|-------------------||
|-------------------|------------------o||
|-------------------|-------------------||
|-------5-------5---|-------0---0---0---||
|-----7---7---7---7-|---7--------------o||
|--0--------7-------|-6---3---2---1-----||
|
| +W                  Q   Q   Q   Q
|-------------------|-------------------||
|-------------------|------------------o||
|-------------------|-------------------||
|-------------------|-------------------||
|-(2)---------------|-----5---4---3----o||
|-(0)---------------|-----3---2---1-----||


    Em      (E5)Em/B              (G5)(F#5(F5)
    E   E   E E  E  E E E    E  E E E E E E E
||------------------------|-------------------|
||o-----------------------|-------------------|
||------------------------|-------------------|
||----------5---------5---|---------0---0---0-|
||o-----7-----7-----7---7-|-----7-------------|
||--0------------7--------|--6----3---2---1---|
|
|   PM----|
|   |--3--|
|   E E   E Q   +H          +Q    Q   Q   Q
||------------------------|-------------------|
||o-----------------------|-------------------|
||------------------------|-------------------|
||------------------------|-------------------|
||o---------2---(2)-------|-(2)---5---4---3---|
||--0-0---0-0---(0)-------|-(0)---3---2---1---|


  Em      (E5)Em/B              (G5)(F#5(F5)
  E   E   E E  E  E E E    E  E E E E E E E
|-----------------------|---------------------||
|-----------------------|--------------------o||
|-----------------------|---------------------||
|---------5---------5---|---------0---0---0---||
|-----7-----7-----7---7-|-----7--------------o||
|-0------------7--------|--6----3---2---1-----||
|
| PM----|
| |--3--|
| E E   E Q   +H          +Q    Q   Q   Q
|-----------------------|---------------------||
|-----------------------|--------------------o||
|-----------------------|---------------------||
|-----------------------|---------------------||
|---------2---(2)-------|-(2)---5---4---3----o||
|-0-0---0-0---(0)-------|-(0)---3---2---1-----||


   Fade Out
    Em      (E5)Em/B              (G5)(F#5(F5)
    E   E   E E  E  E E E    E  E E E E E E E
||------------------------|-------------------|
||o-----------------------|-------------------|
||------------------------|-------------------|
||----------5---------5---|---------0---0---0-|
||o-----7-----7-----7---7-|-----7-------------|
||--0------------7--------|--6----3---2---1---|
|
|   PM----|
|   |--3--|
|   E E   E Q   +H          +Q    Q   Q   Q
||------------------------|-------------------|
||o-----------------------|-------------------|
||------------------------|-------------------|
||------------------------|-------------------|
||o---------2---(2)-------|-(2)---5---4---3---|
||--0-0---0-0---(0)-------|-(0)---3---2---1---|


  Em      (E5)Em/B              (G5)(F#5(F5)
  E   E   E E  E  E E E    E  E E E E E E E   4x
|-----------------------|---------------------||
|-----------------------|--------------------o||
|-----------------------|---------------------||
|---------5---------5---|---------0---0---0---||
|-----7-----7-----7---7-|-----7--------------o||
|-0------------7--------|--6----3---2---1-----||
|
| PM----|
| |--3--|
| E E   E Q   +H          +Q    Q   Q   Q     4x
|-----------------------|---------------------||
|-----------------------|--------------------o||
|-----------------------|---------------------||
|-----------------------|---------------------||
|---------2---(2)-------|-(2)---5---4---3----o||
|-0-0---0-0---(0)-------|-(0)---3---2---1-----||



Duration Legend
---------------
W - whole; H - half; Q - quarter; E - 8th; S - 16th; T - 32nd; X - 64th; a - acciaccatura
+ - note tied to previous; . - note dotted; .. - note double dotted
Uncapitalized letters represent notes that are staccato (1/2 duration)
Irregular groupings are notated above the duration line
Duration letters will always appear directly above the note/fret number it represents the
duration for.  Duration letters with no fret number below them represent rests.  Multi-
bar rests are notated in the form Wxn, where n is the number of bars to rest for.  Low
melody durations appear below the staff

Tablature Legend
----------------
 h   - hammer-on
 p   - pull-off
 b   - bend
 pb  - pre-bend
 r   - bend release (if no number after the r, then release immediately)
 /\  - slide into or out of (from/to "nowhere")
 s   - legato slide
 S   - shift slide
 - natural harmonic
[n]  - artificial harmonic
n(n) - tapped harmonic
 ~   - vibrato
 tr  - trill
 T   - tap
 TP  - trem. picking
 PM  - palm muting
\n/  - tremolo bar dip; n = amount to dip
 \n  - tremolo bar down
 n/  - tremolo bar up
/n\  - tremolo bar inverted dip
 =   - hold bend; also acts as connecting device for hammers/pulls
 <> - volume swell (louder/softer)
 x   - on rhythm slash represents muted slash
 o   - on rhythm slash represents single note slash

Misc Legend
-----------
 |  - bar
||  - double bar
||o - repeat start
o|| - repeat end
*|  - double bar (ending)
 :  - bar (freetime)
 $  - Segno
 &  - Coda
Tempo markers -  = BPM(8/16=s8/s16), where s8 = swing 8ths, s16 = swing 16ths

comments
We did not receive enough feedback on this tab! Please rate:
1 2 3 4 5
I want to post or [tab]
guest
You may want to rate the tab now too:
select rating
Please do not post tabs as comments. Select "correction" instead!