Oops, an error
Loading. Please wait.

World Needs A Hero Tab

ver1
ver1

Album

Whole song

More versions @911Tabs.com
6,819 views 6 this week
no commentswrite comment
1 2 3 4 5
accurate
x 3
Autoscroll
+/-
esc
set tempo
stop
Contributor
Hey! There's an official Ultimate Guitar app which is ideal
for learning songs when you're away from computer. Get the app
WARNING: You are trying to view
                                    content from Ultimate-Guitar.com
                                    in an unauthorized application,
                                    which is prohibited.

                                    Please use an official Ultimate
                                    Guitar Tabs application for iPhone,
                                    iPad or Android to access legitimate
                                    chords, guitar, bass, and drum tabs
                                    from Ultimate-Guitar.com database.

                                    Type "ultimate guitar tabs" in Apple
                                    App Store's or Android Market's
                                    search to find the application.
Band- Megadeth
Album- The World Needs A Hero

1.DISCONNECT

Tuning: Standard

Riff 1
e|----------------------------------|
B|----------------------------------|
G|----------------------------------|
D|-----5-----4-------2----------4-5-|
A|---7-----5-----3~-----------6-----|
E|-0-----0-----0-------0-/7~--------|
   *     *     *       *
Final time
e|----------------------------------|
B|----------------------------------|
G|----------------------------------|
D|-----5-----4-------2--------------|
A|---7-----5-----3~-----------------|
E|-0-----0-----0-------0-/7~--6-5-3-|
   *     *     *       *


Riff 2                               x3
e|------------------------------------|
B|------------------------------------|
G|------------------------------------|
D|------------------------------------|
A|-----9----7-----9----7---------10-9-|
E|-0-0---10---0-0---10---0-0-7-8------|
   * *        * *        * *
  "Behind closed doors..."
e|------------------------------------|
B|------------------------------------|
G|------------------------------------|
D|------------------------------------|
A|-----9----7-----9----7-----------10-|
E|-0-0---10---0-0---10---0-0-7--8-----|
   * *        * *        * *
  "...shaking..."


Riff 3
e|-------------------------------|
B|-------------------------------|
G|-------------------------------|
D|-2-----------------------------|
A|-0-0-3p0-0-5p0-0-3p0-0-5p0-6p0-|
E|-------------------------------|

e|----------------------------------|
B|----------------------------------|
G|----------------------------------|
D|-2--------------------------------|
A|-0--0-3p0-0-5p0-0-3p0-0-6p0-5p0-2-|
E|--------------------------------0-|


Riff 1a
e|----------------------------------|
B|----------------------------------|
G|----------------------------------|
D|-----5-----4-------2----------4-5-|
A|---7-----5-----3~-----------6-----|
E|-0-----0-----0-------0-/7~--------|
   *     *     *       *
  "Turn off your conscious..."

Final time
e|--------------------------------|
B|--------------------------------|
G|--------------------------------|
D|-----5-----4-------2------------|
A|---7-----5-----3~--------/6-5-4-|
E|-0-----0-----0-------0-0-/7-6-5-|
   *     *     *       * *
  "...that anything's real..."


Play Riff 2  "The key to save..."
Play Riff 3
Play Riff 4  "Turn off your conscious..."


Lead into next section:
e|------------------------------------------|
B|------------------------------------------|
G|------------------------------------------|
D|------------------------------------------|
A|-2-[let ring]----------------2-[let ring]-|
E|-0---------------------------0------------|


Solo Rhythm:  Riffs 4, 5, 6, 6a

Riff 4 (Solo Rhythm)       (Play 2x)
e|---------------------------------|
B|---------------------------------|
G|---------------------------------|
D|---------------------------------|
A|---------------------------------|
E|-0-0-0-0-0-0-0-0-7-7-7-7-7-7-7-7-|
   * * * * * * * * * * * * * * * *
e|---------------------------------|
B|---------------------------------|
G|---------------------------------|
D|---------------------------------|
A|-7-7-7-7-7-7-7-7-6-6-6-6-6-6-6-6-|
E|-8-8-8-8-8-8-8-8-7-7-7-7-7-7-7-7-|
   * * * * * * * * * * * * * * * *
e|---------------------------------|
B|---------------------------------|
G|---------------------------------|
D|---------------------------------|
A|-------------------------------2-|
E|-0-0-0-0-0-0-0-0-0-2-3-5-2-3-5---|
   * * * * * * * * * * * * * * * *
e|---------------------------------|
B|---------------------------------|
G|---------------------------------|
D|---------------------------------|
A|-3-3-3-3-3-3-3-2-3-2-----2-------|
E|---------------------5-3---5-3-2-|
   * * * * * * * * * * * * * * * *


Riff 5 (Solo Rhythm)                (Play 2x)
e|-------------------------------------------|
B|-------------------------------------------|
G|-------------------------------------------|
D|-/9-9-9-9-9-9-9-9-/12-12-12-12-12-12-12-12-|
A|-/7-7-7-7-7-7-7-7-/10-10-10-10-10-10-10-10-|
E|-------------------------------------------|

e|---------------------------------|
B|---------------------------------|
G|---------------------------------|
D|-5-5-5-5-5-5-5-5-1-1-1-1-1-1-1-1-|
A|-3-3-3-3-3-3-3-3-2-2-2-2-2-2-2-2-|
E|---------------------------------|

e|---------------------------------|
B|---------------------------------|
G|---------------------------------|
D|-----------------5-5-5-5-5-5-5-5-|
A|-----------------2-2-2-2-2-2-2-2-|
E|-0-0-0-0-0-0-0-0-----------------|
   * * * * * * * *
e|---------------------------------|
B|---------------------------------|
G|---------------------------------|
D|-2-2-2-2-2-2-2-2-1-1-1-1-1-1-1-1-|
A|-3-3-3-3-3-3-3-3-2-2-2-2-2-2-2-2-|
E|---------------------------------|


Riff 6 (Solo Rhythm)       (Play 3x)
e|---------------------------------|
B|---------------------------------|
G|---------------------------------|
D|---------------------------------|
A|-------------------------------2-|
E|-0-0-0-0-0-0-0-0-0-2-3-5-2-3-5---|
   * * * * * * * * * * * * * * * *
e|---------------------------------|
B|---------------------------------|
G|---------------------------------|
D|---------------------------------|
A|-3-3-3-3-3-3-3-2-3-2-----2-------|
E|---------------------5-3---5-3-2-|
   * * * * * * * * * * * * * * * *

Riff 6a (Solo Rhythm)
e|---------------------------------|
B|---------------------------------|
G|---------------------------------|
D|---------------------------------|
A|-------------------------------2-|
E|-0-0-0-0-0-0-0-0-0-2-3-5-2-3-5---|
   * * * * * * * * * * * * * * * *
e|---------------------------------|
B|---------------------------------|
G|---------------------------------|
D|---------------------------------|
A|-3-3-3-5-3-3-3-2-3-2-----2-------|
E|---------------------5-3---5-3-2-|
   * * * * * * * * * * * * * * * *


Solo (Mustaine)
e|-------------------------------|
B|-12---------12----14-12--------|
G|-12---------12----14-12--------|
D|-------14~~----14--------14~~\-|
A|-------------------------------|
E|-------------------------------|

e|------------------------------------------|
B|------------------------------------------|
G|-------------------------------------0tr2-|
D|-9-12-9-10----9---------------------------|
A|-----------12------10-8-7~~-7\------------|
E|----------------10--------------X\\-------|

e|----------------------------------|
B|----------------------------------|
G|-/9~---(9)\--/8----6-8--9--/11--9-|
D|-------------/9----7-9-10--/12-10-|
A|----------------------------------|
E|----------------------------------|

e|-------12-----------------------------------|
B|-----12---15-12-----------------------------|
G|-/14------------15-15-12----14-12^----------|
D|-------------------------14--------14-12-14-|
A|--------------------------------------------|
E|--------------------------------------------|

e|-------------------------|
B|-------------------------|
G|--12b14---(14)r12-12~~~~-|
D|-------------------------|
A|-------------------------|
E|-------------------------|

Note: Play the following finger-tap section twice.
                                  x2
e|-15t12p0-15t12p0-15t12p0-15t12p0-|
B|---------------------------------|
G|---------------------------------|
D|---------------------------------|
A|---------------------------------|
E|---------------------------------|
                                  x2
e|-14t10p0-14t10p0-14t10p0-14t10p0-|
B|---------------------------------|
G|---------------------------------|
D|---------------------------------|
A|---------------------------------|
E|---------------------------------|
                              x2
e|-12t8p0-12t8p0-12t8p0-12t8p0-|
B|-----------------------------|
G|-----------------------------|
D|-----------------------------|
A|-----------------------------|
E|-----------------------------|
                              x2
e|-11t7p0-11t7p0-11t7p0-11t7p0-|
B|-----------------------------|
G|-----------------------------|
D|-----------------------------|
A|-----------------------------|
E|-----------------------------|
                                  x2
e|-15t12p0-15t12p0-15t12p0-15t12p0-|
B|---------------------------------|
G|---------------------------------|
D|---------------------------------|
A|---------------------------------|
E|---------------------------------|
                                  x2
e|-19t15p0-19t15p0-19t15p0-19t15p0-|
B|---------------------------------|
G|---------------------------------|
D|---------------------------------|
A|---------------------------------|
E|---------------------------------|
                                  x2
e|-20t15p0-20t15p0-20t15p0-20t15p0-|
B|---------------------------------|
G|---------------------------------|
D|---------------------------------|
A|---------------------------------|
E|---------------------------------|
                                  x2
e|-19t14p0-19t14p0-19t14p0-19t14p0-|
B|---------------------------------|
G|---------------------------------|
D|---------------------------------|
A|---------------------------------|
E|---------------------------------|

Final note
e|-12~~\-|
B|-------|
G|-------|
D|-------|
A|-------|
E|-------|

e|----------------------------------------|
B|-12-12^----14-12------------------------|
G|-12-12^----14-12-12-------12------------|
D|--------14-------14-12-14----14~--(14)\-|
A|----------------------------------------|
E|----------------------------------------|

e|-[17]20--(20)r19-[17]18-[17]18-[17]17^-[17]17^-17-17-15~\-|
B|----------------------------------------------------------|
G|----------------------------------------------------------|
D|----------------------------------------------------------|
A|----------------------------------------------------------|
E|----------------------------------------------------------|

e|---------12---------------------------|
B|-------12---15b17-15b17-15b17-15b17~~-|
G|-14b15--------------------------------|
D|--------------------------------------|
A|--------------------------------------|
E|--------------------------------------|

e|----------------------------------|
B|-12-15-12-13----12----------------|
G|-------------14----12--14---------|
D|--------------------------12-14~\-|
A|----------------------------------|
E|----------------------------------|

End Solo


Play Riff 2


Riff 2a                              x7
e|------------------------------------|
B|------------------------------------|
G|------------------------------------|
D|------------------------------------|
A|-----9----7-----9----7---------10-9-|
E|-0-0---10---0-0---10---0-0-7-8------|
   * *        * *        * *
  "Turn off your conscious..."

Riff 2b                              x5
e|------------------------------------|-----|
B|------------------------------------|-----|
G|------------------------------------|-----|
D|------------------------------------|-----|
A|-----9----7-----9----7-----------10-|--2--|
E|-0-0---10---0-0---10---0-0-7--8-----|--0--|
   * *        * *        * *
  "Turn off your conscious..."


Ending solos (Pitrelli)
#1
e|----------------------------------------|
B|----------------------------------------|
G|-[14]15r14^---(14^)b15~~~----14p12-14~\-|
D|---------------------a------------------|
A|----------------------------------------|
E|----------------------------------------|

e|--------------------------------------|
B|-------7-8-7h8p7----------------------|
G|----9------------9-7------------------|
D|-/9------------------/7-5-7p5-7/9~~~\-|
A|--------------------------------------|
E|--------------------------------------|


#2
e|-------------6-7p6------------------|
B|-7h8p7---7-8-------7p5-8p7----------|
G|-------9-------------------9p7------|
D|-------------------------------10p9-|
A|------------------------------------|
E|------------------------------------|

e|--------------------------------|
B|-----------------------------0--|
G|-7p5-------------------------0--|
D|-----7p5-9p7--------------------|
A|-------------10p9---------------|
E|------------------12p11-12\-----|


#3
e|-17-12----------------------------------|
B|------15-12----12-----------------------|
G|------------15----15-14-13----14----12~-|
D|---------------------------14----14-----|
A|----------------------------------------|
E|----------------------------------------|

e|----------------------------------------------------|
B|----------------------------------------------------|
G|-------------11----11/14-15-16p15-16p15-14----------|
D|-14-12-13-14----14-------------------------17-16-14-|
A|----------------------------------------------------|
E|----------------------------------------------------|

                    x6
e|-------------------|--------------------------|
B|-------------------|--------------------22b24-|
G|-16p15p14----------|-16p15p14-----20/22-------|
D|----------17p16p14-|----------17/-------------|
A|-------------------|--------------------------|
E|-------------------|--------------------------|

e|-------------------------------------|
B|--22b23-22b24-[22]23~--22b24-20------|
G|--------------------------------21~\-|
D|-------------------------------------|
A|-------------------------------------|
E|-------------------------------------|

                                                      x3
e|-15-15-15-----14-14-14-----12-12-12-----10-10-10-----|
B|-17-17-17-...-15-15-15-...-13-13-13-...-12-12-12-...-|
G|-----------------------------------------------------|
D|-----------------------------------------------------|
A|-----------------------------------------------------|
E|-----------------------------------------------------|

e|-15-15-15-----14-14-14--------17-17-17-17-17-----|
B|-17-17-17-...-15-15-15-...-15----15-15-15-15-...-|
G|-------------------------------------------------|
D|-------------------------------------------------|
A|-------------------------------------------------|
E|-------------------------------------------------|

e|-------|
B|-------|
G|--16\--|
D|-------|
A|-------|
E|-------|

End solo

2.THE WORLD NEEDS A HERO

Riff 1
|---------------------------|
|---------------------------|
|---------------------------|
|---------------------------|
|---------------------------|
|-0000----------------------|
  ****
repeat this lots of times.

Riff 2
|---------------------------|
|---------------------------|
|---------------------------|
|-7-7--7-8-5-6-7-7--7-8-7-5-|
|-5-5--5-6-3-4-5-5--5-6-5-3-|
|---------------------------|

Riff 3
|---------------------------------|
|---------------------------------|
|---------------------------------|
|----0---0-00---------0-2-3-3-2-0-|
|-0h2—0h2-----2-0-0h2-------------|
|---------------------------------|

Riff 4
|-----------------------------|
|-----------------------------|
|-----------------------------|
|---------1p0-3p0-4p0-3p0-1p0-|
|-2-----2---------------------|
|-0-000-0---------------------|
    ***

Riff 5
|---------------------------|
|---------------------------|
|---------------------------|
|---------------------------|
|-3-2--3-2-3-2--------------|
|-1p0—-1p0-1p0--------------|

together with this the other guitar does an upwards slide on
the two bottom strings.
Start on
|-2-------------------------|
|-2-------------------------|
|---------------------------|
|---------------------------|
|---------------------------|
|---------------------------|
and then go up. Listen to the song for where to stop.

Now it's solo-time. Unfortunately I can't do solo's. ?

Solo-rhythm is riff 4 and riff 2.

3.COMING HOME

E--------7-------7-------7-------7-------7-------7-------7-------7---
B--8-8-8---8-8-8---7-8-8---7-8-8-----8-8-----8-8---7-8-8---7-8-8-----
G----------------------------------9-------9-------------------------
D--------------------------------------------------------------------
A--------------------------------------------------------------------
E--------------------------------------------------------------------


E--------7-------7-------7-------7-------7-------7-------7-------7---
B--8-8-8---8-8-8---7-8-8---7-8-8-----8-8-----8-8-----8-8-----8-8-----
G----------------------------------9-------9-------8-------8---------
D--------------------------------------------------------------------
A--------------------------------------------------------------------
E--------------------------------------------------------------------


E---------7---------------7----------
B----8-10---10-8-----8-10---10-8-----
G--8-------------8-8-------------8---
D------------------------------------
A------------------------------------
E------------------------------------


E--------3---------2---------1---------0-----
B----------0---------0---------0---------0---
G------2---------2---------2---------2-------
D----2---------2---------2---------2---------
A--0---------0---------0---------0-----------
E--------------------------------------------

4.MOTO PSYCHO

Riff 1                                      3=triplet
|----------------------------------------------------|
|----------------------------------------------------|
|----------------------------------------------------|
|----------------------------------------------------|
|------------------------1---3-1---------------------|8x
|03333-03333-03333-03333---3-------------------------|
 pm..  pm..  pm..  pm..   pm
Riff 2
|----------------------------------------------------|
|----------------------------------------------------|
|8-88-88-8-88-88-8-88-88-8-88-88\--------------------|
|x-xx-xx-x-xx-xx-x-xx-xx-x-xx-xx\--------------------|
|6-66-66-6-66-66-6-66-66-6-66-66\--------------------|
|----------------------------------------------------|
                                                      \
                                                      / Riff 2
|----------------------------------------------------|
|----------------------------------------------------|
|5-55-55-5-55-55-5-55-55-----------------------------|
|x-xx-xx-x-xx-xx-x-xx-xx-7--7------------------------|
|3-33-33-3-33-33-3-33-33-5--5------------------------|
|----------------------------------------------------|

Riff 1 two times over this solo:

|13/\~--15p13-----17^-15-15~---13-15-----------------|
|------------15p13-----------------------------------|
|----------------------------------------------------|
|----------------------------------------------------|
|----------------------------------------------------|
|----------------------------------------------------|

|19p15p13-19p15p13-18p15p13-15h18p15p13--------------|
|----------------------------------------------------|
|----------------------------------------------------|
|----------------------------------------------------|
|----------------------------------------------------|
|----------------------------------------------------|

|131513----------------------------------------------|
|------17151415--------------------------------------|
|--------------1715-------+15~-----------------------|
|------------------1715h17----17p15+17~--------------|
|----------------------------------------------------|
|----------------------------------------------------|

Riff 2

Chorus
|----------------------------------------------------|
|----------------------------------------------------|
|----------------------------------------------------|
|----------------------3-------------------------3---|
|------------3---------1-3-------------3---------1-3-|x2
|3-333-333-331-3-333-33--1-3-333-333-331-3-333-33--1-|

Riff 1, four times
Riff 2

Now this solo over Riff 1 played 2 times- I know, its pretty fuked up.

|----------------------------------------------------|
|----------------------------------------------------|
|----------------------------------------------------|
|13p12p10h12-13p12p10h12-13p12p1013p12p1013p12p10----|
|----------------------------------------------------|
|----------------------------------------------------|

|--------------------------15-15p14p13---------------|
|---------------15-15p14p13-----------15-15p14p13----|
|----14------------------------------------------12~-|
|12-----131210---------------------------------------|
|----------------------------------------------------|
|----------------------------------------------------|
Tremolopicking.

|20-18-15--------------------------------------------|
|---------19-18-15-----------------------------------|
|------------------18-17-15--------------------------|
|---------------------------17-15--------------------|
|---------------------------------17-----------------|
|----------------------------------------------------|

Riff 2
Chorus

Bridge
Gtr 1                                    Riff 3
|----------------------------------------------------|
|--88--88--8--88--88--8--88--88--8-88-88-8-----------|
|12--12--12-11--11--11-10--10--10-9--9--9------------|
|----------------------------------------------------|
|----------------------------------------------------|
|----------------------------------------------------|
                                                      \
Gtr 2                                                 / 3x
|----------------------------------------------------|
|----------------------------------------------------|
|----------------------------------------------------|
|----------------------------------------------------|
|5----------4----------3----------2------------------|
|3----------2----------1----------0------------------|

Gtr 1                                         Riff 4
|----5-7--5---------5-7-5----------------------------|
|--8--------------8-------8--------------------------|
|5-----------5--5------------------------------------|
|----------------------------------------------------|
|----------------------------------------------------|
|----------------------------------------------------|

Gtr 2
|----------------------------------------------------|
|----------------------------------------------------|
|----------------------------------------------------|
|5---------------5-----------------------------------|
|3---------------3-----------------------------------|
|----------------------------------------------------|

First half of Riff 3
Riff 4 again

And then violin, piano, and some guitar samples are put together. Basiclly,
the piano is the base and it does this:
|----------------------------------------------------|
|----------------------------------------------------|
|----------------------------------------------------|
|----------------------------------------------------|
|----------------------------------------------------|
|3----------2-----------0------------2---------------|

then you just do riff four over it with samples and without the distorted Gtr.

5.1000 TIMES GOODBYE

Tunning E A D G B E

Intro: repeat first part X7 then 2nd X1 then 1st X3 then 2nd X1 until verse
|---------------------------------|------------------------------------|
|---------------------------------|------------------------------------|
|---------------------------------|------------------------------------|
|---------------------------------|------------------------------------|
|---------------------------------|-----------------------------5------|
|-0-0-0-0-1-1-1-1-0-0-0-0-4-3-2-1-|-0-0-0-0-1-1-1-1-0-0-0-0-5-6---6-5-3|
pm. . . . . . . . . . . . . . . .   . . . . . . . . . . . .

Verse
|-------------------------------------------------------------------|
|-------------------------------------------------------------------|
|-------------------------------------------------------------------|
|-------------------------------------------------------------------|
|-----5h7-----5h7---------------------5h7-----8p7-----5-------------|
|-0-0-----0-0-----0-0-0-0-0-0-0-0-0-0-----0-0-----5-6---6-5-3-------|
pm. .     . .     . . . . . . . . . .     . .

Pre Chorus 1                Pre Chorus 2
|-------------------------|------------------------------------------|
|-------------------------|------------------------------------------|
|-------------------------|------------------------------------------|
|-2-------4-------6-2-4-5-|------------------------------------------|
|-0-------2-------4-2-4-5-|---------7-8-7---------------5------------|
|---0-1-0---0-1-0---0-2-3-|-0-0-0-0-------0-0-0-0-5-6-7---7-6-5------|
pm  . . .   . . .           . . . .       . . . .

Chorus pt1
|-------------------------|-------------|
|-------------------------|-------------|
|-------------------------|-------------|
|-------------------------|-------------|
|-------4-------2-------0-|-4-4-4-2-4/5-|
|-0-1-2---0-1-2---0-1-2---|-2-2-2-0-2/3-|
pm. . .   . . .   . . .

Chorus pt2
|-------------------------|-------------|
|-------------------------|-------------|
|-------------------------|-------------|
|-------9-------7-------5-|-9-9-9-7-9/10|
|-5-6-7---5-6-7---5-6-7---|-7-7-7-5-7/8-|
|-------------------------|-------------|

6.BURNING BRIDGES

Tuning: Standard

Riff 1
Guitar 1 (w/ pitch shifter)   x2
e|-----------------------------|
B|-------8-------------8-------|
G|-----9----9--------9----9----|
D|---9---------9---9---------9-|
A|-7-------------7-------------|
E|-----------------------------|

e|-----------------------------|
B|-------6-------------6-------|
G|-----7----7--------7----7----|
D|---8---------8---8---------8-|
A|-----------------------------|
E|-6-------------6-------------|
                              x3
e|-----------------------------|
B|-------8-------------8-------|
G|-----9----9--------9----9----|
D|---9---------9---9---------9-|
A|-7-------------7-------------|
E|-----------------------------|

e|-----------------------------|
B|-------6-------------6-------|
G|-----7----7--------7----7----|
D|---8---------8---8---------8-|
A|-----------------------------|
E|-6-------------6-------------|

e|-----------------------------|
B|-------8-------------8-------|
G|-----9----9--------9----9----|
D|---9---------9---9---------9-|
A|-7-------------7-------------|
E|-----------------------------|

Guitar 2 (w/ pitch shifter)
e|---------------------------------------------|
B|---------------------------------------------|
G|-9~----12-9~---12-9/10-9~----12-9~---12-9~---|
D|---------------------------------------------|
A|---------------------------------------------|
E|---------------------------------------------|

e|-------------------------|
B|-------------------------|
G|-\7~----10-7~----10-7/10-|
D|-------------------------|
A|-------------------------|
E|-------------------------|

e|---------------------------------------------|
B|---------------------------------------------|
G|-9~----12-9~---12-9/10-9~----12-9~---12-9/10-|
D|---------------------------------------------|
A|---------------------------------------------|
E|---------------------------------------------|

e|------------------------------------------------|
B|------------------------------------------------|
G|-9~----12-9~---12-9~----\7~----10-7~----10-7/10-|
D|------------------------------------------------|
A|------------------------------------------------|
E|------------------------------------------------|

e|---------------------|
B|---------------------|
G|-9~----12-9~---12-9~-|
D|---------------------|
A|---------------------|
E|---------------------|


Lead into next section:
e|----------|
B|----------|
G|----------|
D|----------|
A|--2----2--|
E|--0----0--|


Riff 2                               x3
e|------------------------------------|
B|------------------------------------|
G|------------------------------------|
D|------------------------------------|
A|-2-2-x--2-2-2-x--2-2-2-x--2---------|
E|-0-0-x--0-0-0-x--0-0-0-x--0-3-2-1-3-|
   * *    * * *    * * *    * * * * *
  "You give up on yourself..."
e|----------------------------|
B|----------------------------|
G|----------------------------|
D|--------------------/7--10--|
A|-2-2-x--2-2-2-x--2--/5---8--|
E|-0-0-x--0-0-0-x--0--/5---8--|
   * *    * * *    *
  "...again..."


Riff 3
Guitar 1 (slighty palm muted)
e|-------------------------------------|
B|-------------------------------------|
G|-------------------------------------|
D|-------------------------------------|
A|-7-7-x--7-7-7-x--7-7-7-x--7-7-7-x--7-|
E|-7-7-x--7-7-7-x--7-7-7-x--7-7-7-x--7-|
  "Due to a lack of interest in you..."
e|-------------------------------------|
B|-------------------------------------|
G|-------------------------------------|
D|-------------------------------------|
A|-8-8-x--8-8-8-x--8-5-5-x--5-6-6-x--6-|
E|-8-8-x--8-8-8-x--8-5-5-x--5-6-6-x--6-|

Guitar 2 (w/ effect and wah pedal)
e|---------------------------------|
B|---------------------------------|
G|---------------------------------|
D|-----9-------9-------9-------9---|
A|---------------------------------|
E|-7-7---7-7-7---7-7-7---7-7-7---7-|

e|----------------------------------|
B|----------------------------------|
G|----------------------------------|
D|-----10------10-------7-------8---|
A|----------------------------------|
E|-8-8----8--8----8-5-5---5-6-6---6-|



Riff 4
e|---------------------------------|
B|---------------------------------|
G|---------------------------------|
D|-----4--------5------4-------5---|
A|---------------------------------|
E|-0-2---2--0-3----0-2---2-0-3-----|

e|-------------------------------|
B|-------------------------------|
G|-------------------------------|
D|-----4--------5-----4----------|
A|---------------------------4/7-|
E|-0-2---2--0-3---0-2---2-0--2/5-|


Riff 5
Guitar 1
e|-------------------------------------|
B|-------------------------------------|
G|-------------------------------------|
D|-----5------7---------9----9-10-9----|
A|-/7----7-/9---9-/10~----10--------10-|
E|-------------------------------------|
  "If you took your own..."
e|----------------------------------|
B|----------------------------------|
G|----------------------------------|
D|-----8---8-9-8-------7---7-9-7----|
A|-9~----9-------9-8~----8-------8\-|
E|----------------------------------|
  "...directions..."

Guitar 2
e|---------------------------------------|
B|---------------------------------------|
G|-/9----7-------------------------------|
D|------------9~----9-8~----8-7~----(7)\-|
A|---------------------------------------|
E|---------------------------------------|



Riff 6
Guitar 1
e|----------------3-2-0-2-3-5-3-------|
B|------------------------------5-4~~-|
G|------------------------------------|
D|-4-5-0-4-----5----------------------|
A|---------2-3------------------------|
E|------------------------------------|

Guitar 2
e|---------------------------------|
B|---------------------------------|
G|---------------------------------|
D|-4-5-0-4-----5-------------------|
A|---------2-3---------------------|
E|----------------3-2-0-2-3-5-3-2--|
                  * * * * * * * *

Guitar 3
e|------------------------------------|
B|----------------5-4---4-5-7-5-------|
G|--------------------5---------5-4~~-|
D|------------------------------------|
A|------------------------------------|
E|------------------------------------|


Play Riff 2  "Don't close your eyes..."
Play Riff 3  "Due to a lack of interest in you..."
Play Riff 4
Play Riff 5  "If you took your own direction..."

Riff 6a
Guitar 1
e|----------------3-2-0-2-3-5-3-2-|
B|--------------------------------|
G|--------------------------------|
D|-4-5-0-4-----5------------------|
A|---------2-3--------------------|
E|--------------------------------|

Guitar 2
e|--------------------------------|
B|--------------------------------|
G|--------------------------------|
D|-4-5-0-4-----5------------------|
A|---------2-3--------------------|
E|----------------3-2-0-2-3-5-3-2-|
                  * * * * * * * *
Guitar 3
e|--------------------------------|
B|----------------5-4---4-5-7-5---|
G|--------------------5---------4-|
D|--------------------------------|
A|--------------------------------|
E|--------------------------------|




Riff 7 (Solo Rhythm)
e|-------------------------|
B|-------------------------|
G|-------------------------|
D|-------------------------|
A|-------------------------|
E|-0-0-0-0-0-0-0-0-0-0-...-|
   * * * * * * * * * *

Solo (Mustaine, play this twice, harmony guitar in () )
e|-(7~--8-7~)-------------------8p7----7------|
B|--7~--8-7~-------7-8-10-8-10------10---10-8-|
G|--------------9-----------------------------|
D|--------------------------------------------|
A|--------------------------------------------|
E|--------------------------------------------|

e|---------------0-8p7----7-------------------|
B|---4~--5--4~---------10---10-8-10p8p7-8p7---|
G|-(11~-12-11~)-----------------------------9-|
D|--------------------------------------------|
A|--------------------------------------------|
E|--------------------------------------------|

e|-------------0-12p11p8-11p8----8---------------|
B|-(4~--5-4~)-----------------12---12p10-12p10p8-|
G|--4~--5-4~-------------------------------------|
D|-----------------------------------------------|
A|-----------------------------------------------|
E|-----------------------------------------------|

e|-7p5----5------------------|
B|-----8----8-7--8p7p5-7p5---|
G|-------------------------8-|
D|---------------------------|
A|---------------------------|
E|---------------------------|
                             Final note
e|---------------------------|-------|
B|-7p5p4-5p4----4------------|-------|
G|-----------5----5-4--5p4---|-------|
D|-------------------------7-|--4~~--|
A|---------------------------|-------|
E|---------------------------|-------|

End Solo


Riff 8 (Solo Rhythm)
e|-------------------------------------------------|
B|-------------------------------------------------|
G|-------------------------------------------------|
D|-------------------------------------------------|
A|-------------------------------------------------|
E|-2-2-2-2-2-2-2-2-2-2-2-2-2-2-2-2-2-2-2-2-2-2-2-2-|
   * * * * * * * * * * * * * * * * * * * * * * * *
e|-------------------------------------------------|
B|-------------------------------------------------|
G|-------------------------------------------------|
D|-------------------------------------------------|
A|-------------------------------------------------|
E|-3-3-3-3-3-3-3-3-3-3-3-3-0-0-0-0-0-0-1-1-1-1-1-1-|
   * * * * * * * * * * * * * * * * * * * * * * * *

Solo (Pitrelli)
e|-------14-------14------------|
B|-17b19----17b19----17b19r17p0-|
G|------------------------------|
D|------------------------------|
A|------------------------------|
E|------------------------------|

e|-------14-------14---------------------------|
B|-17b19----17b19----17b19r17p0-17b19p0-[17]19-|
G|---------------------------------------------|
D|---------------------------------------------|
A|---------------------------------------------|
E|---------------------------------------------|

e|------------------------------------------------|
B|-17p0----17-14h17p14-16b17----16-16b17r16p14-17-|
G|------16----------------------------------------|
D|------------------------------------------------|
A|------------------------------------------------|
E|------------------------------------------------|

e|----------------------------------------------------|
B|-17-16-14--16--14h16p14---0-------------------------|
G|---------17--17--------17---17p16-14----16-14-------|
D|-------------------------------------16-------16-14-|
A|----------------------------------------------------|
E|----------------------------------------------------|

e|-----------------------------------------|
B|-----------------------------------------|
G|-----------------------------------------|
D|-----------------------------------------|
A|-16-15-14-13-14-15-12~------------12-----|
E|-------------------------14-12-14----14\-|

e|-------------------------------------------------|
B|-------------------------17-15-------------14-17-|
G|-------------14-16-17/18-------18-16-16b18-------|
D|-------14-16-------------------------------------|
A|-15h16-------------------------------------------|
E|-------------------------------------------------|

e|-------------------------------------14----16----|
B|-------------------14-17-------14-17----14----14-|
G|-16b18r16-14-16b18-------16b18-------------------|
D|-------------------------------------------------|
A|-------------------------------------------------|
E|-------------------------------------------------|

e|-17-----16----17----19---19b21r19-[19]21~~-|
B|----/17----17----17----x-------------------|
G|-------------------------------------------|
D|-------------------------------------------|
A|-------------------------------------------|
E|-------------------------------------------|

e|-17-19-19-17-----------17-17----------16h17p16----16-|
B|-------------19-17-/21-------19-19-19----------20----|
G|-----------------------------------------------------|
D|-----------------------------------------------------|
A|-----------------------------------------------------|
E|-----------------------------------------------------|

e|------------------------------------------------------|
B|-19-17-16-----16--------------------------------------|
G|---------18-17---18-16\14--16-14----------------------|
D|-------------------------16-----16---------14-----/14-|
A|--------------------------------------16p15---16\-----|
E|-----------------------------------17-----------------|

e|-----------------------------------16--17-14--(14)\-|
B|----14-16b17~------14-17b19~-----14-----------------|
G|-----------------14------------14-------------------|
D|-16------------x------------------------------------|
A|----------------------------------------------------|
E|----------------------------------------------------|

e|----14--16--17---17--19--21--22b24r22b24r22b24-|
B|-/14--14--14--/17--17--17--19------------------|
G|-----------------------------------------------|
D|-----------------------------------------------|
A|-----------------------------------------------|
E|-----------------------------------------------|

End Solo


Play Riff 5  "If you took your own direction..."


Riff 6b
Guitar 1
e|----------------------------------|
B|----------------------------------|
G|----------------------------------|
D|-4-5-0-4-----5--------------------|
A|---------2-3--------------------2-|
E|----------------3-2-0-2-3-5-3-2-0-|
                  * * * * * * * *
Guitar 2
e|-------------------------------------|
B|----------------8-7---7-8-10-8-7-----|
G|--------------------9------------9~~-|
D|-4-5-0-4-----5-----------------------|
A|---------2-3-------------------------|
E|-------------------------------------|

Guitar 3
e|------------------------------------|
B|----------------5-4---4-5-7-5-------|
G|--------------------5---------5-4~~-|
D|------------------------------------|
A|------------------------------------|
E|------------------------------------|

7.PROMISES

Tuning: Standard

Intro (Acoustic)
e|-5-----5-----5-----5----|
B|-6-----6-----6-----6----|
G|----7-----7-----7-----7-|
D|------------------------|
A|------------------------|
E|------------------------|


Riff 1 (Acoustic)
e|-5-----5-----5-----5----|
B|-6-----6-----6-----6----|
G|----7-----7-----7-----7-|
D|------------------------|
A|------------------------|
E|------------------------|
   "Two hearts..."
e|-6-----6-----6-----6----|
B|-5-----5-----5-----5----|
G|----7-----7-----7-----7-|
D|------------------------|
A|------------------------|
E|------------------------|
   "...talk to each other..."
e|-6-----6-----6-----6----|
B|-5-----5-----5-----5----|
G|----6-----6-----6-----6-|
D|------------------------|
A|------------------------|
E|------------------------|
   "...close, in a town..."
e|-5-----5-----5-----5----|
B|-7-----7-----7-----7----|
G|----5-----5-----5-----5-|
D|------------------------|
A|------------------------|
E|------------------------|
   "...like a prison cell..."


Riff 2 (Acoustic)
e|--------------------------------------|
B|--------11---8-----8-----------11---8-|
G|------8----8-----8---8-------8----8---|
D|-8--8----------8--------8--8----------|
A|--------------------------------------|
E|--------------------------------------|


Play Riff 1  "You come from..."


Riff 3 (Distortion)            x2
e|------------------------------|
B|------------------------------|
G|------------------------------|
D|-8-------10--------8-------10-|
A|-6--------8--------6--------8-|
E|------------------------------|
   "And when we walk..."
e|-------------------|
B|-------------------|
G|-------------------|
D|-8-------10----12--|
A|-6--------8-----9--|
E|-------------------|
   "But it's much too late..."


Riff 4 (Distortion)                                x3
e|--------------------------------------------------|
B|--------------------------------------------------|
G|--------------------------------------------------|
D|-12-------12-8-------8-10-------10----------------|
A|-10----xx-10-6----xx-6--8----xx--8--5/6-6-6-6\5-5-|
E|-10----xx-10-6----xx-6--8----xx--8----------------|
   "Oh I will meet you..."
e|---------------------------|
B|---------------------------|
G|---------------------------|
D|-12-------12-8-------8-10--|
A|-10----xx-10-6----xx-6--8--|
E|-10----xx-10-6----xx-6--8--|
   "I promise, I promise..."

Play Riff 1   "There's so many fighting..."


Riff 3a (Distortion)
e|------------------------------|
B|------------------------------|
G|------------------------------|
D|-8-------10--------8-------10-|
A|-6--------8--------6--------8-|
E|------------------------------|
   "And when we walk..."
e|-------------------|
B|-------------------|
G|-------------------|
D|-8-------10----12--|
A|-6--------8-----9--|
E|-------------------|
   "But it's much too late..."


Play Riff 4   "Oh I will meet you..."

Lead into next section:
e|----------------|
B|----------------|
G|----------------|
D|--11--------12--|
A|---9--------10--|
E|---9--------10--|


Interlude:

Riff 5 (Acoustic, Play 2x)
e|----3-3---3------3------3-3---1------1---|
B|-3--3-3-3-3----3---3-3--3-3-3-3----3---3-|
G|-3------3-3--3-------2------2-2--2-------|
D|-----------------------------------------|
A|-----------------------------------------|
E|-----------------------------------------|

e|------1-1--------0----0----0----------0---|
B|-3--3-3-3-3----3---3--2--2---2-2----2---2-|
G|-1--1-----1--1--------2--2---2-2--0-------|
D|------------------------------------------|
A|------------------------------------------|
E|------------------------------------------|


Riff 6 (Distortion, Solo Rhythm)
e|-----------------------------------------|
B|-----------------------------------------|
G|-----------------------------------------|
D|-----------------------------------------|
A|-2----xx-2-4----xx-4-5----xx-5-7----xx-7-|
E|-0----xx-0-2----xx-2-3----xx-3-5----xx-5-|

e|-----------------------------------------|
B|-----------------------------------------|
G|-----------------------------------------|
D|-----------------------------------------|
A|-2----xx-2-4----xx-4-5----xx-5-7----xx-7-|
E|-0----xx-0-2----xx-2-3----xx-3-5----xx-5-|

e|-----------------------------------------|
B|-----------------------------------------|
G|-----------------------------------------|
D|-----------------------------------------|
A|-2----xx-2-4----xx-4-5----xx-5-7----xx-7-|
E|-0----xx-0-2----xx-2-3----xx-3-5----xx-5-|

e|-------------------------|
B|-------------------------|
G|-------------------------|
D|-4--4--4--4--4--5--6--7--|
A|-2--2--2--2--2--3--4--5--|
E|-------------------------|


Solo (Pitrelli)
e|-------------------------------|
B|-------------------------------|
G|------13-16-/15~--11~----------|
D|----14--------------~--11-12~\-|
A|-/14---------------------------|
E|-------------------------------|

e|--------------------------19\-|
B|------12-15-/17~--14~------x--|
G|----12-----------------14-16\-|
D|-/12--------------------------|
A|------------------------------|
E|------------------------------|

e|------16-19-/18~-------------------|
B|----17-----------19~---------17----|
G|-/16-----------------18---19----19-|
D|-----------------------------------|
A|-----------------------------------|
E|-----------------------------------|

e|----------------------/17-16\-|
B|----------------17-19---------|
G|-19\18-16-18-19---------------|
D|------------------------------|
A|------------------------------|
E|------------------------------|

e|-------------------------------|
B|-------------------------------|
G|------13-16-/15~--11~----------|
D|----14-----------------11-12~\-|
A|-/14---------------------------|
E|-------------------------------|

e|-------------------------------|
B|------12-15-/17~--14~----------|
G|----12-----------------14-16~~-|  division
D|-/12---------------------------|
A|-------------------------------|
E|-------------------------------|

Second guitar comes in on last note:
e|------------------------------7-------8-------9------10-------|
B|-------7------------9-7-9-7--10b12~--11b13~--12b14~--13b15~~\-|
G|----xx-7h8-xx----xx-9-7-9-7-----------------------------------|
D|-9~-xx-----xx-9~-xx-------------------------------------------|
A|--------------------------------------------------------------|
E|--------------------------------------------------------------|

End Solo


Play Riff 4   "Oh I will meet you..."


Ending (Fades out)
Guitar 1 (Acoustic)
e|-5-----5-----5-----5----|
B|-6-----6-----6-----6----|
G|----7-----7-----7-----7-|
D|------------------------|
A|------------------------|
E|------------------------|

Guitar 2 (Distortion)
e|------------------|
B|------------------|
G|------------------|
D|-/7---------------|
A|-/5----[let ring]-|
E|------------------|

8.RECIPE FORb HATE...WARHORSE

uning: Standard

Riff 1                                  x3
e|---------------------------------------|
B|---------------------------------------|
G|---------------------------------------|
D|---------------------------------------|
A|-88-----88-----88---99-----99-----99---|
E|---6666---6666---66---7777---7777---77-|
   ****** ****** **** ****** ****** ****
e|--------------------------------|
B|--------------------------------|
G|--------------------------------|
D|--------------------------------|
A|-10-10------10-10------10-10----|
E|-------8888-------8888-------88-|
    *  * ****  *  * ****  *  * **
e|------------------------------------------|
B|------------------------------------------|
G|------------------------------------------|
D|------------------------------------------|
A|-11-11------12-12-------------13-13-------|
E|-------9999-------10-10-10-10-------11-11-|
    *  * ****  *  *  *  *  *  *  *  *  *  *

e|----------------|
B|----------------|
G|----------------|
D|----------------|
A|--2-------------|
E|--0--[let ring]-|


Riff 1a (Bass guitar arranged for guitar)
e|----------------------------------------|
B|---3-----------------1------------------|
G|-----4-------3-4-3-----2--------4-----7-|
D|-------5---4-------------3--1h2---4h5---|
A|----------------------------------------|
E|-0-------0---------0--------------------|
   "Each day..."


Riff 2
Guitar 1
e|-----10------9------8----------7------10-|
B|-/12-----/11----/10---10\--5/6----7/8----|
G|-----------------------------------------|
D|-----------------------------------------|
A|-----------------------------------------|
E|-----------------------------------------|
  "In a broken mold they made me..."

Final time
e|-----10------9------8------0----7-8-|
B|-/12-----/11----/10---10\-----------|
G|------------------------------------|
D|------------------------------------|
A|------------------------------------|
E|------------------------------------|
  "...my measly brain mad..."

Guitar 2
e|---------------------------------------------|
B|---------------------------------------------|
G|---------7-------11-9--------5---------------|
D|-------9-------8-----------7-------9------12-|
A|---/10------/9----------/8-----6/7----9/10---|
E|-0--------------------0----------------------|

Final time
e|---------------------------------------|
B|---------------------------------------|
G|---------7-------11-9--------5---------|
D|-------9-------8-----------7------9-10-|
A|---/10------/9----------/8-----7-------|
E|-0--------------------0----------------|



Riff 3 (Solo Rhythm)                     x3
e|----------------------------------------|
B|----------------------------------------|
G|-----5-4------5-4------5-4--------------|
D|---5--------4--------3------------------|
A|-0--------0--------0--------------------|
E|----------------------------0--0--3-2-0-|
                              *  *  * * *
e|-------------------------------|
B|-------------------------------|
G|-----5-4------5-4------5-4-----|
D|---5--------4--------3---------|
A|-0--------0--------0-----------|
E|----------------------------0--|


Solo (Acoustic) (Pitrelli)
e|-12-13-12-----------------------------|
B|-----------15--13--12-13--------------|
G|-------------------------14--13--14~~-|
D|--------------------------------------|
A|--------------------------------------|
E|--------------------------------------|

e|------------5-7-8-7-5---5-|
B|----------5-----------8---|
G|--------5-----------------|
D|----4-7-------------------|
A|-/5-----------------------|
E|--------------------------|

e|----0---------------------------|
B|-0-----0--0--0--0----0--0--0--0-|
G|-2-----4--5--7--5\4--2--0--2--1-|
D|---------------------------3--2-|
A|--------------------------------|
E|--------------------------------|

e|---------------------------1-0---------------|
B|-----------------0-1p0---------3-1-0---------|
G|-2-222-1-2~----2-------2-1-----------2-1-----|
D|-------------2---------------------------3-2-|
A|---------------------------------------------|
E|---------------------------------------------|

e|-----------------------0-3-1-0---0----5--|
B|---------------0-----3---------3------5--|
G|-----------0-2---4-5------------------5--|
D|-----0-2-3----------------------------5--|
A|-2/3----------------------------------5--|
E|--------------------------------------5--|
                                        h.
End Solo


Play Riff 2   "Dark clouds on the horizon..."
Play Riff 3   Solo Rhythm (leave off very last note)

Solo (Distortion) (Pitrelli)
e|--------12h13-12~----------------------------|
B|------------------15--13--12-13--------------|
G|--------------------------------14~-13--14~~-|
D|---------------------------------------------|
A|---------------------------------------------|
E|-12/16\--------------------------------------|

e|-------------12-17p12---------------|
B|-----------13--------13-------------|
G|-14------14------------14-----------|
D|-------14----------------14---------|
A|-----12--------------------15-12~~\-|
E|------------------------------------|

e|-------------------10-----------------------------------|
B|----10---12---13--------13----10----12----10h12p10-9~~\-|
G|-/9----9----9----9----9----10----10----10---------------|
D|--------------------------------------------------------|
A|--------------------------------------------------------|
E|--------------------------------------------------------|

e|----------------------------------------|
B|--------------------------12-13p12------|
G|-14--14-14-14-13-14~----14--------14p13-|
D|----------------------14----------------|
A|----------------------------------------|
E|----------------------------------------|

e|-12h13--12---------------------------|
B|------15--15p13-12h13--12------------|
G|---------------------14--14-13-------|
D|-------------------------------14~~\-|
A|-------------------------------------|
E|-------------------------------------|

e|-------------------------------|
B|-------------------------------|
G|----------------------12/14-16-|
D|-------------12-14-15----------|
A|-12~--14--15-------------------|
E|-------------------------------|

e|------------------------------17-19-20-22-22-22b24-|
B|----------------------17/18-20---------------------|
G|-17-16--------16-17-19-----------------------------|
D|------19-18-19-------------------------------------|
A|---------------------------------------------------|
E|---------------------------------------------------|

e|-(24)----(24)----19h24p19~~~~*\-|
B|--------------------------------| This bar blends into
G|--------------------------------| next riff.
D|--------------------------------|
A|--------------------------------|
E|--------------------------------|

End Solo


Riff 4
e|-----------------------------------------------|
B|-----------------------------------------------|
G|-----------------------------------------------|
D|-----------------------------------------------|
A|-----------------------------------------------|
E|-0-0-3-2-0--0-0-5-3-0--0-0-3-2-0--5-3-0--3-2-0-|
   * * * * *  * * * * *  * * * * *  * * *  * * *

Last time
e|-------------------------------------------|
B|-------------------------------------------|
G|-------------------------------------------|
D|-------------------------------------------|
A|-------------------------------------------|
E|-0-0-3-2-0--0-0-5-3-0--0-0-3-2-0--5-3-0--3-|
   * * * * *  * * * * *  * * * * *  * * *  *


Riff 5
e|-------------------------------------|
B|-------------------------------------|
G|-------------------------------------|
D|-------------------------------------|
A|-4----------2---4------------2-----2-|
E|-2--2-2-0h3---0-2--2-2-2-0h3---0h3---|
      * *            * * *
  "I'm feeling quite invisible..."

Riff 6
e|---------------------------------|
B|---------------------------------|
G|---------------------------------|
D|---------------------------------|
A|---------------------------/8-/8-|
E|-0-0-320-0-0-530-0-0-320-0-/6-/6-|
   * * *** * * *** * * *** *
  "The truth taunts me..."


Solo over Riff 6 (wah pedal) (Mustaine)
e|------------------------------------------------|
B|------------------------------------------------|
G|------------------------------------10~-9-------|
D|-------------6----7~-6--------10-9--------10~-9-|
A|-7~-5--8~-7----8--------8~-7--------------------|
E|------------------------------------------------|

e|--------------------------------------------|
B|--------10~-9-------------------------------|
G|-10-9----------10~-9------------------------|
D|----------------------10-9--11~--(11)b12~~~-|
A|--------------------------------------------|
E|--------------------------------------------|

End Solo


Play Riff 5   "I see the Earth below me..."
Play Riff 6   "Does someone, somewhere..."


Solo over Riff 6 (Pitrelli)
e|--------------------------------|
B|-[11]12r11----(11)b12~--{11}~~--|
G|--------------------------------|
D|--------------------------------|
A|--------------------------------|
E|--------------------------------|

e|------------------------------------------------------|
B|---------------------------------------------------12-|
G|------------------------------12-14p12----12-14h15----|
D|-----------10-10--------10h12----------14-------------|
A|-10-10-12--------12--12-------------------------------|
E|------------------------------------------------------|

e|-------------------------12------------------------|
B|----------------12h14h15----15-14p12/14-17b19~~~~--|
G|-15p14p12-14h15------------------------------------|
D|---------------------------------------------------|
A|---------------------------------------------------|
E|---------------------------------------------------|

End Solo


Play Riff 5   "Sentenced to walk..."
Play Riff 6   "I can't believe..."


Solo over Riff 6 (Mustaine)
e|--------------------------------------|
B|-7h8-10p7--10p7--10p7--10p7--10p7-----|
G|---------9-----9-----9-----9------9p7-|
D|--------------------------------------|
A|--------------------------------------|
E|--------------------------------------|

e|----------------------------|
B|-9p7--9p7--9p7--9p7--9p7----|
G|----9----9----9----9----9p7-|
D|----------------------------|
A|----------------------------|
E|----------------------------|

e|----------------------------------|
B|-10p7--10p7--10p7--10p7--10p7-----|
G|-----9-----9-----9-----9------9p7-|
D|----------------------------------|
A|----------------------------------|
E|----------------------------------|

e|----------------------------------|
B|-9p7--9p7--9p7--9p7--9p7----------|
G|----9----9----9----9----9p7--6~~~-|
D|----------------------------------|
A|----------------------------------|
E|----------------------------------|

End Solo


Play Riff 5   "I'm left riding a Warhorse..."


For the next section, Riffs 7 and 8 alternate to
provide the solo rhythm.

Riff 7 (Solo Rhythm)
e|---------------------------------|
B|---------------------------------|
G|---------------------------------|
D|---------------------------------|
A|-9\7---5-----4-----5-----4---5---|
E|-7\5-0-3-0-0-2-0-0-3-0-0-2-0-3-0-|
       *   * *   * *   * *   *   *
e|---------------------------------|
B|---------------------------------|
G|---------------------------------|
D|---------------------------------|
A|-9\7---5-----4-----3-------------|
E|-7\5-0-3-0-0-2-0-0-1-0-0-0-0-0-0-|
       *   * *   * *   * * * * * *

Riff 8 (Solo Rhythm)
e|----------------------------|
B|----------------------------|
G|----------------------------|
D|----------------------------|
A|-4-4-----------4-4----------|
E|-2-2--222-222--2-2--222-222-|
        *** ***       *** ***
e|------------------------|
B|------------------------|
G|------------------------|
D|------------------------|
A|-5-5-----------2-2--5-5-|
E|-3-3--333-333--0-0--3-3-|
        *** ***

Solo (Mustaine)
e|---------------------------------------------------|
B|-15tr12--------------------------------------------|
G|--------[use whammy bar to dive down 1 1/2 steps]--|
D|--------[then release back to normal            ]--|
A|---------------------------------------------------|
E|---------------------------------------------------|

e|-------------------12-12---------12-----13-------|
B|-15p12h15-15b17-------15b17~~-------15--16b18~~--|
G|-------------------------------------------------|
D|-------------------------------------------------|
A|-------------------------------------------------|
E|-------------------------------------------------|

e|-17b18--17b19--17b19----17b19--17b19r17-|
B|----------------------------------------|
G|----------------------------------------|
D|----------------------------------------|
A|----------------------------------------|
E|----------------------------------------|

e|-17p15--15\12-12---12-----------------------------------------|
B|------17--------15----15-12-15p12-12-----------------12h15p12-|
G|------------------------------------15p14p12-12h14h15---------|
D|--------------------------------------------------------------|
A|--------------------------------------------------------------|
E|--------------------------------------------------------------|

e|----------------------------------------------|
B|----------------------------------------------|
G|-15p14p12-14-15-14p12-------------------------|
D|---------------------15-14-16--------(16)d14*-|
A|----------------------------------------------|
E|----------------------------------------------|


#2 (Pitrelli)
e|----------------------------------------------------|
B|-10h12-9-10-9-------------10------------------------|
G|--------------11-9-9-9--9----9----------------------|
D|-------------------------------11-9-12-10-9----11-9-|
A|--------------------------------------------12------|
E|----------------------------------------------------|

e|----------------------------------------------9-9----|
B|--------------------------------------9-10-12-----12-|
G|----------------------------------9-11---------------|
D|---------------------------9-11-12-------------------|
A|-12-11-12-11-9--11--9-11-12--------------------------|
E|--------------12--12---------------------------------|

e|-7----------------------------------14----------------|
B|---10p7-----8-----10-----14-----/14----17p14----14-14-|
G|--------/11---/12----/16----16\--------------16-------|
D|------------------------------------------------------|
A|------------------------------------------------------|
E|------------------------------------------------------|

e|-------------------14-------------------------------|
B|-17b19----(19)b20----17p14-19b23----(23)r19-17b19~~-|
G|----------------------------------------------------|
D|----------------------------------------------------|
A|----------------------------------------------------|
E|----------------------------------------------------|

e|-18p14---17p14-17p14--14--------14-----------------------|
B|------17------------17--17p14----------------------------|
G|-----------------------------17---17p16p14---16----14b16-|
D|------------------------------------------16----16--a----|
A|---------------------------------------------------------|
E|---------------------------------------------------------|

e|-----------------------------17-17-19-|
B|---------------------17h18h19---------|
G|-------------14-16/18-----------------|
D|-16-14h15h17--------------------------|
A|--------------------------------------|
E|--------------------------------------|


#3
Guitar 1                          x2
e|-9p5---5-9p5-9p5---5-9p5-9p5---5-|
B|-----7-----------7-----------7---|
G|---------------------------------|
D|---------------------------------|
A|---------------------------------|
E|---------------------------------|

e|-10p6---6-10p6-10p6---6-10p6-10p6---|
B|------8-------------8-------------8-|
G|------------------------------------|
D|------------------------------------|
A|------------------------------------|
E|------------------------------------|

1st ending
e|------------------------------8-11-10-8----|
B|---------8-11-10-8----8-10-11-----------10-|
G|-8-10-11-----------10----------------------|
D|-------------------------------------------|
A|-------------------------------------------|
E|-------------------------------------------|

2nd ending
e|-10-8-6----8-6------6---------------|
B|--------10-----10-8---10-8---10-7-9-|
G|---------------------------7--------|
D|------------------------------------|
A|------------------------------------|
E|------------------------------------|


Guitar 2                               x2
e|--------------------------------------|
B|-10p7---7-10p7-10p7---7-10p7-10p7---7-|
G|------9-------------9-------------9---|
D|--------------------------------------|
A|--------------------------------------|
E|--------------------------------------|

e|---------------------------------------|
B|-11p8----8-11p8-11p8----8-11p8-11p8----|
G|------10-------------10-------------10-|
D|---------------------------------------|
A|---------------------------------------|
E|---------------------------------------|

1st ending
e|----------------------------------------|
B|----------------------------8-11-10-8---|
G|---------7-10-9-7----7-9-10-----------9-|
D|-8-10-11----------10--------------------|
A|----------------------------------------|
E|----------------------------------------|

2nd ending
e|-----------------------------------------|
B|-11-10-8----10-8------8------------------|
G|---------10------10-9---10-9-7-10-9-7----|
D|--------------------------------------10-|
A|-----------------------------------------|
E|-----------------------------------------|


#4 (Mustaine)
e|---------------------------------------|
B|-15p12--15p12--15p12--15p12--17p12--12-|
G|------15-----15-----15-----15-----15---|
D|---------------------------------------|
A|---------------------------------------|
E|---------------------------------------|

e|--------------------------------------------|
B|-15p12--15p12--16p12-15-16p12--12-17p12--12-|
G|------15-----15--------------15--------15---|
D|--------------------------------------------|
A|--------------------------------------------|
E|--------------------------------------------|

e|----------------------------------------------|
B|-15p12--12-17p12---15p12-12-17p12-15-17p12-15-|
G|------15--------15----------------------------|
D|----------------------------------------------|
A|----------------------------------------------|
E|----------------------------------------------|

e|-17-12----------------------------------------|
B|-------15p12----12-15p12----------------------|
G|-------------14----------14-15-15p14p12-12-12-|
D|----------------------------------------------|
A|----------------------------------------------|
E|----------------------------------------------|

e|-------------------------------------|
B|-------------------------------------|
G|-14b16----{14}-----------12-14-14b15-|
D|----------------12-13-14-------------|
A|-------------------------------------|
E|-------------------------------------|

e|----------------------------------------------|
B|----------------------------------------------|
G|-[14]16--[14]16-[14]16-[14]16-[14]16--12tr14--|
D|----------------------------------------------|
A|----------------------------------------------|
E|----------------------------------------------|

e|------------------------------------|
B|------------------------------------|
G|-12tr14----(12tr14)-----------------|
D|-------[use whammy bar during     ]-|
A|-------[second part of this trill ]-|
E|------------------------------------|

e|----------------------------------------------------|
B|-12-------12------12~--14-14----12--14-14--12-12----|
G|-12-------12------12~--14-14----12--14-14--12-12----|
D|---------------14--------------------------------14-|
A|------14--------------------------------------------|
E|----------------------------------------------------|

e|--------------------------------------------|
B|--------------------------------------------|
G|-14b16tm---------------------------14tm--12-|
D|-[keep tremolo picking while you ]----------|
A|-[slowly release the bend ]-----------------|
E|--------------------------------------------|

e|--------------------------------------|
B|--------------------------------------|
G|--------------------------------------|
D|-------------------------14-17p14-----|
A|-------13-16p13----13-16----------16--|
E|-12-15----------15--------------------|

e|-------------------------------------------|
B|-------------------------17-20p17----17~~~-|
G|-------15-18p15----15-18----------18-------|
D|-14-17----------17-------------------------|
A|-------------------------------------------|
E|-------------------------------------------|


#5 (Pitrelli)
e|---------------------------------------------------|
B|-----5--5----[5]7--[5]7--[5]7--(7)r5---------------|
G|-----4--4b6-----4-----4-----4--(4)---(4)p2-4p2~-4~-|
D|---------------------------------------------------|
A|---------------------------------------------------|
E|-X\\-----------------------------------------------|

e|---------------------------------------|
B|---------------------------------------|
G|-------2^---4----4-3b5r3b5r3b5r3-------|
D|-4-2-4-a--4----4---a-------------4-2---|
A|-------------------------------------4-|
E|---------------------------------------|
   * * *
e|-----------7-6------------------9h10----9------------|
B|---------5--------------9-10-12------12---12-10-9----|
G|---4-3/6--------9-10-11---------------------------11-|
D|-2---------------------------------------------------|
A|-----------------------------------------------------|
E|-----------------------------------------------------|

e|----------------------------------------------|
B|-10p9-----------------------------------------|
G|------11-9------------------------------------|
D|-----------12p11-9----11-9--------------------|
A|-------------------12------12-11-10-10-9-9-10-|
E|----------------------------------------------|


#6
Guitar 1                                          x2
e|-21p17----17-21p17-21p17----17-21p17-21p17----17-|
B|-------19----------------19----------------19----|
G|-------------------------------------------------|
D|-------------------------------------------------|
A|-------------------------------------------------|
E|-------------------------------------------------|

e|-22p18----22p18-22p18----18-22p18-22p18----|
B|-------20-------------20----------------20-|
G|-------------------------------------------|
D|-------------------------------------------|
A|-------------------------------------------|
E|-------------------------------------------|

1st ending
e|----------------------------------20-23-22-20----|
B|----------20-23-22-20----20-22-23-------------22-|
G|-20-22-23-------------22-------------------------|
D|-------------------------------------------------|
A|-------------------------------------------------|
E|-------------------------------------------------|

2nd ending
e|-22-20-18----20-18-------18---------------------------|
B|----------22-------22-20----22-20-18-22-20-19---------|
G|----------------------------------------------21-19~~-|
D|------------------------------------------------------|
A|------------------------------------------------------|
E|------------------------------------------------------|

Guitar 2                                          x2
e|-------------------------------------------------|
B|-22p19----19-22p19-22p19----19-22p19-22p19----19-|
G|-------21----------------21----------------21----|
D|-------------------------------------------------|
A|-------------------------------------------------|
E|-------------------------------------------------|

e|----------------------------------------------|
B|-23p20----20-23p20-23p20----20-23p20-23p20----|
G|-------22----------------20----------------22-|
D|----------------------------------------------|
A|----------------------------------------------|
E|----------------------------------------------|

1st ending
e|-------------------------------------------------|
B|----------------------------------20-23-22-20----|
G|----------19-22-21-19----19-21-22-------------21-|
D|-20-22-23-------------22-------------------------|
A|-------------------------------------------------|
E|-------------------------------------------------|

2nd ending
e|------------------------------------------------------|
B|-23-22-20----22-20-------20---------------------------|
G|----------22-------22-21----22-19-17-22-21-19---------|
D|----------------------------------------------22-20~~-|
A|------------------------------------------------------|
E|------------------------------------------------------|

End Solo


Ending:

Play Riff 1  and end with this chord, fading out:

e|-----------------------------|
B|-----------------------------|
G|-----------------------------|
D|-----------------------------|
A|--2--------2--------2--------|
E|--0--------0--------0----...-|

9.LOSING MY SENSES

Tuning: Standard

Riff 1                  x2
e|-----------------------|
B|-----------------------|
G|-----------------------|
D|-----------------------|
A|-7---5---7---/11---7-5-|
E|---0---0---0-----0-----|
  "One man..."
e|-------------------------|
B|-------------------------|
G|-------------------------|
D|-------------------------|
A|-7---5---2---5-----------|
E|---0---0---0---0-5-6-7-0-|
  "...it fits..."
e|--------------------------|
B|--------------------------|
G|--------------------------|
D|--------------------------|
A|-7---5---7---/12---11-----|
E|---0---0---0-----0----10\-|


During Riff 1, these leads come in:
1st one
e|-----------|
B|-----------|
G|-/9~--/13~-|
D|-----------|
A|-----------|
E|-----------|
2nd one
e|-----------------------------|
B|-10-9-10-9-10-9-10-9-10-9----|
G|--------------------------9~-|
D|-----------------------------|
A|-----------------------------|
E|-----------------------------|


Riff 2
e|-----------------------------|
B|-----------------------------|
G|-----------------------------|
D|-----------------------------|
A|-7---5-x---7---5-x-----------|
E|---0-----0---0-----0-5-6-7-0-|
     *     *   *     *       *
                     "Yesterday's..."
e|------------------------------|
B|------------------------------|
G|------------------------------|
D|------------------------------|
A|-7---5-x---7---5-x------------|
E|---0-----0---0-----0-5--6--7--|
     *     *   *     * *  *  *
  "...answers.....has nothing to do..."
e|-----------------------------|
B|-----------------------------|
G|-----------------------------|
D|-----------------------------|
A|-7---5-x---7---5-x-----------|
E|---0-----0---0-----0-5-6-7-0-|
     *     *   *     *       *
                    "...with today's..."
e|----------------|
B|----------------|
G|----------------|
D|-9-8-7-----7--9-|
A|-7-6-5-/9--5--7-|
E|-------/7-------|
  "...questions..."


Riff 3
Guitar 1
e|-------------------------|
B|-------------------------|
G|-------------------------|
D|-7-7-7-7-7-7-7-7-7-------|
A|-5-5-5-5-5-5-5-5-5-6-7---|
E|-----------------------0-|
  "Life can only be understood..."
e|------------------------|
B|------------------------|
G|------------------------|
D|-7--7-7-7-7-7-7-7-------|
A|-5--5-5-5-5-5-5-5-6-7---|
E|----------------------0-|

e|------------------------|
B|------------------------|
G|------------------------|
D|-0--7-7-7-7-7-7-7-------|
A|-0--5-5-5-5-5-5-5-6-7---|
E|----------------------0-|

e|------------------------------------|
B|------------------------------------|
G|------------------------------------|
D|-0--7-7-7-7-7-7-7-7-7-7-7-----------|
A|-0--5-5-5-5-5-5-5-5-5-5-5-5-6-7-----|
E|--------------------------------0-0-|
  "...but must be lived forwards..."

Guitar 2    x3
e|-----------|-------|
B|-10-9-10-9-|-10-12-|
G|-----------|-------|
D|-----------|-------|
A|-----------|-------|
E|-----------|-------|
                                           x3
e|------------------------------------------|-------------|
B|-10-9----9-10-9-10-9----9-10-9----9-10-12-|-10--10----9-|
G|------11-------------11--------11---------|-------------|
D|------------------------------------------|-------------|
A|------------------------------------------|-------------|
E|------------------------------------------|-------------|


Guitar 3 (Keyboards arranged for guitar)
e|-------------7--------7--------10-----|
B|----5-----------------5---------8-----|
G|--------------------------------------|
D|--------------------------------------|
A|--------------------------------------|
E|--------------------------------------|


Play Riff 1    w/ these leads:
1st one
e|------------------|
B|------------------|
G|-/7--7----(7)d4*--|
D|------------------|
A|------------------|
E|------------------|
2nd one
e|------------------------------------------|
B|------------------------------7h8---7-9~~-|
G|-9---7~--------7^---9-7---7-9-----9-------|
D|---9----9-7-9-----9-----9-----------------|
A|------------------------------------------|
E|------------------------------------------|

Play Riff 2  "Yesterday's answers..."

Riff 3a
Guitar 1
e|-------------------------|
B|-------------------------|
G|-------------------------|
D|-7-7-7-7-7-7-7-7-7-------|
A|-5-5-5-5-5-5-5-5-5-6-7---|
E|-----------------------0-|
  "Life can only be understood..."
                         x6
e|------------------------|
B|------------------------|
G|------------------------|
D|-0--7-7-7-7-7-7-7-------|
A|-0--5-5-5-5-5-5-5-6-7---|
E|----------------------0-|

e|----------------------------------|
B|----------------------------------|
G|----------------------------------|
D|-0--7-7-7-7-7-7-7-7-7-7-7---------|
A|-0--5-5-5-5-5-5-5-5-5-5-5-5-6-7---|
E|--------------------------------0-|
  "...but must be lived forwards..."

Guitar 2    x3
e|-----------|-------|
B|-10-9-10-9-|-10-12-|
G|-----------|-------|
D|-----------|-------|
A|-----------|-------|
E|-----------|-------|
                                           x7
e|------------------------------------------|--------|
B|-10-9----9-10-9-10-9----9-10-9----9-10-12-|-10--10-|
G|------11-------------11--------11---------|--------|
D|------------------------------------------|--------|
A|------------------------------------------|--------|
E|------------------------------------------|--------|



Interlude:
Guitar 1 (Keyboards arranged for guitar)
e|-12-----10-----7----5---|
B|----12-----10----8----7-|
G|------------------------|
D|------------------------|
A|------------------------|
E|------------------------|

e|-12-----10-----7----14----|
B|----12-----10----8-----16-|
G|--------------------------|
D|--------------------------|
A|--------------------------|
E|--------------------------|

Guitar 2 (Keyboards arranged for guitar)
e|-12----15----------15----|
B|--x----15----13----15----|
G|--9----14----10-----x----|
D|-------------10----12----|
A|-------------------------|
E|-------------------------|

Guitar 3 (distortion w/ slide, steady gliss)
Guitar 4 plays notes in ()
e|-------------------------------------|
B|--------------------(9~)-------------|
G|--------------------(9~)-----(10~)---|
D|-------------------------------------|
A|--5--////--9--////--12--////--17////-|
E|-------------------------------------|


Riff 4  (Solo Rhythm)
Guitar 1                                 x2
e|----------------------------------------|
B|----------------------------------------|
G|----------------------------------------|
D|---------------------------7----------7-|
A|-----2----------2----------5----------5-|
E|-7\--0------7\--0------7\---------7\----|

Guitar 2 (strings arranged for guitar)
e|-----------------------------|
B|-----------------------------|
G|-9--------7/9--------9\7-----|
D|-x--------x----------x-------|
A|-7--------5/7--------7\5-----|
E|-----------------------------|

e|-----------------------------|
B|-----------------------------|
G|-7----7--7/9--------11\9--11-|
D|-x----x--x-----------x-----x-|
A|-5----5--5/7---------9\7---9-|
E|-----------------------------|

e|-----------------------------|
B|-----------------------------|
G|-11----11/13----13--------12-|
D|--x-----x--------x---------x-|
A|--9-----9/11----11--------10-|
E|-----------------------------|

e|--------------------------|
B|--------------------------|
G|-11----9--11----12----11--|
D|--x----x---x-----x-----x--|
A|--9----7---9----10-----9--|
E|--------------------------|

Solo (Pitrelli)
e|-----0-------0--------0--------0-------0--0--|
B|---------------------------------------x--x--|
G|-/9-----9\7-----7/11-----11\7-----7\4--4--4--|
D|---------------------------------------------|
A|---------------------------------------------|
E|---------------------------------------------|

e|-----0-------0--------0---------0---------0-------|
B|--------------------------------------------------|
G|-/9-----9\7-----7/11-----11/14-----14\13-----13\--|
D|--------------------------------------------------|
A|--------------------------------------------------|
E|--------------------------------------------------|

e|----0--------0--------0--------0--------0-----0--|
B|-------------------------------------------------|
G|-7-----7--6-----6--7-----7--2-----2--4-----6-----|
D|-------------------------------------------------|
A|-------------------------------------------------|
E|-------------------------------------------------|

e|---0-----0-----0-----0----------------------------------|
B|--------------------------------------------------------|
G|-7---7-6---6-7---7-2---2/4--2-1------1-2-1----------1-2-|
D|--------------------------------2----------2------2-----|
A|----------------------------------2----------2--2-------|
E|--------------------------------------------------------|

e|---------------------------------------------|
B|---------------------------------------------|
G|-/7-6-----------6--7-7-7-6-6-6---------/11-7-|
D|-------7--5--7-----------------7-7-7-5-------|
A|---------------------------------------------|
E|---------------------------------------------|

End Solo



Riff 4a (Solo Rhythm)                      x4
e|------------------------------------------|------|
B|------------------------------------------|------|
G|------------------------------------------|------|
D|------------------------------------------|------|
A|-9\---------------------------------------|--9\--|
E|-7\--0--3~~-0--5~~-0--6~~-0--6~~-0--5~~-0-|--7\--|


Solo (Pitrelli)
e|----------------------------------------------|
B|------------------9-10-12-[12]13r12--12-12~~--|
G|-9--7-9~~----9-10-----------------------------|
D|----------------------------------------------|
A|----------------------------------------------|
E|----------------------------------------------|

e|------------------------------------------------------|
B|-10h12p10\9-10-9--------------------------------------|
G|-----------------10-9b10r9----------------------------|
D|---------------------------10\9-9-9\6-6/7-7\3-3/7-7\6-|
A|------------------------------------------------------|
E|------------------------------------------------------|

e|-----------------------------------0--|
B|-----------------------------------0--|
G|--------------------------------------|
D|-6-----7-6~~--------------------------|
A|---7-5----------5---------------------|
E|------------------5~--5b6r5-4-1-0-----|

e|----------------------12-16p12-16p12--12-16p12-16p12--12-|
B|-15b17r15-15~~--12h15---------------15--------------15---|
G|---------------------------------------------------------|
D|---------------------------------------------------------|
A|---------------------------------------------------------|
E|---------------------------------------------------------|

e|-16p12--------12-------------------------------------|
B|------15-12------------------------------------------|
G|-----------15----15p14-12----------------------------|
D|--------------------------14p12----------------------|
A|--------------------------------14-13-13-14-13-13-14-|
E|-----------------------------------------------------|

e|------------------------------|
B|------------------------------|
G|----------------------14-13~--|
D|-------------------14---------|
A|-------12-11-12/14------------|
E|-12-10------------------------|

e|----------------17-17-16b17r16------------------|
B|-------------17----------------17-16-15\--------|
G|-------13/16-----------------------------/19-19-|
D|-14-12------------------------------------------|
A|------------------------------------------------|
E|------------------------------------------------|


e|-22b24-{22}-{22}-{22}-22~~~\--|
B|------------------------------|
G|------------------------------|
D|------------------------------|
A|------------------------------|
E|------------------------------|

End Solo


Play Riff 2  "Yesterday's answers..."

Lead over end of Riff 2
e|---------------------------|
B|---------------------------|
G|-9----8~~--7---------7--9/-|
D|---------------/9----------|
A|---------------------------|
E|---------------------------|

Riff 3a
Guitar 1
e|-------------------------|
B|-------------------------|
G|-------------------------|
D|-------------------------|
A|-5-5-5-5-5-5-5-5---------|
E|-3-3-3-3-3-3-3-3-3-4-5-0-|
   "Life can only be understood..."
                         x6
e|------------------------|
B|------------------------|
G|------------------------|
D|------------------------|
A|-5--5-5-5-5-5-5---------|
E|-3--3-3-3-3-3-3-3-4-5-0-|

Final time:
e|--------------------------------|
B|--------------------------------|
G|--------------------------------|
D|--------------------------------|
A|-5--5-5-5-5-5-5-5-5-5-5-5-------|
E|-3--3-3-3-3-3-3-3-3-3-3-3-3-4-5-|
   "...but must be lived forwards."

Guitar 2
First time:
e|-10-9----9-10-9-10-9----9-10-9-10-12-|
B|------12-------------12--------------|
G|-------------------------------------|
D|-------------------------------------|
A|-------------------------------------|
E|-------------------------------------|

Rest of the time:
e|-10-9----9-10-9-10-9----9-10-9----9-10-12-|
B|------12-------------12--------12---------|
G|------------------------------------------|
D|------------------------------------------|
A|------------------------------------------|
E|------------------------------------------|

10.DREAD AND THE FUGITIVE MIND

E----------------------
B----------------------
G----------------------
D----------5---4-------
A--2-------3---2-2-----
E--0-0-2-3---0---0-----


  Pre-Chorus
E-----------------------------------------------------
B-----------------------------------------------------
G-----------------------------------------------------
D--7---5-5---7-7---5-5---4-4---5-5---4-4---5-5--------
A--7---7-7---7-7---7-7---5-5---5-5---5-5---5-5--------
E----X-----X-----X-----X-----X-----X-----X------------


E-----------------------------------------------------
B-----------------------------------------------------
G-----------------------------------------------------
D----2-2---4-4---2-2---4-4---5-5---4-4---7-7---5-5----
A----3-3---3-3---3-3---3-3---5-5---5-5---7-7---7-7----
E--X-----X-----X-----X-----X-----X-----X-----X--------


  Chorus
E-----------------------------------
B-----------------------------------
G------4-----4-----4-----4-----4----
D--0-2---0-2---0-2---0-2---0-2------
A-----------------------------------
E-----------------------------------


E-----------------------------------
B-----------------------------------
G------4-----4-----4-----4-----4----
D----2-----2-----2-----2-----2------
A--3-----3-----3-----3-----3--------
E-----------------------------------


E-----------------------------------
B-----------------------------------
G------4-----4-----4-----4-----4----
D----2-----2-----2-----2-----2------
A--0-----0-----0-----0-----0--------
E-----------------------------------


E-----------------------------------
B-----------------------------------
G-----------------------------------
D----1-4---1-5---1-4---1-5---4-1----
A--2-----2-----2-----2-----2--------
E-----------------------------------


 Interlude Riff
E---------------
B---------------
G---------------
D---------------
A----------2----
E--0000000-0----


   2X
E-----------------------------------------------------------
B-----------------------------------------------------------
G------4-/5-4-------4-/5-4-------4-/5-4---------------------
D--0-2--------2---2--------2---2--------2---1-4-/5-4-1------
A---------------3------------0------------2-----------------
E-----------------------------------------------------------


E------------------------------------
B------------------------------------
G------4-----2-----0-----2---0-------
D--0-2---0-2---0-2---0-2---0---0-2---
A------------------------------------
E------------------------------------


E------------------------------------
B------------------------------------
G------4-----2-----0-----2---0-------
D----2-----2-----2-----2---------2---
A--3-----3-----3-----3-----3---3-----
E------------------------------------


E------------------------------------
B------------------------------------
G------4-----2-----0-----2---0-------
D----2-----2-----2-----2---------2---
A--0-----0-----0-----0-----0---0-----
E------------------------------------


E------------------------------------
B------------------------------------
G------------------------------------
D----1-4---1-5---1-4---1-5---4---1---
A--2-----2-----2-----2-----2---2-----
E------------------------------------


  Guitar 1
E-----------------------
B-----------------------
G-----------------------
D----1-4-/7-5-4-2--4----
A--2--------------------
E-----------------------

  Guitar 2
E-----------------------
B-----------------------
G-----------------------
D----4-7-/10-9-7-5--7---
A--5--------------------
E-----------------------



E---------------------------------
B---------------------------------
G---------------------------------
D--9-------------------------9----
A--7-7-7-7-7-7-7-7-7-7-7-7-7-7----
E---------------------------------


E---------------------------------
B---------------------------------
G---------------------------------
D--5-------------------------5----
A--3-3-3-3-3-3-3-3-3-3-3-3-3-3----
E---------------------------------

E---------------------------------
B---------------------------------
G---------------------------------
D--2-------------------------2----
A--0-0-0-0-0-0-0-0-0-0-0-0-0-0----
E---------------------------------


E---------------------------------
B---------------------------------
G---------------------------------
D--4-------------5-----4----------
A--2-2-2-2-2-2-2-3-3-3-2-2-2-2----
E---------------------------------



E---------------------------------------------
B---------------------------------------------
G---------------------------------------------
D---------------------5---4---------5---4-----
A--2-------2--2-------3---2-2-------3---2-2---
E--0-0-2-3-0--0-0-2-3---0---0-0-2-3---0---0---

11.SILENT SCORN

Tuning: Standard

Riff 1 (clean)
e|---------------------------------|
B|---------------------------------|
G|-------0-----0---------0-----0---|
D|-----2---4-2---2-----2---4-2---2-|
A|---2---------------2-------------|
E|-0---------------0---------------|

e|---------------------------------|
B|---------------------------------|
G|-------0-----0---------0-----0---|
D|-----2---4-2---2-----2---4-2---2-|
A|---3---------------3-------------|
E|-0---------------0---------------|

e|---------------------------------|
B|---------------------------------|
G|-------0-----0---------0-----0---|
D|-----2---4-2---2-----3-----4---4-|
A|---4---------------1-----2-------|
E|-0---------------0---------------|

e|---------------------------------|
B|---------------------------------|
G|-------0-----0---------0-------0-|
D|-----2---4-2---2-----2-------2---|
A|---2---------------4-------3-----|
E|-0---------------0-------0-------|


Riff 2 (Solo Rhythm)
Guitar 1 (clean)
e|---------------------------------|
B|---------------------------------|
G|-------0-----0---------0-----0---|
D|-----2---4-2---2-----2---4-2---2-|
A|---2---------------2-------------|
E|-0---------------0---------------|

e|---------------------------------|
B|---------------------------------|
G|-------0-----0---------0-----0---|
D|-----2---4-2---2-----2---4-2---2-|
A|---3---------------3-------------|
E|-0---------------0---------------|

e|---------------------------------|
B|---------------------------------|
G|-------0-----0---------0-----0---|
D|-----2---4-2---2-----3-----4---4-|
A|---4---------------1-----2-------|
E|-0---------------0---------------|

e|---------------------------------|
B|---------------------------------|
G|-------0-----0---------0-------0-|
D|-----2---4-2---2-----2-------2---|
A|---2---------------4-------3-----|
E|-0---------------0-------0-------|


Guitar 2 (acoustic)
e|-----7--------7------7-------7--|
B|-------5---------------5--------|
G|---4--------4------4-------4----|
D|--------------------------------|
A|--------------------------------|
E|-0---------------0--------------|

e|-----7--------7------7-------7--|
B|-------5---------------5--------|
G|---5--------5------5-------5----|
D|--------------------------------|
A|--------------------------------|
E|-0---------------0--------------|

e|-----7--------7-------------------|
B|-------5-------------8-------8----|
G|---6--------6------9------11---11-|
D|-----------------8------9---------|
A|----------------------------------|
E|-0--------------------------------|

e|-----7----------7------7------7---|
B|-------5------5------5------5---5-|
G|---4--------4------6------5-------|
D|----------------------------------|
A|----------------------------------|
E|-0--------------------------------|


Guitar 3 (Trumpet arranged for guitar)
e|-15--15-14-14-12-12-------------------------------------|
B|-------------------12-12--------------------12-12-------|
G|------------------------14-14-12-12-14-14-14-----12-----|
D|---------------------------------------------------14~~-|
A|--------------------------------------------------------|
E|--------------------------------------------------------|

e|--------------|
B|-12-------12--|
G|----12--------|
D|-------14-----|
A|--------------|
E|--------------|

e|-------------12----------|
B|-11----10----12----------|
G|------------------12~~~--|
D|-------------------------|
A|-------------------------|
E|-------------------------|


Solo (Mustaine)
e|------------------------------------------|
B|---5~~---7b8---5~~--------------7b8---5~~-|
G|-4-------------------4-4/5~~--------------|
D|------------------------------------------|
A|------------------------------------------|
E|------------------------------------------|

e|------------------------------8-7------7------------|
B|---------7b8--5~------------------10-8---10-8-------|
G|-5--5/6-----------6~--7~~--x------------------7-9~~-|
D|----------------------------------------------------|
A|----------------------------------------------------|
E|----------------------------------------------------|

e|---------------------------------------|
B|-----8----(8)\------7~--------/5-3---3-|
G|-4-5------------4-5-------4-5------5---|
D|---------------------------------------|
A|---------------------------------------|
E|---------------------------------------|

e|-------------------------------------------------|
B|-------------------------------------------------|
G|-------------------------------------------------|
D|-/9--9-8--9------------------------9-------------|
A|--x--x-x--x----7-9-10-9-7-6-7--------10-9-7-9-10-|
E|-/7--7-6--7--------------------/7~---------------|

e|--------------------------------------------------|
B|--------------------------------------------------|
G|--------------------------------------------------|
D|-/10-10-9-10--------------------------------------|
A|---x--x-x--x----7-9-10-9-7-6-7------7-10-9-7-9-10-|
E|--/8--8-7--8--------------------/8----------------|

e|----------------------------------------------------------|
B|----------------------------------------------------------|
G|-------------------------------7-9------------------------|
D|-/11-11-10-11-----------7-9-10----10-9~~--8~\--5---5------|
A|---x--x--x--x----7-9-10--------------------------7---7~~\-|
E|--/9--9--8--9---------------------------------------------|

e|--------------|
B|--------------|
G|--------------|
D|----------2/--|
A|-/4~--3~------|
E|--------------|

End solo


Riff 2 (Solo Rhythm)
Guitar 1 (clean)
e|---------------------------------|
B|---------------------------------|
G|---------------------2-------0---|
D|-----2-------0-----2-------2---2-|
A|---2-------2-----0-----2-3-------|
E|-0-----2-3-----3-----------------|

Final time
e|--------------------------------|
B|-----------------------------1--|
G|---------------------2------0---|
D|-----2-------0-----2-------2----|
A|---2-------2-----0-----2--3-----|
E|-0-----2-3-----3----------------|


Guitar 2 (Trumpet arranged for guitar)
e|-----------------------------------|
B|-------------17~-------------------|
G|-19-17-16-16-------16-16--18-18~~--|
D|-----------------------------------|
A|-----------------------------------|
E|-----------------------------------|


Solo (Mustaine)
NOTE: A trumpet plays along with the guitar, except
at the end of the solo as noted.
e|-------------------------------------------------|
B|-----------------12--------12-12h13-12~----------|
G|------11-11h12~------14~~----------------14~-12~-|
D|-14~---------------------------------------------|
A|-------------------------------------------------|
E|-------------------------------------------------|

e|----------------------------------------------------|
B|-----------------12---------------------------------|
G|------11-11h12~------14~~---------------------------|
D|-14~---------------------------------------------12-|
A|---------------------------15-14~-------12-14-15----|
E|----------------------------------14-15-------------|

e|-------------------------------------------------|
B|----------------12--------12-12h13-12~-----------|
G|------11-11h12~-----14~~----------------14~--12~-|
D|-14~---------------------------------------------|
A|-------------------------------------------------|
E|-------------------------------------------------|

2 guitars for last bar:

Guitar 1
e|--------------------------19----17~~-----19-----20~~~-|
B|-/17~~-----17----20~~---------------------------------|
G|--------16----16-------16----16-------16-----16-------|
D|------------------------------------------------------|
A|------------------------------------------------------|
E|------------------------------------------------------|

Guitar 2 (trumpet arranged for guitar)
e|-------------------------/19----17~~-----19-----20~~~-|
B|-/17~~-----19----20~~---------------------------------|
G|------------------------------------------------------|
D|------------------------------------------------------|
A|------------------------------------------------------|
E|------------------------------------------------------|

End solo

12.RETURN TO HANGER

INTRO RIFF
|------------------------------|
|------------------------------|
|------------------------------|
|--2---22---2---2---2---2---22-|
|--2---22---2---2---2---2---22-|
|--0---00---0---0---0---0---00-|
   .   ..   .   .   .   .   ..
  first 3 times

|------------------------------|
|------------------------------|
|------------------------------|
|--2---22---2---2---2---2---5--|
|--2---22---2---2---2---2---5--|
|--0---00---0---0---0---0---3--|
   .   ..   .   .   .   .  let ring
  fourth time

   RIFF A
|------------------------------|
|------------------------------|
|------------------------------|
|--2---22---2---2---2---2---22-|
|--2---22---2---2---2---2---22-|
|--0---00---0---0---0---0---00-|
   .   ..   .   .   .   .   ..

|---------------------------------------|
|---------------------------------------|
|---------------------------------------|
|--10---1010---10---10---10---10---1010-|
|--10---1010---10---10---10---10---1010-|
|---8----8-8----8----8----8----8----8-8-|
    .    . .    .    .    .    .    . .

|------------------------------|
|------------------------------|
|------------------------------|
|--7---77---7---7---7---7---77-|
|--7---77---7---7---7---7---77-|
|--5---55---5---5---5---5---55-|
   .   ..   .   .   .   .   ..

|----------------------------|
|----------------------------|
|----------------------------|
|--8---88---8---9---9---99\\-|
|--8---88---8---9---9---99\\-|
|--6---66---6---7---7---77\\-|
   .   ..   .   .   .    slide down


   RIFF B  (solo backing for the first two leads)
|-------------------------------------------------|
|-------------------------------------------------|
|-------------------------------------------------|
|-------------------------------------------------|
|--2~--2-----2~---2--2--2--2---1~--1-----1~-------|
|--------3-0------0--0--0--0---------3-0----------|
      pm----     pm---------      pm----

|-----------------------------------------------------|
|-----------------------------------------------------|
|-----------------------------------------------------|
|-----------------------------------------------------|
|--2--2--2--2---2~--2-----2~---2--2--2--2---1~--1-----|
|--0--0--0--0---------3-0------0--0--0--0---------3-0-|
  pm---------      pm----     pm---------      pm----

|--------------------|
|--------------------|
|--------------------|
|--------------------|
|--2~--0-----2-0-----|
|--------3-0-----3-0-|



   HARMONY          1,2,3      4
|--------------------------|---------------------------|
|--------------------------|---------------------------|
|--------------------------|---------------------------|
|--------------------------|-------------------9h10p9~-|
|--9~--10--7~--------------|--9~--10--12~--10----------|
|--------------7-7h8p7~----|---------------------------|
  guitar one

                    1,2,3      4
|--------------------------|-----------10~-----12h13p12~-|
|--10~--12--8~-------------|--12~--13------13------------|
|--------------10-9h10p9~--|-----------------------------|
|--------------------------|-----------------------------|
|--------------------------|-----------------------------|
|--------------------------|-----------------------------|
  guitar two


  last time
|----------------------------------------------------|
|----------------------------------------------------|
|----------------------------------------------------|
|--------------9~----------------9h10p9~-------------|
|--12~--10--7-----9--10--12~--9-----------10-9h10p9~-|
|----------------------------------------------------|
  guitar one

   last time
|--------------12~-------10~-----12h13p12~--------------|
|--13~--12--10-----12-13-----13------------13-12h13p12~-|
|-------------------------------------------------------|
|-------------------------------------------------------|
|-------------------------------------------------------|
|-------------------------------------------------------|
  guitar two


|----------------------------------|
|----------------------------------|
|----------------------------------|
|--2-------2-------2-------2-------|
|--2-------2-------2-------2-------|
|--0-------0-------0-------0-------|
 let each chord ring
  guitar one


|----------------------------------|
|--12----------------------(12)\\\-|
|----------------------------------|
|----------------------------------|
|----------------------------------|
|----------------------------------|
 let ring until (12) then slide down
  guitar two


   RIFF C   (also the backing riff for the end solos)
|----------------------------------------------------------------|
|----------------------------------------------------------------|
|----------------------------------------------------------------|
|-------------5-------------5--5-------------5-------------5--5--|
|-------------5-------------5--5-------------5-------------5--5--|
|--0000000000-3--0000000000-3--3--0000000000-3--0000000000-3--3--|
  pm---------   pm---------      pm---------   pm---------
              .             .  .             .             .  .

   RIFF D
|------------------------------------------|
|------------------------------------------|
|--------------------------------5----4----|
|--2----4----5----7----9----2----5----4----|
|--2----4----5----7----9----2----3----2----|
|--0----2----3----5----7----0--------------|



   SOLO 1   (start this solo a little before the backing riff starts)
|---------------------------------------------------------------------|
|---------------------------------------------------------------------|
|----9-11-12-14-12-14-14b16---b16~--/16--17-----15b16r15-15-15~-----9-|
|-/9-----------------------------------------14------------------/9---|
|---------------------------------------------------------------------|
|---------------------------------------------------------------------|


|-------------------------------12----14----15-14-12h14p12-14-15-14h15p14-|
|----------------------------12----12----12-------------------------------|
|--11-12-11-9h11p9---9-11-12----------------------------------------------|
|------------------9------------------------------------------------------|
|-------------------------------------------------------------------------|
|-------------------------------------------------------------------------|


|--------------------------------AH-------------AH-AH--------------------|
|--15h17p15----15-15b17~-------------------------------------------------|
|-----------16-------------3b4---b4-b4-b4-b4r3---3-3~--------------------|
|------------------------------------------------------------------7---5-|
|----------------------------------------------------------5---7---------|
|------------------------------------------------------7-7---7---7---7---|
                                                      pm--  pm  pm  pm

|-----------------------------------------------------------|
|-----------------------------------------------------------|
|-----------------------12-11h12p11----12-14-11-12-14b16~~--|
|----7---5-5-7-5--8b9~--------------14----------------------|
|-----------------------------------------------------------|
|--7---7----------------------------------------------------|
  pm  pm


   SOLO 2                                          AH  AH
|---------------------------------------------------------------------|
|------------------------------------------14b15--b15-b15~-----AH-----|
|-/9-8-9~--/12-11-12~--/16-15-16-16-12\\------------------------------|
|--------------------------------------------------------------13-----|
|-----------------------------------------------------------14----14--|
|---------------------------------------------------------------------|
                                  slide down                pm    pm

|--14b15r14--12-15-12h15p12-14-12h14p12--------------------------AH--|
|----------------------------------------15*-13*-12*-----------------|
|----------------------------------------------------14*-12*-10*-9~--|
|--------------------------------------------------------------------|
|--------------------------------------------------------------------|
|--------------------------------------------------------------------|


|--AH---------------------------------12---------------------------|
|----------------------------------------12------------------------|
|--14b16---b16-b16-b16-b16--r14p11-12-------12-11-9-11-12-11-7-9~--|
|------------------------------------------------------------------|
|------------------------------------------------------------------|
|------------------------------------------------------------------|


|------------------------------------------------------------------------|
|--13-12h13p1210---------------------------------------------------------|
|----------------12-11h12p11-9-------------------------------------------|
|-----------------------------------9-8-----7-5----------5---------------|
|-------------------------------7-9-----7-9------5-5-7-5-----7-5-7\\\----|
|------------------------------------------------------------------------|
                               pm--    pm--     pm------       slide down



   SOLO 3
|-----12-15-14~---15----12~------12-15-14~--15-17-17b19~--/22~--19-20-|
|-/12----------------12------/12--------------------------------------|
|---------------------------------------------------------------------|
|---------------------------------------------------------------------|
|---------------------------------------------------------------------|
|---------------------------------------------------------------------|


|--19h20p19-17-15-17-14-15-12-14-10-12-10-12-12-12----------------------|
|-----------------------------------------12-12-12-11~--12-11~--11-12~--|
|-----------------------------------------------------------------------|
|-----------------------------------------------------------------------|
|-----------------------------------------------------------------------|
|-----------------------------------------------------------------------|



   SOLO 4
|-----------------------------------------------------------------------|
|-----------------------------------------------------------4~--005-007-|
|-----------------------------------------------------------------------|
|------------------------7----------------------------------------------|
|----------6~----6---7------10-9-7-10-9-7-6-9-7-6---7-6-----------------|
|--8~--7~------7---7---7--------------------------8-----8---------------|
               pm  pm  pm

                           w/ wah
|----------------------------/14~--12-11----12-11-------11-------------|
|-008-0010-0012-0013-0016-0--------------13-------13-12----13-12-10-13-|
|----------------------------------------------------------------------|
|----------------------------------------------------------------------|
|----------------------------------------------------------------------|
|----------------------------------------------------------------------|

           +-+-+-
|------------------|
|--12-10-8-7~~~~~--|
|------------------|
|------------------|
|------------------|
|------------------|
at the end of the solo (7~~) switch
repeatedly between bass and treble
with your pedal

   SOLO 5
|--------------------------------------------------------------|
|--15b17--b17r15p12-15b17--b17r15p12-15p14p12--12h14p12s10-12~-|
|--------------------------------------------------------------|
|--------------------------------------------------------------|
|--------------------------------------------------------------|
|--------------------------------------------------------------|

  [--------6-------]  [------6------] [-----6-----]  AH
|-/17p15p12-15p12s10--12p10s7-10p7s5---7p5s3-5p3s2--------------------|
|----------------------------------------------------5~---------------|
|---------------------------------------------------------------------|
|--------------------------------------------------------/5---/9-8s10-|
|-----------------------------------------------------------7---------|
|---------------------------------------------------------------------|


|-----------------------------/14-15p14p12p0--/15-17p15p14p0-----------|
|----------------------------------------------------------------------|
|-----------------10----9\\\----------------------------------12-14-15-|
|--9s12-10s9-7s10----10------------------------------------------------|
|----------------------------------------------------------------------|
|----------------------------------------------------------------------|
                       slide down
            AH
|-----------12~-|
|--12-14-15-----|
|---------------|
|---------------|
|---------------|
|---------------|


   SOLO 6
|--14h15p14----14h15p14----14h15p14----14h15p14-17-14h15p14----14h15p14----|
|-----------17----------15----------17----------------------17----------15-|
|--------------------------------------------------------------------------|
|--------------------------------------------------------------------------|
|--------------------------------------------------------------------------|
|--------------------------------------------------------------------------|


|--14h15p14----14h15p14-17-14h15p14----14h15p14----14h15p14----14h15p14----|
|-----------17----------------------17----------15----------17----------15-|
|--------------------------------------------------------------------------|
|--------------------------------------------------------------------------|
|--------------------------------------------------------------------------|
|--------------------------------------------------------------------------|

                                                     AH     AH  AH     AH
|--15p14p12----12------------------------------------15b16--12--15b16--12--|
|-----------15----14-12h14p12----12----------------------------------------|
|-----------------------------14----14-12h14p12-12~------------------------|
|--------------------------------------------------------------------------|
|--------------------------------------------------------------------------|
|--------------------------------------------------------------------------|

   AH     AH     AH
|--15b16--12-----------------15p14p12-12121212-17p15p12-12121212-15p14p12-|
|-------------12-----12---------------------------------------------------|
|----------------12-----12~-----------------------------------------------|
|-------------------------------------------------------------------------|
|-------------------------------------------------------------------------|
|-------------------------------------------------------------------------|


|--15p14p12-12121212-17p15p12-1212-15p14p12-/19---19-19~--------------------|
|---------------------------------------------------------------------------|
|---------------------------------------------------------------------------|
|------------------------------------------------------------------16-17-19-|
|---------------------------------------------------------16-17-19----------|
|---------------------------------------------------------------------------|
                                                         pm-------

|--------------------19---19-19~--------------------------------------19---|
|-----------16-17-19-----------------------------------------16-17-19------|
|--16-17-19-----------------------------------------16-17-19---------------|
|------------------------------------------16-17-19------------------------|
|---------------------------------16-17-19---------------------------------|
|--------------------------------------------------------------------------|
                                 pm-------

|-19-19~--------------------------------------19---19-19~------------|
|------------------------------------16-17-19------------------------|
|---------------------------16-17-19---------------------------------|
|------------------16-17-19------------------------------------------|
|---------16-17-19-----------------------------------------16-17-19--|
|--------------------------------------------------------------------|
         pm-------                                        pm-------


|-----------------------------19\\\--|
|--------------------16-17-19--------|
|-----------16-17-19-----------------|
|--16-17-19--------------------------|
|------------------------------------|
|------------------------------------|
                           slide down

   OUTRO
|-----|
|-----|
|-----|
|--2--|
|--2--|
|--0--|

13.WHEN

Tuning: Standard

Riff 1  (Play 4 times)
Guitar 1 (acoustic)
e|---------0---------------0-------|
B|-------0---0-----------0---0-----|
G|-----5-------5-------5-------5---|
D|---7-----------7---7-----------7-|
A|-0---------------7---------------|
E|---------------------------------|
                    "No one..."
e|---------0-------------------------|
B|-------0---0-----------------------|
G|-----5-------5-------5-----5-----5-|
D|---7-----------7---7-----7-----7---|
A|-6---------------------------------|
E|-----------------8-----7-----6-----|
  "...hears a word I say..."

Guitar 2 (distortion) x4
e|---------------------|
B|---------------------|
G|---------------------|
D|---------------------|
A|-10--9--8--7--(7)\\--|
E|--8--7--6--5--(5)\\--|


Riff 2
Guitar 1 (acoustic)              x12
e|---------------------------------|
B|---------------------------------|
G|-----5-------5-------5-------5---|
D|---7---7---7---7---7---7---7---7-|
A|-0-------7-------6---------------|
E|-------------------------8-------|
  "But you'll never see the pain inside of me..."


Guitar 2 (distortion)
                 x7
e|----------------|----------|
B|----------------|----------|
G|----------------|----------|
D|----------------|--------7-|
A|-10-9-8-7-(7)\\-|-10-9-8-5-|
E|--8-7-6-5-(5)\\-|--8-7-6---|


Guitar 3 (Use random whammy pulls on these notes, listen
          for when to change)
e|-------------------------------|
B|----------15*----17*------17*--|
G|-14*------------------14*------|
D|-------------------------------|
A|-------------------------------|
E|-------------------------------|



Riff 3
Guitar 1 (acoustic)
e|---------------------------------|
B|-----3-------3-------3-------3---|
G|---2---2---2---2---2---2---2---2-|
D|-0-----------------------3-------|
A|---------0-------1---------------|
E|---------------------------------|
  "And the oath I take on this day..."
e|---------------------------------|
B|-----3-------3-------3-------3---|
G|---2---2---2---2---2---2---2---2-|
D|-0-------------------------------|
A|---------0-------1-------3-------|
E|---------------------------------|
  "...is to know that you will be repaid..."
e|---------------------------------|-------------------|
B|-----3-------3-------3-------3---|-----3-------3-----|
G|---2---2---2---2---2---2---2---2-|---2---2---2---2---|
D|-0-----------------------3-------|-0-----------------|
A|---------0-------1---------------|---------0-------1-|
E|---------------------------------|-------------------|


Guitar 2 (Use random whammy pulls on these notes, listen
          for when to change)
e|---------------------------------------------------|
B|----------------------------------15*--------------|
G|-----------------14*--------14*---------17*--------|
D|---------12*---------------------------------------|
A|--5*------------------0*---------------------0*-0*-|
E|---------------------------------------------------|


Riff 4
Guitar 1 (acoustic)
e|---------------------------------|
B|---------------------------------|
G|-----0-------0-------0-------0---|
D|---2---2---2---2---2---2---2---2-|
A|---------2-------1-------0-------|
E|-0-------------------------------|
  "One day the sun will die..."


Guitar 2 (distortion)
                    x8
e|-------------------|---------|
B|-------------------|---------|
G|-------------------|---------|
D|-------------------|---------|
A|--5--4--3-------2--|-5--4--3-|
E|--3--2--1-0-0-0-0--|-3--2--1-|
            * * *

Guitar 3 (Use random whammy pulls on these notes, listen
          for when to change)
e|------------------------------------|
B|-15*----17*---------17*-------------|
G|--------------17*----------12*--15*-|
D|------------------------------------|
A|------------------------------------|
E|------------------------------------|

e|-----------12tr15*----|
B|----------------------|
G|-14*------------------|
D|----------------------|
A|----------------------|
E|----------------------|


Riff 5 (Distortion, Play 4x)
e|-------------------------------|
B|-------------------------------|
G|-------------------------------|
D|-------------------------------|
A|-------------------------------|
E|-0-0-0-0-0-0----0-0-0-0-0-0----|
   * * * * * *    * * * * * *
e|------------------------------|
B|------------------------------|
G|------------------------------|
D|------------------------------|
A|----------------------5--4--3-|
E|-0-0-0-0-0-0----0-0-0-3--2--1-|
   * * * * * *    * * *

Riff 5a
e|----------------------------------|
B|----------------------------------|
G|----------------------------------|
D|----------------------------------|
A|------------3~--2~--------/6~-7~--|
E|-0--3~--2~---------3~--2~---------|


Riff 6
e|---------------------------------|
B|---------------------------------|
G|---------------------------------|
D|---------------------------------|
A|---------5/7---------7/8-----7/8-|
E|-0-0-0-0-3/5-0-0-0-0-5/6-0-0-5/6-|
   * * * *     * * * *     * *
  "When no words are spoken..."


Riff 7
e|-----------------------------------|
B|-----------------------------------|
G|-----------------------------------|
D|---------7/9---------9/10-----9/10-|
A|---------5/7---------7/-8-----7/-8-|
E|-7-7-7-7-----7-7-7-7------7-7------|
   * * * *     * * * *      * *
  "It all seems so deceitful..."

Play Riff 6   "When judgement has failed you..."
Play Riff 7   "It all seems so deceitful..."
Play Riff 6   "When judgement has failed you..."

Riff 8
e|---------------------|
B|---------------------|
G|---------------------|
D|-9-9-9-9-9---------7-|
A|-7-7-7-7-7-9-8-7-5-5-|
E|-----------7-6-5-3-5-|

e|---------------------------------|
B|---------------------------------|
G|---------------------------------|
D|---------------------------------|
A|---------5/7---------7/8-----7/8-|
E|-0-0-0-0-3/5-0-0-0-0-5/6-0-0-5/6-|
   * * * *     * * * *     * *
                      x3
e|---------------------|-------------------|
B|---------------------|-------------------|
G|---------------------|-------------------|
D|-9-9-9-9-9---------7-|-9-9-9-9-9---------|
A|-7-7-7-7-7-9-8-7-5-5-|-7-7-7-7-7-9-8-7-5-|
E|-----------7-6-5-3-5-|-----------7-6-5-3-|


Riff 9 (solo rhythm)                    x4
e|---------------------------------------|
B|---------------------------------------|
G|---------------------------------------|
D|---------------------------------------|
A|---------------------------------------|
E|-000-000---000-000---000-000---000-000-|
   *** ***   *** ***   *** ***   *** ***
                                          x2
e|-----------------------------------------|
B|-----------------------------------------|
G|-----------------------------------------|
D|-----------------------------------------|
A|-----------------------------------------|
E|-777777777777777777-6666666666-5555-3333-|
   ****************** ********** **** ****
e|---------------------------------------|
B|---------------------------------------|
G|---------------------------------------|
D|---------------------------------------|
A|---------------------------------------|
E|-000-000---000-000---000-000---000-000-|
   *** ***   *** ***   *** ***   *** ***
                                          x3
e|-----------------------------------------|
B|-----------------------------------------|
G|-----------------------------------------|
D|-----------------------------------------|
A|-----------------------------------------|
E|-777777777777777777-6666666666-5555-3333-|
   ****************** ********** **** ****
                                          x4
e|-----------------------------------------|-----|
B|-----------------------------------------|-----|
G|-----------------------------------------|-----|
D|-----------------------------------------|--2--|
A|-----------------------------------5-4-3-|--2--|
E|-000-000---000-000---000-000---000-3-2-1-|--0--|
   *** ***   *** ***   *** ***   ***


Solos (wah pedal) (Mustaine)
#1
e|-19tm--18tm--15tm--12tm--------|
B|-------------------------------|
G|-------------------------------|
D|-------------------------------|
A|-------------------------------|
E|---------------------------X\\-|

e|--------------------------------|
B|-16p12--17p12--16p12--15p12--12-|
G|------15-----15-----15-----15---|
D|--------------------------------|
A|--------------------------------|
E|--------------------------------|

e|---------------------------------------|
B|-15p12--16p12--17p12--16p12--15p12--12-|
G|------15-----15-----15-----15-----15---|
D|---------------------------------------|
A|---------------------------------------|
E|---------------------------------------|

e|---------------------------------------|
B|-15p12--16p12--17p12--16p12--15p12--12-|
G|------15-----15-----15-----15-----15---|
D|---------------------------------------|
A|---------------------------------------|
E|---------------------------------------|

e|---------------------------------------|
B|-15p12--16p12--17p12--16p12--15p12--12-|
G|------15-----15-----15-----15-----15---|
D|---------------------------------------|
A|---------------------------------------|
E|---------------------------------------|

e|-12h17p12--12-12h17p12--12-12h17p12--12-12h17p12--12-|
B|---------15-----------15-----------15-----------15---|
G|-----------------------------------------------------|
D|-----------------------------------------------------|
A|-----------------------------------------------------|
E|-----------------------------------------------------|

e|-12h17p12--12-12h17p12--12-12h17p12--12-12h17p12--12-|
B|---------15-----------15-----------15-----------15---|
G|-----------------------------------------------------|
D|-----------------------------------------------------|
A|-----------------------------------------------------|
E|-----------------------------------------------------|

e|-12h17p12--12-12h17p12--12-12h17p12--12-12h17p12--12-|
B|---------15-----------15-----------15-----------15---|
G|-----------------------------------------------------|
D|-----------------------------------------------------|
A|-----------------------------------------------------|
E|-----------------------------------------------------|

e|-12h17p12--12-12h17p12--12-12h17p12--12-12h17p12--12-|
B|---------15-----------15-----------15-----------15---|
G|-----------------------------------------------------|
D|-----------------------------------------------------|
A|-----------------------------------------------------|
E|-----------------------------------------------------|

e|-17b19~~-|
B|---------|
G|---------|
D|---------|
A|---------|
E|---------|

#2
e|-------------------------------------------------------|
B|-------------------------------------------------------|
G|-------------------------------------------------------|
D|-------------------------------------------------------|
A|--------------------12tm-11tm-12tm-11tm-12tm-14tm-12tm-|
E|-/12tm-12tm----13tm------------------------------------|

e|---------------------------------------------------|
B|---------------------------------------------------|
G|---------------------------------------------------|
D|-----------12tm------14tm-12tm-15tm-14tm-12tm/14tm-|
A|-15tm-14tm------15tm-------------------------------|
E|---------------------------------------------------|

e|----------------------------------------------|
B|----------------------------------------------|
G|-14tm-13tm-16tm-14tm-17tm-16tm-14h16~~--16~~--|
D|----------------------------------------------|
A|----------------------------------------------|
E|----------------------------------------------|

e|--------------------------------|
B|--------------------------------|
G|---16~~--16~~--16~~--16~~-...---|
D|-[use artificial harmonics on]--|
A|-[various notes for this bar ]--|
E|--------------------------------|


#3
e|-20tm-19tm--17tm--16tm-------------------|
B|------------------------18tm--17tm--15tm-|
G|-----------------------------------------|
D|-----------------------------------------|
A|-----------------------------------------|
E|-----------------------------------------|

e|------------------------------------------------|
B|------------------------------------------------|
G|-17tm--16tm--14tm--13tm-------------------------|
D|-------------------------15tm--14tm--12tm--10tm-|
A|------------------------------------------------|
E|------------------------------------------------|

e|---------------------------------------------|
B|---------------------------------------------|
G|---------------------------------------------|
D|-9tm--7tm--6tm-------------------------------|
A|----------------8tm--7tm--5tm--3tm--2tm------|
E|-----------------------------------------5tm-|

e|--------------------|
B|--------------------|
G|--------------------|
D|--------------------|
A|--------------------|
E|-4tm--1tm--0tm--1tm-|

e|---------------------------------------------|
B|---------------------------------------------|
G|---------------------------------------------|
D|---------------------------------------------|
A|----[steady gliss]---------------------------|
E|-/2tm/3tm/4tm/5tm/6tm/7tm/8tm/9tm/10tm/-/12--|

End solo

Ending (fades out):
Guitar 1 (acoustic)
e|---------------------------------|
B|---------------------------------|
G|-----0-------0-------0-------0---|
D|---2---2---2---2---2---2---2---2-|
A|---------2-------1-------0-------|
E|-0-------------------------------|


Guitar 2 (distortion)
                    x8
e|-------------------|---------|
B|-------------------|---------|
G|-------------------|---------|
D|-------------------|---------|
A|--5--4--3-------2--|-5--4--3-|
E|--3--2--1-0-0-0-0--|-3--2--1-|
            * * *

Guitar 3 (Use random whammy pulls on these notes, listen
          for when to change)
e|-----------------------12tr15*---|
B|---------------------------------|
G|-16*--14~~--16*--14~~------------|
D|---------------------------------|
A|---------------------------------|
E|---------------------------------|
comments
We did not receive enough feedback on this tab! Please rate:
print report bad tab
1 2 3 4 5
I want to post or [tab]
guest
You may want to rate the tab now too:
select rating
Please do not post tabs as comments. Select "correction" instead!