Oops, an error
Loading. Please wait.

Youthanasia Tab

ver1
ver1

Album

Whole song

Interactive

More versions @911Tabs.com
33,075 views 51 this week
1 commentread comment
1 2 3 4 5
excellent!
x 5
Autoscroll
+/-
esc
set tempo
stop
Contributor
Hey! There's an official Ultimate Guitar app which is ideal
for learning songs when you're away from computer. Get the app
WARNING: You are trying to view
                                    content from Ultimate-Guitar.com
                                    in an unauthorized application,
                                    which is prohibited.

                                    Please use an official Ultimate
                                    Guitar Tabs application for iPhone,
                                    iPad or Android to access legitimate
                                    chords, guitar, bass, and drum tabs
                                    from Ultimate-Guitar.com database.

                                    Type "ultimate guitar tabs" in Apple
                                    App Store's or Android Market's
                                    search to find the application.
Band- Megadeth
Album- Youthanasia

1.RECKONING DAY

Tuning: Eb

Riff 1
eb|-----------------------------------------------|
Bb|-----------------------------------------------|
Gb|-----------------------------------------------|
Db|---------7----------6-----5--------------------|
Ab|---------7----------6-----5--------------------|
Eb|-0-0-0-0----0-0-0-0---0-0------0-0-0-0-0-0-0-0-|
    * * * *    * * * *   * *      * * * * * * * *
                                "I like the way..."

Riff 2
eb|-----------------------------------------------|
Bb|-----------------------------------------------|
Gb|---------4----------3-----2--------------------|
Db|---------4----------3-----2--------------------|
Ab|-----------------------------------------------|
Eb|-2-2-2-2----2-2-2-2---2-2------2-2-2-2-2-2-2-2-|
    * * * *    * * * *   * *      * * * * * * * *
   "...losing game..."


Riff 3
eb|-----------------------------------------------|
Bb|-----------------------------------------------|
Gb|---------5----------7-----4--------------------|
Db|---------5----------7-----4--------------------|
Ab|-0-0-0-0----0-0-0-0---0-0------0-0-0-0-0-0-0-0-|
Eb|-----------------------------------------------|
    * * * *    * * * *   * *      * * * * * * * *
   "...all to stop..."


Riff 4
eb|--------------------|
Bb|--------------------|
Gb|--------------------|
Db|--------------------|
Ab|-2----------2---0---|
Eb|-0----0-2-3---2-----|
         * *
   "...empty skies..."


Solo over Riff 4
eb|------------------------------|
Bb|-17b20~~--17b20r17-17p15-19~~-|
Gb|------------------------------|
Db|------------------------------|
Ab|------------------------------|
Eb|------------------------------|

eb|-------------------------------|
Bb|-------15----------------------|
Gb|-14h16----16-14\12-14~~--(14)\-|
Db|-------------------------------|
Ab|-------------------------------|
Eb|-------------------------------|

End solo


Riff 5
eb|-------------------------------|
Bb|-------------------------------|
Gb|---------5-------7-------------|
Db|-7-------5-------7-------------|
Ab|-7---5h7-----7p5-----7p5-8--7--|
Eb|-------------------------8--7--|
                    "Don't want no revenge..."


Riff 1    "...day..."

Solo over Riff 1
eb|------------------------------------|
Bb|------------------------------------|
Gb|-------12-------------------14------|
Db|-12h14----14~~-(14)\--11/14----14~~-|
Ab|------------------------------------|
Eb|------------------------------------|

eb|----------------------------------------|
Bb|-------12----12-------------------------|
Gb|----------------15-14-12-14b16r14--12~~-|
Db|-12/14----14----------------------------|
Ab|----------------------------------------|
Eb|----------------------------------------|

eb|------------------------------------------|
Bb|-------------12-------------12------------|
Gb|-------------12-------------12--12-14-15--|
Db|-------------12-12-13-14-14---------------|
Ab|-12-13-14-14------------------------------|
Eb|------------------------------------------|

eb|-------12-15-15b17~--15-12-----------------------------------|
Bb|-12-15---------------------15-12-------15-12-----------------|
Gb|---------------------------------14-12-------14-12-------11~-|
Db|---------------------------------------------------14-12-----|
Ab|-------------------------------------------------------------|
Eb|-------------------------------------------------------------|

End solo


Play Riff 2   "I like the things..."
Play Riff 3   "...are prey for me..."
Play Riff 4   "...to the ground..."

Solo over Riff 4
eb|---------12---------------12---------|
Bb|-15b17~-----15-12-15b17~-----15-12---|
Gb|-------------------------------------|
Db|-------------------------------------|
Ab|-------------------------------------|
Eb|-------------------------------------|

eb|-15b17-15-12--------------------------------------------|
Bb|-------------15b17-15-12--------------------------------|
Gb|-------------------------14b16-14-12--------------------|
Db|-------------------------------------14-12--------------|
Ab|-------------------------------------------13-12--(12)\-|
Eb|--------------------------------------------------------|

End solo

Play Riff 5  "Don't want no revenge..."


Guitar fill leading into next section:
eb|---------|
Bb|---------|
Gb|---------|
Db|---------|
Ab|-3h5-3-2-|
Eb|---------|


Interlude (5 Guitars, displayed sequentially)

Riff 6
Guitar 1
eb|----------------------------------------|
Bb|----------------------------------------|
Gb|----------------------------------------|
Db|--7-----------------10------------------|
Ab|--7-----------------10------------------|
Eb|--5------------------8------------------|

eb|----------------------------------------|
Bb|----------------------------------------|
Gb|-10------------------7------------------|
Db|-10------------------7------------------|
Ab|--8------------------5------------------|
Eb|----------------------------------------|

eb|----------------------------------------|
Bb|----------------------------------------|
Gb|--7-------------------------------------|
Db|--7------------------9------------------|
Ab|--5------------------9------------------|
Eb|---------------------7------------------|

1st Ending
eb|----------------------------------------|
Bb|----------------------------------------|
Gb|-10-----------------9-------------------|
Db|-10-----------------9-------------------|
Ab|--8-----------------7-------------------|
Eb|-----------------------------10--8--7---|

2nd Ending
eb|-----------------------------------------|
Bb|-----------------------------------------|
Gb|-10-10-10-10-10-10-10-10-9-9-9-9-9-9-9-9-|
Db|-10-10-10-10-10-10-10-10-9-9-9-9-9-9-9-9-|
Ab|--8--8--8--8--8--8--8--8-7-7-7-7-7-7-7-7-|
Eb|-----------------------------------------|


Guitar 2 (Acoustic)
eb|------------8--------------------8----------|
Bb|---------10---10--------------10---10-------|
Gb|-------9---------9----------9---------9-----|
Db|----10-------------10----10-------------10--|
Ab|--------------------------------------------|
Eb|--------------------------------------------|

eb|------------8------------------8-7-------|
Bb|---------10---10-------------9-----10----|
Gb|-------9---------9---------7----------9--|
Db|----10-------------10----9---------------|
Ab|-----------------------------------------|
Eb|-----------------------------------------|

eb|----------0----------------0--------|
Bb|--------6---6------------3---3------|
Gb|------7-------7--------4-------4----|
Db|----7-----------7----4-----------4--|
Ab|------------------------------------|
Eb|------------------------------------|

1st Ending
eb|------------8------------------------------|
Bb|---------10---10-------------9h10p9--------|
Gb|-------9---------9---------7--------10-9-7-|
Db|----10-------------10----9-----------------|
Ab|-------------------------------------------|
Eb|-------------------------------------------|

2nd Ending
eb|------------8--------------------7--------|
Bb|---------10---10-----------9---9---9------|
Gb|-------9---------9-----------7-------7----|
Db|----10-------------10----9-------------9--|
Ab|------------------------------------------|
Eb|------------------------------------------|


Guitar 3  (use half-step whammy dives on the notes with a *)
eb|-------------------------------------------|
Bb|-------------------------------------------|
Gb|-------------------------------------------|
Db|-------------------------------------------|
Ab|-----------------------2/7----(7)*-(7)*-10-|
Eb|-5*----------------------------------------|

eb|------------------------------------------------|
Bb|------------------------------------------------|
Gb|------------------------------------------------|
Db|------------------------------------------------|
Ab|-5----(5)*-(5)*----3h5p3-2--(2)*-(2)*-(2)*-(2)*-|
Eb|------------------------------------------------|

eb|----------------------------------------|
Bb|----------------------------------------|
Gb|----------------------------------------|
Db|----------------------------------------|
Ab|-5----(5)*-(5)*--3--2----(2)*-(2)*-(2)*-|
Eb|----------------------------------------|

eb|--------------------------------------------|
Bb|--------------------------------------------|
Gb|--------------------------------------------|
Db|--------------------------------------------|
Ab|-8*----(8)*-(8)*-(8)*-(8)*--7---------------|
Eb|-----------------------------------10--8--7-|


Guitar 4  (use half-step whammy dives on the notes with a *)
eb|------------------------------------------|
Bb|------------------------------------------|
Gb|------------------------------------------|
Db|------------------------------------------|
Ab|----------------------2--3----------------|
Eb|-5----(5)*-(5)*-(5)*----------------------|

eb|------------------------------------------|
Bb|------------------------------------------|
Gb|------------------------------------------|
Db|------------------------------------------|
Ab|-8----------------7----5------------------|
Eb|------------------------------------------|

eb|-------------------------------------|
Bb|-------------------------------------|
Gb|-------------------------------------|
Db|-------------------------------------|
Ab|-5----(5)*-(5)*-----2----------------|
Eb|-------------------------------------|

eb|-----------------------------------------|
Bb|-----------------------------------------|
Gb|-----------------------------------7-5-4-|
Db|-----------------------------------------|
Ab|-8*----------------7---------------------|
Eb|-----------------------------------------|

eb|---------------------------------------|
Bb|---------------8-----------------------|
Gb|-------7h9~-------7~----5-(5)h7p5-4~~--|
Db|-7~------------------------------------|
Ab|---------------------------------------|
Eb|---------------------------------------|

eb|-------------------------------------------------------|
Bb|-------------------------------------------------------|
Gb|-7~---5-(5)h7p5-4~--/10~\--/10~\--/12~\--/12~\--/14~~~-|
Db|-------------------------------------------------------|
Ab|-------------------------------------------------------|
Eb|-------------------------------------------------------|

End Riff 6


Play Riff 5  "Don't want no revenge..."
Play Riff 1  "...day...."

Riff 1a
eb|----------------------------|
Bb|----------------------------|
Gb|----------------------------|
Db|---------7----------6-----5-|
Ab|---------7----------6-----5-|
Eb|-0-0-0-0----0-0-0-0---0-0---|
    * * * *    * * * *   * *
   "Here comes the reckoning day..."

2.TRAIN OF CONSEQUENCES

Tuning: Eb

NOTE: For the intro riff, there is a specific way to
pick it.  I've included upstroke and downstroke notation,
which is: ^=downstroke V=upstroke.

Riff 1
eb|--------------------------------|
Bb|--------------------------------|
Gb|--------------------------------|
Db|-x-x--x----x-x-x--x--x--2p0-----|
Ab|-x-x--x----x-x-x--x--x------2p0-|
Eb|-x-x--x----x-x-x--x--x----------|
    ^ V  V    V ^ V  V  V
eb|-----------------------------------|
Bb|-----------------------------------|
Gb|-----------------------------------|
Db|-x-x--x----x-x-x--x--x-x-x-x-x-x-x-|
Ab|-x-x--x----x-x-x--x--x-x-x-x-x-x-x-|
Eb|-x-x--x----x-x-x--x--x-x-x-x-x-x-x-|
    ^ V  V    V ^ V  V  V ^ V ^ V ^ V
eb|--------------------------------|
Bb|--------------------------------|
Gb|--------------------------------|
Db|-x-x--x----x-x-x--x--x--2p0-----|
Ab|-x-x--x----x-x-x--x--x------2p0-|
Eb|-x-x--x----x-x-x--x--x----------|
    ^ V  V    V ^ V  V  V
eb|---------------------------|
Bb|---------------------------|
Gb|---------------------------|
Db|-x-x--x----x-x-x--x--x-----|
Ab|-x-x--x----x-x-x--x--x--8\-|
Eb|-x-x--x----x-x-x--x--x--6\-|
    ^ V  V    V ^ V  V  V


Riff 2
eb|--------------------------------------|
Bb|--------------------------------------|
Gb|--------------------------------------|
Db|-----4---------------4----------------|
Ab|---4---------------4------------------|
Eb|-2------2-3-2-0--2------2~--2-2-3-2-0-|
             * * *             * * * *
        "...in for the kill..."
eb|--------------------------------------|
Bb|--------------------------------------|
Gb|-----6-------------4----------2-------|
Db|---6---------------4----------2-------|
Ab|-4------4-5-4-0-2----5-4-2-0----5-4-0-|
Eb|--------------------------------------|
             * * *      * * *      * *
         "...oh you know I will..."


Riff 3
eb|------------------------------|
Bb|------------------------------|
Gb|-----9-7~----9------9-7~----9-|
Db|---6-------6------7-------7---|
Ab|-7--------------5-------------|
Eb|------------------------------|
    "Send the ball..."
eb|---------------------------------|
Bb|---------------------------------|
Gb|---------------------------------|
Db|-------------------------------7-|
Ab|---7-10------9-12----7-10----4---|
Eb|-8-------/10-------8-------5-----|
    "...train of consequences..."


Play Riff 1  "No horse..."
Play Riff 2  "...hocked my brains..."
Play Riff 3  "Send the roll..."


Riff 4 (Solo Rhythm)
eb|-------------------------|
Bb|-------------------------|
Gb|-------------------------|
Db|-------------------------|
Ab|-5h7-7-7-8p7p5-7-----5-7-|
Eb|-----------------7~------|
        * *
eb|---------------------------------|
Bb|---------------------------------|
Gb|---------------------------------|
Db|----------------7--7-7-7-7-6-5---|
Ab|-3h5-------3h5/----------------7-|
Eb|-----0h3h5-----------------------|

eb|-----------------------|
Bb|-----------------------|
Gb|-----------------------|
Db|-2-----------2-------2-|
Ab|-3-x-x-3p0---0--2--5-0-|
Eb|-----------3----0--3---|

eb|-----------------------|
Bb|-----------------------|
Gb|-----------------------|
Db|-2-----------2-------7-|
Ab|-3-x-x-3p0---0-----4---|
Eb|-----------3----5~-----|



Solo (Friedman)
eb|------------------------------12-----------------|
Bb|-12tr15--------15b17--(17)~~-----15-12-15b17~~~~-|
Gb|-------------------------------------------------|
Db|-------------------------------------------------|
Ab|-------------------------------------------------|
Eb|-------------------------------------------------|

eb|-12-----------------------------------------------|
Bb|----14p12-----------------------------------------|
Gb|----------14b16r14p12-14~~~---14-12---------------|
Db|------------------------------------14-12-12h14~~-|
Ab|--------------------------------------------------|
Eb|--------------------------------------------------|

eb|--------------------------------------|
Bb|--------------------------------------|
Gb|--------------------------------------|
Db|-12\10--------------------------------|
Ab|-------12p10h12p10-12h13p12p10--------|
Eb|-------------------------------12~~~\-|

eb|-0--0--0--0-0-0--0-0-0--0-0-0--0-0--0--10-----10----|
Bb|-0--0--5--5-5-3--3-3-5--5-5/8--8-8/10-----10-----10-|
Gb|----------------------------------------------------|
Db|----------------------------------------------------|
Ab|----------------------------------------------------|
Eb|----------------------------------------------------|

eb|-10-10/12--10-----------------|
Bb|--------------12-11-10--------|
Gb|-----------------------12~~\--|
Db|------------------------------|
Ab|------------------------------|
Eb|------------------------------|

eb|--------------------------------------------|
Bb|--------------------------------------------|
Gb|-/12-14-15-16-15-14-12-14-15-16-15-14-12----|
Db|-----------------------------------------14-|
Ab|--------------------------------------------|
Eb|--------------------------------------------|

eb|-----------------------------------------------|
Bb|------------------------------------12-15------|
Gb|-14b16r14p12----14-12~~----12-14b16------14b16-|
Db|-------------14--------------------------------|
Ab|-----------------------------------------------|
Eb|-----------------------------------------------|

eb|----12--------------------12-----------------|
Bb|-12---------12-15------12---------12-15------|
Gb|------14b16------14b16------14b16------14b16-|
Db|---------------------------------------------|
Ab|---------------------------------------------|
Eb|---------------------------------------------|

eb|-------12----------------12-------------15b17~~~-|
Bb|-12h15----15p12----12h15----15p12----12----------|
Gb|----------------14----------------14-------------|
Db|-------------------------------------------------|
Ab|-------------------------------------------------|
Eb|-------------------------------------------------|

eb|-15-14-15~~-15~~~~\------------------14-15-17p15-|
Bb|----------------------------------17-------------|
Gb|-------------------------------16----------------|
Db|-------------------------16-17-------------------|
Ab|----------------------19-------------------------|
Eb|-------------------------------------------------|

eb|-14-15-17-19p17-15-17-19-20-22-22b24~~-|
Bb|---------------------------------------|
Gb|---------------------------------------|
Db|---------------------------------------|
Ab|---------------------------------------|
Eb|---------------------------------------|

End Solo


Play Riff 3  "Send the ball..."
Play Riff 1

3.ADDICTED TO CHAOS

Tuning: Eb

Riff 1
eb|--------------------------------------------|
Bb|--------------------------------------------|
Gb|--------------------------------------------|
Db|-5------------------5--4------------------5-|
Ab|-7-----------5h7-------5-----------5h7------|
Eb|---0-0-0-5h7------0------0-0-0-5h7------0---|
      * * *          *      * * *          *
      "Only yesterday..."
eb|--------------------------------------------|
Bb|--------------------------------------------|
Gb|--------------------------------------------|
Db|-5------------------5--7------------------5-|
Ab|-4-----------5h7-------5-----------5h7------|
Eb|---0-0-0-5h7------0------0-0-0-5h7------0---|
      * * *          *      * * *          *
    "...all these normal people..."

Final time:
eb|---------------------------------|
Bb|---------------------------------|
Gb|---------------------------------|
Db|-5------------------5--5----2--4-|
Ab|-4-----------5h7-------3----0--2-|
Eb|---0-0-0-5h7------0--------------|
      * * *          *
    "...in my heart, a hole in my head..."


Riff 2
Guitar 1
eb|-------------------------------|
Bb|-------------------------------|
Gb|-------------------------------|
Db|-------------------------------|
Ab|---2------5------2--------7----|
Eb|-0----3-2----2-3----3-/5----5\-|
                      "Who will help me up..."
eb|-------------------------------|
Bb|-------------------------------|
Gb|-------------------------------|
Db|-------------------------------|
Ab|---2------5------2-----/7------|
Eb|-0----3-2----2-3----3--/5------|
                  "Where's the helping hand..."
eb|-------------------------------|
Bb|-------------------------------|
Gb|-------------------------------|
Db|-------------------------------|
Ab|---2------5------2--------7----|
Eb|-0----3-2----2-3----3-/5----5\-|
                 "Will you turn on me..."
eb|----------------|
Bb|----------------|
Gb|----------------|
Db|----------------|
Ab|---2------5-----|
Eb|-0----3-2----2--|
   "Is this my final..."

Guitar 2
eb|--------------------------------|
Bb|--------------------------------|
Gb|-----------7--------------------|
Db|---9----7----7-----9-------10-9-|
Ab|-7---10--------10----10--7------|
Eb|--------------------------------|

eb|--------------------------------|
Bb|--------------------------------|
Gb|-----------7--------------------|
Db|---9----7----7-----9------------|
Ab|-7---10--------10----10--7~-----|
Eb|--------------------------------|

eb|--------------------------------|
Bb|--------------------------------|
Gb|-----------7--------------------|
Db|---9----7----7-----9-------10-9-|
Ab|-7---10--------10----10--7------|
Eb|--------------------------------|

eb|-----------------|
Bb|-----------------|
Gb|-----------7-----|
Db|---9----7----7---|
Ab|-7---10----------|
Eb|-----------------|


Riff 2a
eb|-------------------------------------------------|
Bb|-------------------------------------------------|
Gb|-------------------------------------------------|
Db|-2p0--------2p0--------2p0----------5-------2--4-|
Ab|-----2-1-0------2-1-0------2-1-0----3-3-3-3-0--2-|
Eb|---------------------------------0---------------|
        * * *      * * *      * * * *    * * *
    "..stand...oh...."


Riff 3
Guitar 1                         x3
eb|-------------------------------|
Bb|-------------------------------|
Gb|------7-6~-----------5-4~------|
Db|----5------7-5-----3------5-3--|
Ab|-0--------------0--------------|
Eb|-------------------------------|
                    "In a dream..."
eb|-------------------------------|
Bb|-------------------------------|
Gb|------4-5~-4-------------------|
Db|----2--------5--3--2-----------|
Ab|-0-------------------3-2-------|
Eb|-------------------------3-1p0-|
   "...me...       "I'm addicted..."


Guitar 2                                 x3
eb|---------------------------------------|
Bb|------15-14~--------------13-12~-------|
Gb|---12--------14-12-----10--------12-10-|
Db|---------------------------------------|
Ab|-0-------------------0-----------------|
Eb|---------------------------------------|

eb|-------------------------------------|
Bb|-----12-13~--12----------------------|
Gb|---9------------12--10-9-------------|
Db|-------------------------10-9--------|
Ab|-0----------------------------10-8-7-|
Eb|-------------------------------------|
                                    * *

Guitar 3                            x3
eb|----------------------------------|
Bb|----------------------------------|
Gb|----------------------------------|
Db|-2--------------------------------|
Ab|-0----------x-x-3------5------x-x-|
Eb|------------x-x-1------3------x-x-|

eb|-----------------------------------|
Bb|-----------------------------------|
Gb|-----------------------------------|
Db|-2------------------3--2-----------|
Ab|-0-----------------------3-2-------|
Eb|-----------------------------3-1p0-|


Play Riff 1  Solo Rhythm

Solo
eb|--------------------------------------------------|
Bb|--------------------------------------------------|
Gb|-/9-11-12--9-11-12--12b14~~---11-12-11------------|
Db|--------------------------------------12----------|
Ab|----------------------------------------12-14-14\-|
Eb|--------------------------------------------------|

End solo

Play Riff 1   "Light shined on my path..."

Fill over Riff 1
Guitar 2                           x2
eb|---------------------------------|
Bb|--8-----7-----5------------------|
Gb|---------------------------------|
Db|--5-----4-----2------------------|
Ab|---------------------------------|
Eb|---------------------------------|
   "The rain comes down..."

Guitar 3 (comes in last time only)
eb|---------------------------------|
Bb|-12----10-----8------------------|
Gb|---------------------------------|
Db|--9-----7-----5------------------|
Ab|---------------------------------|
Eb|---------------------------------|
   "Turn up my collar..."


Play Riff 2   "Who will help me up?"
Play Riff 2a


Riff 3a
Guitar 1                         x3
eb|-------------------------------|
Bb|-------------------------------|
Gb|------7-6~-----------5-4~------|
Db|----5------7-5-----3------5-3--|
Ab|-0--------------0--------------|
Eb|-------------------------------|
                    "In a dream..."
eb|-------------------------------|
Bb|-------------------------------|
Gb|------4-5~-4-------------------|
Db|----2--------5--3--2-----------|
Ab|-0-------------------3-5--//\\-|
Eb|-------------------------------|
   "...me...       "I'm addicted..."


Guitar 2                                 x3
eb|---------------------------------------|
Bb|------15-14~--------------13-12~-------|
Gb|---12--------14-12-----10--------12-10-|
Db|---------------------------------------|
Ab|-0-------------------0-----------------|
Eb|---------------------------------------|

eb|-------------------------------|
Bb|-----12-13~--12----------------|
Gb|---9------------12--10-9-------|
Db|-------------------------10-12-|
Ab|-0-----------------------------|
Eb|-------------------------------|


Guitar 3                            x3
eb|----------------------------------|
Bb|----------------------------------|
Gb|----------------------------------|
Db|-2--------------------------------|
Ab|-0----------x-x-3------5------x-x-|
Eb|------------x-x-1------3------x-x-|

eb|-----------------------------|
Bb|-----------------------------|
Gb|-----------------------------|
Db|-2------------------3--2-----|
Ab|-0-----------------------3-5-|
Eb|-----------------------------|



Riff 4  (Solo Rhythm)
eb|------------------------------|
Bb|------------------------------|
Gb|------------------------------|
Db|------------------------------|
Ab|-5h7-7-5-7-8-7~---7-5---------|
Eb|----------------------7-6-5-3-|
        * * * *      * * * * * *
eb|--------------------------|
Bb|--------------------------|
Gb|--------------------------|
Db|--------------------------|
Ab|------------------x-x-x-5-|
Eb|-3h5-5-3-5-6-5~---x-x-x-3-|
        * * * *

Riff 5  (Solo Rhythm)
eb|-------------------------------|
Bb|-------------------------------|
Gb|-------------------------------|
Db|-------------------------------|
Ab|-7h9-9-7-9-10-9~---9-7---------|
Eb|-----------------------9-8-7-5-|
        * * *  *      * * * * * *
eb|--------------------------|
Bb|--------------------------|
Gb|--------------------------|
Db|--------------------------|
Ab|------------------x-x-x-7-|
Eb|-5h7-7-5-7-8-7~---x-x-x-5-|
        * * * *


Solo (Friedman)
eb|----------------------|
Bb|----------------------|
Gb|----------------------|
Db|-------------------12-|
Ab|----------12-14-15----|
Eb|-12-13-15-------------|

eb|--------------------------------------------------|
Bb|--------------------------------------------------|
Gb|---------------------------/14--13----------------|
Db|-14~~~----15-14\12-12/14~----------15h18p15\14~~~-|
Ab|--------------------------------------------------|
Eb|--------------------------------------------------|

eb|-------------------------------------------------|
Bb|-------------------------------------------------|
Gb|---------------------/14--13--14--14b16r14-------|
Db|-15-14h15p14p12-14~~-----------------------14~~~-|
Ab|-------------------------------------------------|
Eb|-------------------------------------------------|

eb|---------------------------------------------------|
Bb|---------------------------------15~~--14b15r14----|
Gb|--------------/14--13--14--14b16----------------16-|
Db|-15p14\12/14---------------------------------------|
Ab|---------------------------------------------------|
Eb|---------------------------------------------------|

eb|-----------------------------------------|
Bb|-14b15r14----14--------------------------|
Gb|----------16----12~~-12~-----------------|
Db|-------------------------14p12-14--12-14-|
Ab|-----------------------------------------|
Eb|-----------------------------------------|

eb|---------------------------------14--------|
Bb|--------------------------17b19~-----17-14-|
Gb|--------14~--16b18r16--14------------------|
Db|-14/16~------------------------------------|
Ab|-------------------------------------------|
Eb|-------------------------------------------|

eb|-------------------14-------17-14-------17b19--(19)b20-|
Bb|-17b19-17b19r17b19----17-14-------17-14----------------|
Gb|-------------------------------------------------------|
Db|-------------------------------------------------------|
Ab|-------------------------------------------------------|
Eb|-------------------------------------------------------|

eb|-17b19r17b19-14-----------------------|
Bb|----------------17-14----14-----------|
Gb|----------------------17----16b18r16--|
Db|--------------------------------------|
Ab|--------------------------------------|
Eb|--------------------------------------|

eb|-------------------14-------17p14-------------------17p14-------|
Bb|-------------14-17----17-14-------17p14-17b19-17p14-------17p14-|
Gb|-14----14-16----------------------------------------------------|
Db|----16----------------------------------------------------------|
Ab|----------------------------------------------------------------|
Eb|----------------------------------------------------------------|

eb|-17p14-------17p14----------------17h19h21p19p17h19p17----|
Bb|-------17p14-------17/19-17h19h21----------------------21-|
Gb|----------------------------------------------------------|
Db|----------------------------------------------------------|
Ab|----------------------------------------------------------|
Eb|----------------------------------------------------------|

eb|-17h19h21p19p17h19p17----22b24-22b24~~~-|
Bb|----------------------21----------------|
Gb|----------------------------------------|
Db|----------------------------------------|
Ab|----------------------------------------|
Eb|----------------------------------------|

eb|-22b24r22b24r22b24-22b24\--|
Bb|---------------------------|
Gb|---------------------------|
Db|---------------------------|
Ab|---------------------------|
Eb|---------------------------|

End solo

Play Riff 2   "Who will help me up..."
Play Riff 2a
Play Riff 3   "In a dream..."

Different ending to Riff 3:
Guitar 1
eb|--------------------------------|
Bb|--------------------------------|
Gb|------4-5~--4---------5~-----5~-|
Db|----2----------5----3------4----|
Ab|-0----------------0------0------|
Eb|--------------------------------|
                  "Builds, builds,..."

Guitar 2
eb|--------------------------------------|
Bb|-----12-13~-12----------13~-------13~-|
Gb|---9-----------12----10-------11------|
Db|--------------------------------------|
Ab|-0-----------------0--------0---------|
Eb|--------------------------------------|


Play Riff 3   "In a dream..."


Riff 6
Guitar 1
eb|-------------------------------------|
Bb|-------------------------------------|
Gb|-------------------------------------|
Db|-----------------5-------------7p5---|
Ab|-----7~------5h7-------5~----------7-|
Eb|-0-0-----0-0-------0-0-----0-0-------|
    * *     * *       * *     * *
eb|-------------------------------------|
Bb|-------------------------------------|
Gb|-------------------------------------|
Db|-----------------5-------------7p5---|
Ab|-----4~------5h7-------3~----------7-|
Eb|-0-0-----0-0-------0-0-----0-0-------|
    * *     * *       * *     * *

Guitar 2
eb|-------------------------------------|
Bb|-------------------------------------|
Gb|-----------------4-------------5p4---|
Db|-----4h5-----4h5--------7~---------5-|
Ab|-------------------------------------|
Eb|-0-0-----0-0-------0-0-----0-0-------|
    * *     * *       * *     * *
eb|-------------------------------------|
Bb|-------------------------------------|
Gb|-----------------4-----5~------5p4---|
Db|-----4h5-----4h5-------------------5-|
Ab|-------------------------------------|
Eb|-0-0-----0-0-------0-0-----0-0-------|
    * *     * *       * *     * *

4.A TOUT LE MONDE

verse 1
e-------------------------------|----------------------------------|
B-------------------------------|----------------------------------|
G-----------2----------2--------|---------2-----------2------------|
D-------------------------------|----------------------------------|
A-----4-----------4----------4--|------4----------4----------4-----|
E--2----------2-----------2-----|--0----------0----------0---------|

e-------------------------------|----------------------------------|
B-------------------------------|----------------------------------|
G--------2--------2-------------|--------2-------------2-----------|
D-----4--------4----4-----------|----0-------------2---------------|
A--2--------2-------------------|---------------0------------------|
E------------------------2/3----|-----------3---------------3------|

pre-chorus
e-------------------------------|----------------------------------|
B-------------------------------|----------------------------------|
G--------------------2----------|-----2-h-4----------2--4----------|
D-4----------2--4----2----------|-----2-h-4----------2--4----------|
A-4----------2--4----0----------|--x-------------------------------|
E-2-----------------------------|------------------------------0---|
pm          ......                                  ......

e-------------------------------|----------------------------------|
B-------------------------------|----------------------------------|
G---------------------------2---|---------4----------2---4---------|
D-4-----------4----2--4-----2---|---------4----------2---4---------|
A-4-----------4----2--4-----0---|-----x---2--------------2---x-----|
E-2-------0---2-----------------|----------------------------------|
pm       ..       ......                            ..

e--------------------------------|---------------------------------|
B--------------------------------|---------------------------------|
G-7-7-7-7-7-7-7-7-7-7-7-7-7-7-7-7|---------------------------------|
D-7-7-7-7-7-7-7-7-7-7-7-7-7-7-7-5|---------------------------------|
A-5-5-5-5-5-5-5-5-5-5-5-5-5-5-5-5|---------------------------------|
E--------------------------------|---------------------------------|

chorus
e---------9--------9-------9----|-------7------7------7------------|
B----10-------10----------------|----9------9----------------------|
G-9-------------------9---------|-9---------------9----------------|
D-------------------------------|----------------------------------|
A-------------------------------|----------------------------------|
E-------------------------------|----------------------------------|

e--------7--------7-------7-----|----------5-------5-----5---------|
B----7--------7-----------------|-----7---------7------------------|
G-8-------------------8---------|-6-------------------6------------|
D-------------------------------|----------------------------------|
A-------------------------------|----------------------------------|
E-------------------------------|----------------------------------|



e-------5-------5---------5-----|-------4---------4------4---------|
B----5------5-------------------|----5-------5---------------------|
G-6------------------6----------|-6------------------6-------------|
D-------------------------------|----------------------------------|
A-------------------------------|----------------------------------|
E-------------------------------|----------------------------------|

e-----------2---------2--------2|---0------------------------------|
B------2---------2--------------|---3------------------------------|
G-4------------------------4----|---2------------------------------|
D-------------------------------|---0------------------------------|
A-------------------------------|----------------------------------|
E-------------------------------|----------------------------------|


Guitar 2   verse 2 w/dis     guitar 1 plays verse 1 as well
e-------------------------------|----------------------------------|
B-------------------------------|----------------------------------|
G-----------2----------2--------|---------2-----------2------------|
D-------------------------------|----------------------------------|
A-----4-----------4----------4--|------4----------4----------4-----|
E--2----------2-----------2-----|--0----------0----------0---------|
pm ....       .....       ..      ......     ......     ..

e-------------------------------|----------------------------------|
B-------------------------------|----------------------------------|
G--------2--------2-------------|--------2-------------2-----------|
D-----4--------4----4-----------|----0-------------2---------------|
A--2--------2-------------------|---------------0------------------|
E------------------------2/3----|-----------3---------------3------|
pm ....     ....    ..              ..      ........        ..

pre-chorus
e-------------------------------|----------------------------------|
B-------------------------------|----------------------------------|
G--------------------2----------|-----2-h-4----------2--4----------|
D-4----------2--4----2----------|-----2-h-4----------2--4----------|
A-4----------2--4----0----------|--x-------------------------------|
E-2-----------------------------|------------------------------0---|
pm          ......                                  ......

e-------------------------------|----------------------------------|
B-------------------------------|----------------------------------|
G---------------------------2---|---------4----------2---4---------|
D-4-----------4----2--4-----2---|---------4----------2---4---------|
A-4-----------4----2--4-----0---|-----x---2--------------2---x-----|
E-2-------0---2-----------------|----------------------------------|
pm       ..       ......                            ..

e--------------------------------|---------------------------------|
B--------------------------------|---------------------------------|
G-7-7-7-7-7-7-7-7-7-7-7-7-7-7-7-7|---------------------------------|
D-7-7-7-7-7-7-7-7-7-7-7-7-7-7-7-5|---------------------------------|
A-5-5-5-5-5-5-5-5-5-5-5-5-5-5-5-5|---------------------------------|
E--------------------------------|---------------------------------|

chorus
e---------9--------9-------9----|-------7------7------7------------|
B----10-------10----------------|----9------9----------------------|
G-9-------------------9---------|-9---------------9----------------|
D-------------------------------|----------------------------------|
A-------------------------------|----------------------------------|
E-------------------------------|----------------------------------|

e--------7--------7-------7-----|----------5-------5-----5---------|
B----7--------7-----------------|-----7---------7------------------|
G-8-------------------8---------|-6-------------------6------------|
D-------------------------------|----------------------------------|
A-------------------------------|----------------------------------|
E-------------------------------|----------------------------------|


e-------5-------5---------5-----|-------4---------4------4---------|
B----5------5-------------------|----5-------5---------------------|
G-6------------------6----------|-6------------------6-------------|
D-------------------------------|----------------------------------|
A-------------------------------|----------------------------------|
E-------------------------------|----------------------------------|

e-----------2---------2--------2|---0------------------------------|
B------2---------2--------------|---3------------------------------|
G-4------------------------4----|---2------------------------------|
D-------------------------------|---0------------------------------|
A-------------------------------|----------------------------------|
E-------------------------------|----------------------------------|



Solo..
e-------------------------------|----------------------------------|
B-------------------------------|----------------------------------|
G-11h14-11\9-9h11---------------|-----6----------------------------|
D-----------------9h11---11\9--7|-9--------------------------------|
A-------------------------------|-------9---------7-9-9-------7\4--|
E-------------------------------|-----------7h9--------------------|
                                                      ~~~~~~
e-------------------------------|----------------------------------|
B-------------------------------|----------------------------------|
---------4----6--4----------2-4-|-4^--2-4----2--4-4fb-4p2-4-----2--|
D--------4--4----------2h4------|----------------------------4-----|
A-4h5--5------------------------|----------------------------------|
E-------------------------------|----------------------------------|
                 ~~~~                   ~~~~                    ~~~

e-------------------------------|----------12----------------------|
B-------------------------------|----------------------------------|
G-/11-11-11-11-11-11-11----11---|-14-14fb-----14--13--h14p13-11----|
D-------------------------------|-------------------------------14-|
A-------------------------------|----------------------------------|
E-------------------------------|----------------------------------|
                                     *hold bend

e---------------------------|-------7-10-----7/12-9------------9h12|
B---------------------------|-----8--------8-------10-------10-----|
G--------/11--11/11--11-11\-|--7---------7------------9----9-------|
D-12-12--/12--12/14--12-12\-|/9-------------------------11---------|
A---------------------------|--------------------------------------|
E---------------------------|--------------------------------------|
  ~~~

pre-chorus
e-------------------------------|----------------------------------|
B-------------------------------|----------------------------------|
G----------------------4------x-|--4h6----4--6---------------------|
D-6-----------4--6-----4------x-|--4h6----4--6---------------------|
A-6-----------4--6--------------|--------------------4-------------|
E-4-----------------------------|--------------------4-------------|
pm           .....                       ..          ..

e-------------------------------|----------------------------------|
B-------------------------------|----------------------------------|
G---------------------------4---|---x---4h6--------4---6-----------|
D-6-------------6----4-6----4---|---x---4h6--------4---6-----------|
A-6-------------6----4-6--------|----------------------------------|
E-4----------x--4---------------|----------------------------------|
pm                   ....

e-------------------------------|----------------------------------|
B-------------------------------|----------------------------------|
G-9--9--9--9--9--9--9--9--9--9--|-9--9--9--9--9--9-----------------|
D-9--9--9--9--9--9--9--9--9--9--|-9--9--9--9--9--9-----------------|
A-7--7--7--7--7--7--7--7--7--7--|-7--7--7--7--7--7-----------------|
E-------------------------------|----------------------------------|

chorus:


For the Outro ..both guitars play a separate note each .
but I have tabbed it for one guitar...it gets harder at the end!!

Outro...
e-9-----9------9------9---------|-----------------------------------|
B----12-----------12------14----|------------14--12-----------------|
G-14-13-14--11-14-13--14--11----|------14/11-14--13--14/11-13/9-----|
D-----------11------------------|-14/11------------------------14/11|
A-------------------------------|-----------------------------------|
E-------------------------------|-----------------------------------|
                                                  ~~
e-10-9---10-----10--9---10------|--------------------------9-----9-|
B-12-10--12-11--12--10--12/15---|-15------12-15--14-12--10----12---|
G-----------12-------------11---|-11---12-12-16--14-12--11-14-13-14|
D-------------------------------|---12-12--------------------------|
A-------------------------------|---12-----------------------------|
E-------------------------------|----------------------------------|

e----9-------9------------------|----------------------------------|
B--------12-----14--------------|14--12----------------------------|
G-11-14--13--14-11-------14/11--|14--13---14\11--13\9--------------|
D-11----------------14/11-------|----------------------14/11-------|
A-------------------------------|----------------------------------|
E-------------------------------|----------------------------------|
                                     ~~~
e-10-9---10-----10--9---10------|----------------------------------|
B-12-10--12-11--12--10--12/15---|-15-14----------------------------|
G-----------12-------------11---|-7--6-14--13----------------------|
D-------------------------------|------7---6-14-12-----------------|
A-------------------------------|------------7--5-14-12-11-12-14\9-|
E-------------------------------|-----------------7--5--4--5--7\-2-|

e-------------------------------|--------------------------|--2----|
B-------------------------------|--------------------------|--2----|
G-------------------------------|--------------------------|--2----|
D--------0-----0----------------|-------0------0-----------|--4----|
A----4-----4------4-------4-----|---4-------4-----4------4-|--4----|
E-2-------------------2---------|-2--------------------2---|--2----|

Guitar 2
e-------------------------------|--------------------------|-------|
B-------------------------------|--------------------------|-5fb---|
G-------------------------------|--------------------------|-------|
D-------------------------------|--------------------------|-------|
A-------------------------------|--------------------------|-------|
E-------------------------------|--------------------------|-------|

5.ELYSIAN FIELDS

Tuning: Eb

Intro:
eb|---------|
Bb|---------|
Gb|---------|
Db|----2----|
Ab|----2----|
Eb|----0----|


Riff 1
eb|----------------------|
Bb|----------------------|
Gb|-2~--0-----------5----|
Db|-2~--0--2--------5----|
Ab|--------2--------3----|
Eb|-----------0-0-0------|
              * * *
    "Uneasy feeling..."
eb|-------------------------------|
Bb|-------------------------------|
Gb|-2~--0-------------------------|
Db|-2~--0--2----------------------|
Ab|--------2--------3--3---5--5---|
Eb|-----------0-0-0-1--1-1-3--3-3-|
              * * *      *      *
    "Burning..."

Final time:
eb|---------------------------------|
Bb|---------------------------------|
Gb|-2~--0---------------------------|
Db|-2~--0--2------------------------|
Ab|--------2--------3--3---5--5-----|
Eb|-----------0-0-0-1--1-1-3--3-3-3-|
              * * *      *      * *
    "A blink of..."


Riff 2
eb|-------------------------------|
Bb|-------------------------------|
Gb|-6-----------------------------|
Db|-4------5-------------5--------|
Ab|----4-0-3--0---4------3--------|
Eb|-------------0-2--5-2----5-2-0-|
       * *    * *    * *    * * *
    "One last look..."


Riff 2a
Guitar 1
eb|-------------------------------|
Bb|-------------------------------|
Gb|-6-----------------------------|
Db|-4------5----------------------|
Ab|----4-0-3--0---4--x-x-3--x-x-x-|
Eb|-------------0-2--x-x-1--x-x-x-|
       * *    * *
    "The world don't..."

Guitar 2
eb|-------------------------------|
Bb|-------------------------------|
Gb|-6-----------------------------|
Db|-4------5------11-----10-------|
Ab|----4-0-3--0----9-x-x--8-x-x-x-|
Eb|-------------0----x-x----x-x-x-|
       * *    * *
    "The world don't..."


Riff 3
eb|--------------------------------------------------|
Bb|----7-----5---\1------------3---------------------|
Gb|-9--8--7--6---\2p0-0----/5--4--2--------2-0-------|
Db|-9--9--7--7--------0h2--/5--5--2------------2-0---|
Ab|-------------------------------0--0-3/4---------0-|
Eb|--------------------------------------------------|

   "Elysian fields..."
eb|---------------------------|
Bb|----7-----5--------3-------|
Gb|-9--8--7--6----/5--4--2----|
Db|-9--9--7--7----/5--5--2----|
Ab|----------------------0----|
Eb|---------------------------|
   "Elysian fields..."


Play Riff 1   "Soaring to the..."
Play Riff 2   "One last look..."
Play Riff 2a  "The world don't..."
Play Riff 3   "Elysian fields..."

Guitar fill at the end of Riff 3
eb|------------------------------------------------|
Bb|------------------------------------------------|
Gb|-----16-------16----16----14h16-------14-14~~~\-|
Db|--14----14-14----14----14-------14-14-----------|
Ab|------------------------------------------------|
Eb|------------------------------------------------|
   "...to the elysian fields..."


Lead in to next riff:
eb|----------------|
Bb|----------------|
Gb|----------------|
Db|----------------|
Ab|--0-0-0-0---5-6-|
Eb|----------7-----|
     * * * *

Riff 4 (Solo Rhythm)
eb|-----------------------------------|
Bb|-----------------------------------|
Gb|-----------------------------------|
Db|-----------------------------------|
Ab|-7-6-7~--------5---------------5-6-|
Eb|-----------7-6----5-4-3~----/7-----|
              * *    * *


Solo is done by harmonica


Play Riff 3  "Elysian fields..."

Guitar fill #1
eb|----------------------------|
Bb|-10b12r10-[10]12r10---------|
Gb|--------------------9~~~~~\-|
Db|----------------------------|
Ab|----------------------------|
Eb|----------------------------|
   "...shields..."

Guitar fill #2
eb|--------------------------------------------------------|
Bb|--------------------------------------------------------|
Gb|-----16-------16----16----14h16-------14----14/16-16~~~-|
Db|--14----14-14----14----14-------14-14----14-------------|
Ab|--------------------------------------------------------|
Eb|--------------------------------------------------------|
   "...to the elysian fields..."


Lead in to next riff:
eb|---------------|
Bb|---------------|
Gb|---------------|
Db|---------------|
Ab|-0-0-0-0-0-0-0-|
Eb|---------------|
    * * * * * * *
  "...fields..."


Play Riff 3   "Elysian [we are storming...]"

Ending solo
eb|-7b8----7~~-5~~--------------------------------|
Bb|-----------------8-8-8\5-5\3-3/5~--4~--3~--2~--|
Gb|-----------------------------------------------|
Db|-----------------------------------------------|
Ab|-----------------------------------------------|
Eb|-----------------------------------------------|

eb|---------------5-----------5----------------------|
Bb|-------8b10~~----8p5-----8---8p5-----8------------|
Gb|-5--0----------------7b9---------7b9---7b9r7p5----|
Db|-----------------------------------------------7~-|
Ab|--------------------------------------------------|
Eb|--------------------------------------------------|

End Solo

6.THE KILLING ROAD

pm-palm mute
 |-----------------------------|
 |-----------------------------|
 |-----------------------------|
 |-----------------------------|   x2
 |-----7-----8-----7------8--5-|
 |-0-0--0-0---0-0---0-0--------|
pm - -  - -   - -   - -

 |----------------------------------|
 |----------------------------------|
 |----------------------------------|
 |-----9-----10-----9------10---7---|  x2
 |-----7-----8------7------8----5---|
 |-0-0--0-0-----0-0---0-0----0------|
pm - -  - -     - -   - -    -


 |------------------------------------------------------------------|
 |------------------------------------------------------------------|
 |-----------------------------------------------------------5---4--|
 |--------------------------5-----------3-----3---3--------5----4---|
 |-----7-----8-----7---5---------------------------------6-----5----|
 |-0-0--0-0---0-0----8---7----3-2-1-0-----0-0---0------7------6-----|
pm - -  - -   - -             - - - -     - -   -

7.BLOOD OF HEROES

Tuning: Eb

NOTE: Bass changes root notes from A->C->F->E
Intro
Guitar 1 (Acoustic)               x4
eb|--------------------------------|
Bb|-------0--------------0-----0---|
Gb|-----5---5----------5---5-----5-|
Db|---7-------7------7-------7-----|
Ab|-0--------------0---------------|
Eb|--------------------------------|

Guitar 2 (Distortion, comes in at end)
eb|------|
Bb|------|
Gb|------|
Db|------|
Ab|--3^--|
Eb|------|


Riff 1
eb|--------------------------------|
Bb|--------------------------------|
Gb|--------------------------------|
Db|-2------------------------------|
Ab|-0------3-----5-------3-------5-|
Eb|----3-1---1-0---0-0-0-1-0-0-0-3-|
       * *   * *   * * *   * * *
eb|--------------------------------|
Bb|--------------------------------|
Gb|--------------------------------|
Db|-2------------------------7-----|
Ab|-0------3-----5-------3---5-----|
Eb|----3-1---1-0---0-0-0-1-0---0-3-|
       * *   * *   * * *   *   * *


Riff 2
Guitar 1
eb|--------------------------------|
Bb|--------------------------------|
Gb|--------------------------------|
Db|-2------2---------------2-------|
Ab|-0--2-3---3-2-0-----2-3---3-2-0-|
Eb|----------------1~--------------|
    "Ladies and gents..."
eb|---------------------------------|
Bb|--------5------------------------|
Gb|-----------7---------------------|
Db|----6-7-------7-0--------2-------|
Ab|-5-------------------2-3---5-3-2-|
Eb|------------------0--------------|
    "...by the skin of..."

Guitar 2
eb|--------------------------------|
Bb|--------------------------------|
Gb|--------------------------------|
Db|-2------2---------------2-------|
Ab|-0--2-3---3-2-0-----2-3---3-2-0-|
Eb|----------------1~--------------|

eb|-----------------------------------|
Bb|--------8--6-----------------------|
Gb|----6-7-------7--------------------|
Db|----------------7\---------2-------|
Ab|-5---------------------2-3---5-3-2-|
Eb|--------------------0--------------|


Riff 3
Guitar 1
eb|----------------------------|
Bb|----------------------------|
Gb|----------------------------|
Db|----------------------------|
Ab|-3--------5--------6--------|
Eb|-1--------3--------4-0-44-0-|
                        * ** *
Guitar 2
eb|--------------------------------8~-|
Bb|-6~-------8~----5-6-5---5-6-8-5----|
Gb|----------------------7------------|
Db|-----------------------------------|
Ab|-----------------------------------|
Eb|-----------------------------------|

Guitar 3
eb|-------------------------------------12-17~-|
Bb|-6~-------8~----12-13-12----12-13-15--------|
Gb|-------------------------14-----------------|
Db|--------------------------------------------|
Ab|--------------------------------------------|
Eb|--------------------------------------------|


Play Riff 1    "Still alive..."
Repeat Riff 1  "We've been run down..."
Play Riff 2    "Ladies and gents..."


Riff 4 (Solo Rhythm)
eb|--------------------------|
Bb|--------------------------|
Gb|--------------------------| -----|
Db|--------------------------|      |
Ab|-7-8-7--5--3--2-3-2--2--5-|      |
Eb|-5-6-5--3--1--0-1-0--0--3-|      |
                                    |--> Play 3x
Bb|---------------------------|     |
Gb|---------------------------|     |
Db|-----------7--9-10-9--7----|     |
Ab|-7-8-7--5--5--7--8-7--5--8-| ----|
Eb|-5-6-5--3----------------6-|

eb|--------------------------|
Bb|--------------------------|
Gb|--------------------------|
Db|--------------------------|
Ab|-7-8-7--5--3--2-3-2--2--5-|
Eb|-5-6-5--3--1--0-1-0--0--3-|

Bb|----------------------|
Gb|----------------------|
Db|-----------7--9-10-9--|
Ab|-7-8-7--5--5--7--8-7--|
Eb|-5-6-5--3-------------|

eb|-------------------------------|
Bb|-------------------------------|
Gb|-------------------------------|
Db|-------------------------------|
Ab|-2-3-2----2-3-2----2-3-2----2--|
Eb|-0-1-0----0-1-0----0-1-0----0--|


Solo
eb|------------------------------------------|
Bb|------------------------------------------|
Gb|------------------------------------------|
Db|-7-8-7~--5--------------------------------|
Ab|------------8-7-8-7~--3/5--------------/5-|
Eb|---------------------------6-5-6-5~--3----|

eb|--------------------------------------|
Bb|-------------------------------5-6-5~-|
Gb|-----------------------------7--------|
Db|-----------5-6-7--7-8-7~--5-----------|
Ab|------5-6-7---------------------------|
Eb|-5h6h7--------------------------------|

[wah pedal comes in at this point]
eb|---------------------------------|
Bb|---8b10--8b10~--10t8p5-----------|
Gb|-7-----------------------7b9r7p5-|
Db|-------------------------a-------|
Ab|---------------------------------|
Eb|---------------------------------|

eb|-----------------------------------x-|
Bb|-----------------------------------x-|
Gb|-7b9----{7}-{7}-{7}-{7}-(9)~~--7/----|
Db|-------x-----------------------------|
Ab|------x------------------------------|
Eb|-------------------------------------|

eb|-------------------------------------------------|
Bb|-------17-20----------17-20----------17-20-------|
Gb|-19b21-------17-19b21-------17-19b21-------19b21-|
Db|-------------------------------------------------|
Ab|-------------------------------------------------|
Eb|-------------------------------------------------|

eb|----------------------------------------------|
Bb|-17-20-------20-------------------------------|
Gb|-------19h21----17----19----17----20----19-17-|
Db|-------------------19----19----19----19-------|
Ab|----------------------------------------------|
Eb|----------------------------------------------|

eb|-----------------------------------------|
Bb|-----------------------------------------|
Gb|-17\14~--14h17p12-14~--14-12-------------|
Db|-----------------------------14-13-12-13-|
Ab|-----------------------------------------|
Eb|-----------------------------------------|

eb|-----------------------------------------|
Bb|-------------15-12h13--------------------|
Gb|----14-12h13----------14-12h13-----------|
Db|-14----------------------------14-13-12~-|
Ab|-----------------------------------------|
Eb|-----------------------------------------|

eb|---------------------------------|
Bb|-10-11-10~--(10)\-/11-10---------|
Gb|-------------------------12-10-9-|
Db|---------------------------------|
Ab|---------------------------------|
Eb|---------------------------------|

eb|-/12-13-12~--(12)\-/13-12----------|
Bb|--------------------------15-13-11-|
Gb|-----------------------------------|
Db|-----------------------------------|
Ab|-----------------------------------|
Eb|-----------------------------------|

eb|------------------------------------|
Bb|---------13-----15-----17----20b22~-|
Gb|-12/14~----14~----14~----14~--------|
Db|------------------------------------|
Ab|------------------------------------|
Eb|------------------------------------|

eb|-17----------------------------|
Bb|---20p17-----------------------|
Gb|--------19b21r20b21~~----x\-x\-|
Db|-------------------------x\-x\-|
Ab|-------------------------------|
Eb|-------------------------------|

eb|------------------------------|
Bb|-5tr8~----8b9^--(9^)r8p6p5----|
Gb|---------------------------7~-|
Db|------------------------------|
Ab|------------------------------|
Eb|------------------------------|

eb|------------------------------------15-17-19-22b24~~-|
Bb|-----------------12-15------15-16-17-----------------|
Gb|------13-16-12-13-----/15-16-------------------------|
Db|-14-15-----------------------------------------------|
Ab|-----------------------------------------------------|
Eb|-----------------------------------------------------|

End Solo


Play Riff 1   "Still alive..."

Riff 1a                            x4
eb|---------------------------------|
Bb|---------------------------------|
Gb|---------------------------------|
Db|-4-----------------------------5-|
Ab|-2------5-----7--4-5-4-----2---3-|
Eb|----3-2---3-2----2-3-2-2-2-0-2---|
       * *   * *          * *   *


Play Riff 1   "Still alive..."

Ending
eb|-------------------------------|
Bb|-------------------------------|
Gb|-------------------------------|
Db|-------------------------------|
Ab|-3--------5--------6--------7\-|
Eb|-1--------3--------4-0-44-0-5\-|
                        * ** *
   "Ahh..."

8.FAMILY TREE

Tuning: Eb

NOTE: The intro is played with 2 guitars, one with
distortion and the other with a clean tone.  The
notes at the end of the last bar are only played
by the distorted guitar.

Intro
eb|------0----------0----------0----------0-|
Bb|----5----------3----------1----------3---|
Gb|-/4------4\2-2------2\0-0------0-0/2-----|
Db|-----------------------------------------|
Ab|-----------------------------------------|
Eb|-----------------------------------------|

eb|---------0----------0----------0----------0-|
Bb|-------5----------3----------1----------3---|
Gb|-2-2/4------4\2-2------2\0-0------0-0/2-----|
Db|--------------------------------------------|
Ab|--------------------------------------------|
Eb|--------------------------------------------|

eb|-------0----0-------------------------|
Bb|------------0-------------------------|
Gb|-2---4------4-------------------------|
Db|---4--------4----5^--2----------------|
Ab|---------------------------2--------2-|
Eb|-----------------------3-2-0--------0-|
                          * *

Riff 1
Guitar 1
eb|-----------------------------------|
Bb|-----------------------------------|
Gb|-----------------------------------|
Db|-----------------------------------|
Ab|---7-7---9-10---7---7h9-7---9---7~-|
Eb|-0-----0------0---0-------8---0----|
    *     *      *   *       *   *
    "Conspiracy of silence..."
eb|------------------------------------|
Bb|------------------------------------|
Gb|------------------------------------|
Db|------------------------------------|
Ab|---9-7---9-10---7---7h9-7---9---10~-|
Eb|-0-----8------0---0-------8---0-----|
    *     *      *   *       *   *
    "The only way out of pain..."
eb|-----------------------------------|
Bb|-----------------------------------|
Gb|-----------------------------------|
Db|-----------------------------------|
Ab|---7-7---9-10---7---7h9-7---9---7~-|
Eb|-0-----8------0---0-------8---0----|
    *     *      *   *       *   *
    "...is turn around..."
eb|--------------------------------|
Bb|--------------------------------|
Gb|--------------------------------|
Db|--------------------------------|
Ab|---9-7---9-10---7---7-6---7--6~-|
Eb|-0-----8------0---0-----7-------|
    *     *      *   *     *
    "Too wet to come in from the rain..."

Guitar 2
eb|----------------------------------|
Bb|----------------------------------|
Gb|----------------------------------|
Db|---5-5---7-9---5---5h7-5---7---5~-|
Ab|-------------------------7--------|
Eb|-0-----0-----0---0-----------0----|
    *     *     *   *       *   *
eb|----------------------------------|
Bb|----------------------------------|
Gb|----------------------------------|
Db|---7-5---7-9---5---5h7-5---7---9~-|
Ab|-------7-----------------7--------|
Eb|-0-----------0---0-----------0----|
    *     *     *   *       *   *
eb|----------------------------------|
Bb|----------------------------------|
Gb|----------------------------------|
Db|---5-5---7-9---5---5h7-5---7---5~-|
Ab|-------7-----------------7--------|
Eb|-0-----------0---0-----------0----|
    *     *     *   *       *   *
eb|-------------------------------|
Bb|-------------------------------|
Gb|-------------------------------|
Db|---7-5---7-9---5---5-4---5--4~-|
Ab|-------7---------------7-------|
Eb|-0-----------0---0-------------|
    *     *     *   *     *

Riff 2
Guitar 1
eb|--------------------------|
Bb|--------------------------|
Gb|--------------------------|
Db|-5--------------5^--2-----|
Ab|-3--------3-3-3-----------|
Eb|----------------------3-2-|
             * * *       * *
   "...I know they were doing..."
eb|------------------------------|
Bb|------------------------------|
Gb|------------------------------|
Db|------------------------------|
Ab|-2----------------------------|
Eb|-0--0-0-0-0-0-0-0-0-0-0-0-0-0-|
       * * * * * * * * * * * * *
eb|--------------------------|
Bb|--------------------------|
Gb|--------------------------|
Db|-5--------------5^--2-----|
Ab|-3--------3-3-3-----------|
Eb|----------------------3-2-|
             * * *       * *
       "But don't try..."
eb|------------------------------|
Bb|------------------------------|
Gb|------11-11-11-11-11-11-11-11-|
Db|-4-----9--9--9--9--9--9--9--9-|
Ab|-2----------------------------|
Eb|------------------------------|
   "...me..."

Guitar 2
eb|------------------------------|
Bb|-13~~--12~~-------------------|
Gb|-------------14~~--12~~-------|
Db|-------------------------14~~-|
Ab|------------------------------|
Eb|------------------------------|

eb|------------------------------|
Bb|-13~~--12~~-------------------|
Gb|-------------14~~--12~~--11~~-|
Db|------------------------------|
Ab|------------------------------|
Eb|------------------------------|

eb|--------------------------------|
Bb|-/16-16-16-16-16-16-16-16-16-16-|
Gb|-/16-16-16-16-16-16-16-16-16-16-|
Db|-/16-16-16-16-16-16-16-16-16-16-|
Ab|--------------------------------|
Eb|--------------------------------|


Guitar fill over Riff 2
eb|--------------------------------------------------|
Bb|-15b17-15b17~--(17)r15-15-13-12-------------------|
Gb|-------------------------------14-12-11h12p11-----|
Db|---------------------------------------------14~\-|
Ab|--------------------------------------------------|
Eb|--------------------------------------------------|



Riff 3
eb|-------------------------------|
Bb|-------------------------------|
Gb|-------------------------------|
Db|-9------12-11---9--------8-----|
Ab|-7------10--9---7--------6-9---|
Eb|----0-0-------0----0-0-0---7-0-|
       * *       *    * * *     *
        "Let me show you..."
eb|---------------------------|
Bb|---------------------------|
Gb|---------------------------|
Db|-9-------12-11---9---------|
Ab|-7-------10--9---7------10-|
Eb|---0-0-0-------0----0-0--8-|
      * * *       *    * *
   "...love you..."
eb|-------------------------------|
Bb|-------------------------------|
Gb|-------------------------------|
Db|-9------12-11---9--------8-----|
Ab|-7------10--9---7--------6-9---|
Eb|----0-0-------0----0-0-0---7-0-|
       * *       *    * * *     *
        "Let me show you..."
eb|--------------------|
Bb|--------------------|
Gb|--------------------|
Db|-9-------12-11------|
Ab|-7-------10--9---10-|
Eb|---0-0-0-------0--8-|
      * * *       *
   "...love you..."


Play Riff 1   "You hear them say..."
Play Riff 2   "Sing a one note..."

Guitar fill over Riff 2
eb|----------15-17b19~~--15b17-|
Bb|--------17------------------|
Gb|------16--------------------|
Db|-14/17----------------------|
Ab|----------------------------|
Eb|----------------------------|

eb|-14b15r14-12h15p12------------------|
Bb|------------------12-15b17-15b17~~\-|
Gb|------------------------------------|
Db|------------------------------------|
Ab|------------------------------------|
Eb|------------------------------------|


Play Riff 3   "Let me show you..."

Riff 3a
eb|-------------------------------|
Bb|-------------------------------|
Gb|-------------------------------|
Db|-9------12-11---9--------8-----|
Ab|-7------10--9---7--------6-9---|
Eb|----0-0-------0----0-0-0---7-0-|
       * *       *    * * *     *
        "Let me show you..."
eb|---------------------------|
Bb|---------------------------|
Gb|---------------------------|
Db|-9-------12-11---9---------|
Ab|-7-------10--9---7------10-|
Eb|---0-0-0-------0----0-0--8-|
      * * *       *    * *
   "...love you..."
eb|-------------------------------|
Bb|-------------------------------|
Gb|-------------------------------|
Db|-9------12-11---9--------8-----|
Ab|-7------10--9---7--------6-9---|
Eb|----0-0-------0----0-0-0---7-0-|
       * *       *    * * *     *
        "Let me show you..."
eb|--------------------------|
Bb|--------------------------|
Gb|--------------------------|
Db|-9-------12-11------------|
Ab|-7-------10--9---10----9--|
Eb|---0-0-0-------0--8----7--|
      * * *       *
   "...the secret of the family tree..."



Riff 4 (Solo Rhythm)
eb|-------------------------------|
Bb|-------------------------------|
Gb|-------------------------------|
Db|--------------------0-----0-/4-| ----|
Ab|-2----------------0-----2---/5-|     |
Eb|-0--0-0-0-0-0-0-2-----3--------|     |
       * * * * * *                      |--> Play 2x
eb|--------------------------------|    |
Bb|------------------3-----3-------|    |
Gb|--------------------0-----2-----|    |
Db|-2--------------5-----4---------| ---|
Ab|-3--3-3-3-3-3-3-------------5---|
Eb|------------------------------3-|
       * * * * * *
eb|---------------------------------|
Bb|---------------------------------|
Gb|---------------------------------|
Db|---------------------------------|
Ab|-2-2-------------5-5-------------|
Eb|-0-0-0-0-0-0-0-0-3-3-3-3-3-3-3-3-|
        * * * * * *     * * * * * *
eb|---------------------------------|
Bb|---------------------------------|
Gb|---------------------------------|
Db|-2-2-------------5-5-----4-4-----|
Ab|-0-0-0-0-0-0-0-0-3-3-3-3-2-2-2-2-|
Eb|---------------------------------|
        * * * * * *     * *     * *
eb|-----------------------------------------|
Bb|-----------------------------------------|
Gb|-----------------------------------------|
Db|-9-9-9-9-9-9-9-9-12-12-12-12-12-12-12-12-|
Ab|-7-7-7-7-7-7-7-7-10-10-10-10-10-10-10-10-|
Eb|-----------------------------------------|

eb|-----------------------------------------|
Bb|-----------------------------------------|
Gb|-9-9-9-9-9-9-9-9-12-12-12-12-11-11-11-11-|
Db|-7-7-7-7-7-7-7-7-10-10-10-10--9--9--9--9-|
Ab|-----------------------------------------|
Eb|-----------------------------------------|


Solo (Friedman)
eb|----------------------------------------|
Bb|-------------4-7/-----7-10/-------10-13-|
Gb|-4h5p4---4h5------7h8-------10h11-------|
Db|-------7--------------------------------|
Ab|----------------------------------------|
Eb|----------------------------------------|

eb|--------------------------------------------------|
Bb|-10b12r10\5~----5--7-8-8/10--8-7-5/7p5h7p5--(5)\--|
Gb|--------------------------------------------------|
Db|--------------------------------------------------|
Ab|--------------------------------------------------|
Eb|--------------------------------------------------|

eb|-----12-------------------------|
Bb|-/12-12-15p12-------------------|
Gb|--------------15-14-12----12\11-|
Db|-----------------------14-------|
Ab|--------------------------------|
Eb|--------------------------------|

eb|---------------------------------|
Bb|---------------------------------|
Gb|---------------------------------|
Db|---------------------------------|
Ab|-14-13-12-10-12-12b13-12-10------|
Eb|----------------------------12~\-|

eb|--------------------------12-----------|
Bb|-----15-12------------------15p12------|
Gb|-----14-12-------12-14b16--------14b16-|
Db|------------14~------------------------|
Ab|-7/------------------------------------|
Eb|---------------------------------------|

eb|-12--------------------12------15b17r15-14-15~~\-|
Bb|---15p12h15p12h15b17~----15p12-------------------|
Gb|-------------------------------------------------|
Db|-------------------------------------------------|
Ab|-------------------------------------------------|
Eb|-------------------------------------------------|

eb|------12-15-12-----------------------------------------|
Bb|-8/15---------15-12-----15-12--------------------------|
Gb|-------------------14-12-----14-12---------------------|
Db|----------------------------------14-12----------------|
Ab|---------------------------------------14-13-10h12~~~\-|
Eb|-------------------------------------------------------|

eb|-----------------------------------|
Bb|-15-12^----------------------------|
Gb|-14-12^--------14b16--12-14----12~-|
Db|---------14-----------------14-----|
Ab|-----------------------------------|
Eb|-----------------------------------|

eb|------------------------------------------------------|
Bb|--------------15--------------------------------------|
Gb|-12h14-12~-------14b16r14-12----12h14b18r14p12--12\11-|
Db|-----------14----------------14-----------------------|
Ab|----------------------------------------------14------|
Eb|------------------------------------------------------|

eb|------------------------------------|
Bb|------------------------------------|
Gb|------------------------------------|
Db|------------------------------------|
Ab|-14-13-12-10-12-12b13r12p10--10h12~-|
Eb|---------------------------12-------|

eb|--------------------------------------|
Bb|--------------------------------------|
Gb|---------------------12h14p12--14b16--|
Db|------12h14p12--12h14--------14-------|
Ab|-12h14--------14----------------------|
Eb|--------------------------------------|

eb|--------------12----------------12-------12-17-------|
Bb|-12-15-----------15-12-------12----15b17------15b17~-|
Gb|------14b16~-----------14b16-------------------------|
Db|-----------------------------------------------------|
Ab|-----------------------------------------------------|
Eb|-----------------------------------------------------|

eb|-12-----------------15b17-[15]16-[15]17-[15]16-[15]17~\-|
Bb|---15p12------------------------------------------------|
Gb|--------14b16r14p12-------------------------------------|
Db|--------------------------------------------------------|
Ab|--------------------------------------------------------|
Eb|--------------------------------------------------------|

eb|-----15-20p19-15-17--15--------17--14----------------------|
Bb|-/17---------------19--17-19-15--16-----16---13p12-15b17~~-|
Gb|-------------------------------------17----14--------------|
Db|-----------------------------------------------------------|
Ab|-----------------------------------------------------------|
Eb|-----------------------------------------------------------|

End Solo


Riff 3b
eb|-------------------------------|
Bb|-------------------------------|
Gb|-------------------------------|
Db|-9------12-11---9--------8-----|
Ab|-7------10--9---7--------6-9---|
Eb|----0-0-------0----0-0-0---7-0-|
       * *       *    * * *     *
        "Let me show you..."
eb|---------------------------|
Bb|---------------------------|
Gb|---------------------------|
Db|-9-------12-11---9---------|
Ab|-7-------10--9---7------10-|
Eb|---0-0-0-------0----0-0--8-|
      * * *       *    * *
   "...love you..."


Ending solo
eb|-------------------------|
Bb|-------------------------|
Gb|-9~~---------------------|
Db|--------------------10~~-|
Ab|-------------------------|
Eb|-------------------------|

eb|-------------------------|
Bb|-------------------------|
Gb|---------------------9~~-|
Db|-9~~---------------------|
Ab|-------------------------|
Eb|-------------------------|

eb|----------------|
Bb|--------{15}----|
Gb|-14b16--(14)~~--|
Db|----------------|
Ab|----------------|
Eb|----------------|

End solo

9.YOUTHANASIA

Standard Tunning E A D G B E
first intro/pre-chorus part
|--------------------------|
|o------------------------o|
|--------------------------|x3
|--2---4---5---7-------5---|
|o-2---4---5---7----h-----o|
|--0---2---3---5---6-7-----|

intro/pre-chorus end
|------------------------|
|------------------------|
|------------------------|
|--2---4---5---7---8-7---|
|--2---4---5---7---8-7---|
|--0---2---3---5---6-9---|

first verse part
|------------------------------|
|o----------------------------o|
|------------------------------| x3
|---2-2---0-2------------------|
|o------2-----2---------------o|
|-----------------5-3-5-6-5-3--|
    . . . . .     . . . . .
Verse end
|------------------------------|
|------------------------------|
|------------------------------|
|--2-2---0-2-------------0-1---|
|------2-----2---------2-------|
|----------------5-3-5---------|
   . . . . .     . . .
the verse is played twice
and then the pre chorus play
(same as intro)

then the chorus plays
|------------------|
|o----------------o|
|------------------|x3
|------9-----------|
|o--2--7--8--7--5-o|
|---0-----6--5--3--|

the chorus end is just another chourus stoping at the second cord

continue playing the somg and listen to the track for the rythum
and now here comes what i know of the solo
dont worry its easy... i can play it and ive only got a year
and one month experiance under the belt

solo
|------------------------------------------------------------|
|0----------------------------------------------------------o|
|-----------------------------p------------------------------|x2
|-----------------p---p---p--5-0------------------p---p------|
|0------------p--5-0-8-0-7-0------------------p--5-0-8-0-7--o|
|--0-0-0-0-0-6-0-------------------0-0-0-0-0-6-0-------------|

|---------------------|
|---------------------|
|---------------------|
|---------------------|
|-------------9-10-11-|
|-0-0-0-0-0-0-7-8--9--|

the following notes* are played as fast as you can till you get
to the next note...
listen to the song so youll know how long to play each note

|-----------------------------------------------------|
|--17-----------------------------------15b---h--p----|
|---------16-------15--------14-------------12-15-12--|
|-----------------------------------------------------|
|-----------------------------------------------------|
|-----------------------------------------------------|

|-----------------------------15---------22\----------/\------|
|--15------17-------18----------------------\--------/--\-----|
|--------------------------------------------\------/----\----|
|---------------------------------------------\----/------\---|
|----------------------------------------------\--/--------\--|
|-----------------------------------------------\/----------\-|

|---------------------|
|---------------------|
|---------------------|
|---------------------|
|-------------9-10-11-|
|-0-0-0-0-0-0-7-8--9--|

10.I THOUGHT I KNEW IT ALL

uning: Eb

Intro
eb|----------|
Bb|----------|
Gb|----------|
Db|----------|
Ab|--4----3--|
Eb|--2----1--|


Riff 1
eb|------------------------------------|
Bb|------------------------------------|
Gb|------------------------------------|
Db|------------------------------------|
Ab|-----4/5-----7--3------7/8-----7--5-|
Eb|-0-0-2/3-0-0-5--1--0-0-5/6-0-0-5--3-|
    * *     * *       * *     * *


Riff 2
Guitar 1
eb|-------------------------------------|
Bb|-------------------------------------|
Gb|-------------------------------------|
Db|-7-----------------------------------|
Ab|-5--------8--------5--------7--------|
Eb|----------6--------3--------5--------|
    "Maybe I don't like it..."
eb|-------------------------------------|
Bb|-------------------------------------|
Gb|-------------------------------------|
Db|-7-----------------5-------5----7----|
Ab|-5--------8--------2-------3----4----|
Eb|----------6--------------------------|
    "Maybe I don't like it..."

Guitar 2
eb|-----------------------------|
Bb|-----------------------------|
Gb|---2p0---2p0---2p0---2-3-2-0-|
Db|-0-----0-----0-----0---------|
Ab|-----------------------------|
Eb|-----------------------------|

eb|-----------------------------|
Bb|-----------------------------|
Gb|---2p0---2p0---2p0---2-3-2-0-|
Db|-----------------------------|
Ab|-1-----1-----1-----1---------|
Eb|-----------------------------|

eb|-----------------------------|
Bb|-----------------------------|
Gb|---2p0---2p0---2p0---2-3-2-0-|
Db|-----------------------------|
Ab|-----------------------------|
Eb|-3-----3-----3-----3---------|

eb|-----------------------------|
Bb|-----------------------------|
Gb|---2p0---2p0---2p0---2-3-2-0-|
Db|-----------------------------|
Ab|-0-----0-----0-----0---------|
Eb|-----------------------------|

eb|-----------------------------|
Bb|-----------------------------|
Gb|---2p0---2p0---2p0---2-3-2-0-|
Db|-0-----0-----0-----0---------|
Ab|-----------------------------|
Eb|-----------------------------|

eb|-----------------------------|
Bb|-----------------------------|
Gb|---2p0---2p0---2p0---2-3-2-0-|
Db|-----------------------------|
Ab|-1-----1-----1-----1---------|
Eb|-----------------------------|

eb|-----------------------------|
Bb|-----------------------------|
Gb|---2p0---2p0---2p0---2-3-2-0-|
Db|-----------------------------|
Ab|-2-----2-----2-----2---------|
Eb|-----------------------------|

eb|----------------------------------|
Bb|----------------------------------|
Gb|---2p0---2p0---0----2p0---2p0---0-|
Db|----------------------------------|
Ab|-3-----3-----3----4-----4-----4---|
Eb|----------------------------------|



Riff 3
Guitar 1
eb|----------------------------------------------|
Bb|----------------------------------------------|
Gb|----------------------------------------------|
Db|----------5--------2--------7--------9--------|
Ab|-2--------3--------0--------5--------6--------|
Eb|-0--------------------------------------------|
    "I thought I knew it all..."

Guitar 2 & 3 (Guitar 3 notes are in () )
eb|--12p10-12-----------------------------|
Bb|-(12p10-12)---12p10-12-----------------|
Gb|-------------(12p11-12)---12p11-12~~~--|
Db|-------------------------(14p12-14~~~)-|
Ab|---------------------------------------|
Eb|---------------------------------------|

eb|--5p3-5------------------------------------|
Bb|-(5p3-5)---5p3-5---------------------------|
Gb|----------(5p4-5)---5p4-5~~~---/7-----8----|
Db|-------------------(7p5-7~~~)--------------|
Ab|-------------------------------------------|
Eb|-------------------------------------------|


Play Riff 1  "Somewhere there's a..."
Play Riff 2  "Maybe I don't like it..."
Play Riff 3  "I thought I knew it all..."

Guitar fill over Riff 3:
eb|---------------------------------|
Bb|-15b17~~~------------------------|
Gb|------------14-12--(12)^---------|
Db|-------------------------14~~~\--|
Ab|---------------------------------|
Eb|---------------------------------|


Riff 4 (Solo Rhythm)
eb|-------------------------------|
Bb|-------------------------------|
Gb|-------------------------------|
Db|-----4-----3-----2-----3-------|
Ab|-----2-----1-----0-----1-----3-|
Eb|-0-0---0-0---0-0---0-0---0-0-1-|
    * *   * *   * *   * *   * *
eb|-------------------------------|
Bb|-------------------------------|
Gb|-------------------------------|
Db|-----4-----3-----2-----3-----7-|
Ab|-----2-----1-----0-----1-----5-|
Eb|-0-0---0-0---0-0---0-0---0-0---|
    * *   * *   * *   * *   * *


Play Riff 2  Solo Rhythm


Solo (Friedman)
eb|-----------------------------------------|
Bb|-----------------------------------------|
Gb|-16b19~~~~--16--15-14-12-14-14b16-12~~~\-|
Db|-----------------------------------------|
Ab|-----------------------------------------|
Eb|-----------------------------------------|

eb|------------------------------------------|
Bb|------------------------------------------|
Gb|-----------12-----------------------------|
Db|-/12-13-14----14-12-14~-----12-14-12-12~~-|
Ab|-------------------------14---------------|
Eb|------------------------------------------|

eb|-------------------------------------------------------|
Bb|-------------------------------------------------------|
Gb|-------------------------------------------------------|
Db|----------12-------------------------------------------|
Ab|-12-13-14----14-13-12\10-12-10b12r10-12-10b12r10-------|
Eb|-------------------------------------------------12~~\-|

(Wah pedal comes)
eb|----------------------------------------------------|
Bb|-15--15-------(15)-----------15---------------------|
Gb|-14--14b16----(16)b17--14p12----12~~-----------9~~\-|
Db|--------------------------------------14-12-\9------|
Ab|----------------------------------------------------|
Eb|----------------------------------------------------|

eb|--------------------------------------------------|
Bb|-----------12----------------------12-------------|
Gb|-/12-14-15----15-14-12----12-14-15----15-14-12----|
Db|-----------------------14----------------------14-|
Ab|--------------------------------------------------|
Eb|--------------------------------------------------|

eb|-------------------------------------12-------17b19-|
Bb|----------12h15p12----------12-12h15----15p12-------|
Gb|-12-14-15----------15-14-15-------------------------|
Db|----------------------------------------------------|
Ab|----------------------------------------------------|
Eb|----------------------------------------------------|

eb|-15-12-------------------------------------|
Bb|-------15-12-------12h15p12-------12h15p12-|
Gb|-------------14b16----------14b16----------|
Db|-------------------------------------------|
Ab|-------------------------------------------|
Eb|-------------------------------------------|

eb|-15b17~~~~--------12-15-15b17~~--{15}-(17)r15-15~~~-|
Bb|------------12h15-----------------------------------|
Gb|----------------------------------------------------|
Db|----------------------------------------------------|
Ab|----------------------------------------------------|
Eb|----------------------------------------------------|

eb|-13h15p13-12~~--10h12p10-9-12-10~~-|
Bb|-----------------------------------|
Gb|-----------------------------------|
Db|-----------------------------------|
Ab|-----------------------------------|
Eb|-----------------------------------|

eb|-------------------------------------------------|
Bb|-10-11~~--11-11/12~~--12-13-------14-------------|
Gb|----------------------------12~~-----14~~--(14)\-|
Db|-------------------------------------------------|
Ab|-------------------------------------------------|
Eb|-------------------------------------------------|

End Solo


Play Riff 3  "I thought I knew it all..."

Guitar fill over Riff 3
eb|-15b17--14b15r14-12h14p12~~~--|
Bb|------------------------------|
Gb|------------------------------|
Db|------------------------------|
Ab|------------------------------|
Eb|------------------------------|

eb|--------------------------------|
Bb|-15-12--------------------------|
Gb|-------16p15p14p12--12-14^-14~~-|
Db|------------------14------------|
Ab|--------------------------------|
Eb|--------------------------------|

eb|-------------------------------|
Bb|-------------------------------|
Gb|-14b16--14b16-14b16r14p12--12\-|
Db|-------------------------14----|
Ab|-------------------------------|
Eb|-------------------------------|


Riff 5
Guitar 1
eb|-------------------------|
Bb|-------------------------|
Gb|-------------------------|
Db|------------9--------9-7-|
Ab|-2-------xx-7--------7-5-|
Eb|-0-------xx--------------|

eb|-------------------------|
Bb|-------------------------|
Gb|-------------------------|
Db|-5----------5--------5-4-|
Ab|-3-------xx-3--------3-2-|
Eb|---------xx--------------|

eb|-------------------------|
Bb|-------------------------|
Gb|-------------------------|
Db|-2----------4-5----------|
Ab|-0----------2-3--------x-|
Eb|-----------------------x-|


Guitar 2
eb|------------------------------------------|
Bb|------------------------------------------|
Gb|------------------------------------------|
Db|-/7~-------7-9-------7-9-7~-------7-9-----|
Ab|------10~------7~------------10~------7~--|
Eb|------------------------------------------|

eb|--------------------------------------|
Bb|--------------------------------------|
Gb|--------------------------------------|
Db|-7-9-7~-------7--9-9/10~--9-10-9-7----|
Ab|---------10~-----------------------10-|
Eb|--------------------------------------|

Guitar fill over Riff 5
eb|---------------12-15b17~~--15-12-----------------------|
Bb|----------12h15-----------------15-12------------------|
Gb|-/14-12h14---------------------------14b15r14p12--14~~-|
Db|------------------------------------------------14-----|
Ab|-------------------------------------------------------|
Eb|-------------------------------------------------------|



Ending:            x3
eb|-----------------|
Bb|-----------------|
Gb|-----------------|
Db|-----------------|
Ab|--4----3----2----|
Eb|--2----1----0----|
   "Knew it all..."

11.BLACK CURTAINS

Tuning: Eb


Riff 1
eb|---------------------------------------------|
Bb|---------------------------------------------|
Gb|---------------------------------------------|
Db|---------------------------------------------|
Ab|-------------3----------------3------4/5-4/5-|
Eb|-0-0-0-0-0-0-1----0-0-0-0-0-0-1--0-0-2/3-2/3-|
    * * * * * *      * * * * * *    * *


Riff 2
eb|----------------------------|
Bb|----------------------------|
Gb|----------------------------|
Db|-----------------------4--7-|
Ab|-----7-6-5------7-6-5--2--5-|
Eb|-0-0--------0-0-------------|
    * *        * *
       "Hey, look around you..."
eb|--------------------------------|
Bb|--------------------------------|
Gb|--------------------------------|
Db|--------------------------------|
Ab|-----7-6-5------7/8-7/8-4/5-4/5-|
Eb|-0-0--------0-0-5/6-5/6-2/3-2/3-|
    * *        * *
       "Everything's..."
eb|----------------------------|
Bb|----------------------------|
Gb|----------------------------|
Db|-----------------------4--7-|
Ab|-----7-6-5------7-6-5--2--5-|
Eb|-0-0--------0-0-------------|
    * *        * *
       "Listen up..."
eb|--------------------------|
Bb|--------------------------|
Gb|--------------------------|
Db|--------------------------|
Ab|-----7-6-5------7/8-7/8-5-|
Eb|-0-0--------0-0-5/6-5/6-3-|
    * *        * *
       "...run for cover..."


Play Riff 1   "Black curtains..."
Play Riff 2   "Escape, you're joking..."
Play Riff 1   "Black curtains..."


Riff 3
Guitar 1
eb|----------------------------------|
Bb|----------------------------------|
Gb|----------------------------------|
Db|--------------------------2-----4-|
Ab|-4--xx-5-4~-----5-4-------0-----2-|
Eb|-2--xx-------xx-----2-0-2---2-0---|
                       * * *   * *
eb|--------------------------------|
Bb|--------------------------------|
Gb|--------------------------------|
Db|--------------------------2---5-|
Ab|-4-----5-4~-----5-4-------0---3-|
Eb|-2--xx-------xx-----2-0-2---2---|
                       * * *   *

Guitar 2
eb|---------------------------------------------|
Bb|---------15-14~-----15-14---------10------12-|
Gb|-11~--xx---------xx-------11-9-11----11-9----|
Db|------xx---------xx--------------------------|
Ab|---------------------------------------------|
Eb|---------------------------------------------|
                              * *  *     * *
eb|-------------------------------------------|
Bb|---------15-14~-----15-14---------10----13-|
Gb|-11~--xx---------xx-------11-9-11----11----|
Db|------xx---------xx------------------------|
Ab|-------------------------------------------|
Eb|-------------------------------------------|
                              * *  *     *


Riff 4
Guitar 1
eb|------------------------------------|
Bb|------------------------------------|
Gb|------------------------------------|
Db|-9----7-----------------0-2---------|
Ab|-7--9-5-8---7-5-7-5---2-----4/5-4/5-|
Eb|----7---6~--5-3-5-3-0-------2/3-2/3-|
                       * *
       "Am I dreaming?"
eb|------------------------------|
Bb|------------------------------|
Gb|------------------------------|
Db|-9----7-----------------0-2---|
Ab|-7--9-5-8---7-5-7-5---2-----5-|
Eb|----7---6~--5-3-5-3-0-------3-|
                       * *
       "Held for ransom..."

Guitar 2
eb|------------------------------------|
Bb|------------------------------------|
Gb|------------------------------------|
Db|------------------------0-2---------|
Ab|-7----5-----4-2-4-2---2-----4/5-4/5-|
Eb|----7---6~----------0-------2/3-2/3-|
                       * *
eb|------------------------------|
Bb|------------------------------|
Gb|------------------------------|
Db|------------------------0-2---|
Ab|-7----5-----4-2-4-2---2-----5-|
Eb|----7---6~----------0-------3-|
                       * *


Riff 5 (Solo Rhythm)
eb|--------------------------------------------|
Bb|--------------------------------------------|
Gb|--------------------------------------------|
Db|--------------------------------3-----------|
Ab|-----4--------2--------5------0-1----1-0-3--|
Eb|-3-3-2----3-3-0----0-2-3----3------------1--|
    * *      * *      * *      * *      * *
eb|--------------------------------------------|
Bb|--------------------------------------------|
Gb|--------------------------------------------|
Db|--------------------------------3-----------|
Ab|-----4--------2--------5------0-1----1-0-3--|
Eb|-3-3-2----3-3-0----0-2-3----3------------1--|
    * *      * *      * *      * *      * *


Solo (Mustaine)
eb|-----2-----------2---------2----------2--------|
Bb|-------5p2-5b7r5---5p2-------5p2-5b7----5p2----|
Gb|-4b6-------------------4b6---a---a----------4~-|
Db|-----------------------------------------------|
Ab|-----------------------------------------------|
Eb|-----------------------------------------------|

eb|-3h5p3-2h3p2-0h2p0-------------------|
Bb|-------------------3h5p3-2h3p2-0h2p0-|
Gb|-------------------------------------|
Db|-------------------------------------|
Ab|-------------------------------------|
Eb|-------------------------------------|

eb|-0h2h3-3p2p0-2p0---------------------------------|
Bb|-----------------3-5p3p2-2h3h5-5p3p2-3p2p0-2p0---|
Gb|-----------------------------------------------2-|
Db|-------------------------------------------------|
Ab|-------------------------------------------------|
Eb|-------------------------------------------------|

eb|-------------------------------------------------|
Bb|-------------------3h4h6-------------------5h6h8-|
Gb|-2h3h5-------2h3h5-------4h5h7-------4h5h7-------|
Db|-------2h3h5-------------------4h5h7-------------|
Ab|-------------------------------------------------|
Eb|-------------------------------------------------|

eb|-------14-----------14------|
Bb|---------17p14--------17p14-|
Gb|-16b18--------16b18---------|
Db|----------------------------|
Ab|----------------------------|
Eb|----------------------------|

eb|-17p14--19p14---------14-19p17p14-----|
Bb|------14-----14-14h17-------------17~-|
Gb|--------------------------------------|
Db|--------------------------------------|
Ab|--------------------------------------|
Eb|--------------------------------------|

eb|-15h17p15-14h15p14\12h14p12\10h12p10\9h10p9\7h9p7-|
Bb|--------------------------------------------------|
Gb|--------------------------------------------------|
Db|--------------------------------------------------|
Ab|--------------------------------------------------|
Eb|--------------------------------------------------|

eb|-12h14h15-15p14p12-14p12----12-------|
Bb|-------------------------15----15p14-|
Gb|-------------------------------------|
Db|-------------------------------------|
Ab|-------------------------------------|
Eb|-------------------------------------|

eb|-------------------------------------|
Bb|-14h15h17-17p15p14-15p14----15p14----|
Gb|-------------------------16-------15-|
Db|-------------------------------------|
Ab|-------------------------------------|
Eb|-------------------------------------|

eb|----------------------------------|
Bb|-------------------------15h16h18-|
Gb|-14h15h17--------14h15h17---------|
Db|---------14h15h17-----------------|
Ab|----------------------------------|
Eb|----------------------------------|

eb|-------------------------------------------------------|
Bb|-------------------------17h18h20-20b22--(22)r20-18~~\-|
Gb|-16h17h19--------16h17h19------------------------------|
Db|---------16h17h19--------------------------------------|
Ab|-------------------------------------------------------|
Eb|-------------------------------------------------------|

End Solo


Play Riff 1   Solo Rhythm


Solo (Friedman)
eb|---------------------12-15b17~~--/17-17b19~-|
Bb|----------------12-15-----------------------|
Gb|-----------12-14----------------------------|
Db|------12-14---------------------------------|
Ab|-12-14--------------------------------------|
Eb|--------------------------------------------|

eb|-17-15-17-19p15h16b17~~--17-15-17-19p15----------|
Bb|----------------------------------------17b20r17-|
Gb|-------------------------------------------------|
Db|-------------------------------------------------|
Ab|-------------------------------------------------|
Eb|-------------------------------------------------|

eb|---------------------------------------15-----------|
Bb|-15-------------------------------------------------|
Gb|----16-17~~--(17)\-/12~----------14h15----15p14p12~-|
Db|-------------------------14p12----------------------|
Ab|------------------------------14--------------------|
Eb|----------------------------------------------------|

eb|-------------------------19b20~--{19}--(20)r19-22b24~~-|
Bb|-----------------17-20---------------------------------|
Gb|-------16-19----------16-------------------------------|
Db|------------17-19--------------------------------------|
Ab|-17-19-------------------------------------------------|
Eb|-------------------------------------------------------|

eb|-22-20------------------|
Bb|-------22b24r22p20-22~\-|
Gb|------------------------|
Db|------------------------|
Ab|------------------------|
Eb|------------------------|

eb|-/20----------17----------15----------------------|
Bb|-----17-17\15----15-15\13----13-13h15p13\12-13-12-|
Gb|--------------------------------------------------|
Db|--------------------------------------------------|
Ab|--------------------------------------------------|
Eb|--------------------------------------------------|

eb|---------------------------------------------|
Bb|-12h15p13p12--------12--------12h15p12-------|
Gb|-------------14b16-----14b16-----------14b16-|
Db|---------------------------------------------|
Ab|---------------------------------------------|
Eb|---------------------------------------------|

eb|----------------------------------15-|
Bb|-12----12-17p12----12-17p12----12----|
Gb|----14----------14----------14-------|
Db|-------------------------------------|
Ab|-------------------------------------|
Eb|-------------------------------------|

eb|--------------------------------------|
Bb|----12h15p12----12h15-15--------(15)\-|
Gb|-14----------14-------14b16~----(16)\-|
Db|--------------------------------------|
Ab|--------------------------------------|
Eb|--------------------------------------|

End Solo


Play Riff 2  "Snakes, surround me..."
Play Riff 1  "Black curtains..."

12.VICTORY

Tuning: Eb

Riff 1
eb|---------------------------|
Bb|---------------------------|
Gb|---------------------------|
Db|---------------------------|
Ab|-2-2----2-2----2-2----2-2--|
Eb|-0-0----0-0----0-0----0-0--|
    "Now one day..."
eb|-------------------|
Bb|-------------------|
Gb|-------------------|
Db|---5--4-5--2--4-5--|
Ab|-2-3-------3-------|
Eb|-0-----------------|
    "...martyr..."


Riff 2                             x3
eb|---------------------------------|
Bb|---------------------------------|
Gb|---------------------------------|
Db|-------4---2---------------------|
Ab|-4-------------0-2-3-2-0---2-0---|
Eb|-2-2-2---2---2-----------2-----2-|
      * *   *   *         * *   * *
                          "Not even close..."
eb|------------------------------------|
Bb|------------------------------------|
Gb|------------------------------------|
Db|-------4---2-----------5---3-----9\-|
Ab|-4-----------4-3-5-----------5-6-7\-|
Eb|-2-2-2---2-------3-3-3---3----------|
      * *   *         * *   *
   "...close..."


Riff 3
eb|------------------------------|
Bb|------------------------------|
Gb|------------------------------|
Db|-----------------10-9---------|
Ab|------------------8-7----9-8--|
Eb|-0-0-0-0-0-0-0-0-------0-7-6--|
    * * * * * * * *       *
    "Had fingers..."
eb|------------------------------|
Bb|------------------------------|
Gb|------------------------------|
Db|-----------------10-9----7-9--|
Ab|------------------8-7----5-7--|
Eb|-0-0-0-0-0-0-0-0-------0------|
    * * * * * * * *       *
    "Had needles..."
eb|------------------------------|
Bb|------------------------------|
Gb|------------------------------|
Db|-----------------10-9---------|
Ab|------------------8-7----9-8--|
Eb|-0-0-0-0-0-0-0-0-------0-7-6--|
    * * * * * * * *       *
    "A knife right..."

1st ending:
eb|------------------------------|
Bb|------------------------------|
Gb|------------------------------|
Db|------------------------------|
Ab|-----------5----------(5)/14\-|
Eb|-0-0-0-0-0-3----------(3)/12\-|
    * * * * *
    "I am..."

2nd ending:
eb|---------------------------|
Bb|---------------------------|
Gb|---------------------------|
Db|---------------------------|
Ab|-----------5----------(5)--|
Eb|-0-0-0-0-0-3----------(3)--|
    * * * * *
    "I am..."


Play Riff 1  "Came 'Anarchy'..."
Final time add this bar:
eb|-----------------|
Bb|-----------------|
Gb|-----------------|
Db|-5--4-5--2--4-5--|
Ab|-3-------3-------|
Eb|-----------------|
    "...'Lucretia' said..."

Play Riff 2  "Not even close..."
Play Riff 3  "Had fingers..."

Riff 4
Guitar 1
eb|-------------------|
Bb|-------------------|
Gb|-------------------|
Db|------5----2----4--|
Ab|-2----3----0----2--|
Eb|-0-----------------|

Guitar 2
eb|----------------------------|
Bb|----------------------------|
Gb|----------------------------|
Db|-2-2-2-2-4--5----------4--5-|
Ab|---------------3-3-3-3------|
Eb|----------------------------|

eb|----------------------------|
Bb|----------------------------|
Gb|----------------------------|
Db|---------4--5----------5--4-|
Ab|-0-0-0-0-------2-2-2-2------|
Eb|----------------------------|

Guitar 3 (Comes in 3rd and 4th time)
eb|----------------------------|
Bb|----------------------------|
Gb|---------2--4----------2--4-|
Db|-5~-------------------------|
Ab|---------------3~-----------|
Eb|----------------------------|

eb|----------------------------|
Bb|----------------------------|
Gb|---------2--4----------4--2-|
Db|----------------------------|
Ab|-0-------------2------------|
Eb|----------------------------|


Play Riff 1  Solo Rhythm
Final time add this bar:
eb|-----------------|
Bb|-----------------|
Gb|-----------------|
Db|-5--4-5--2--4-5--|
Ab|-3-------3-------|
Eb|-----------------|


Solo (Mustaine)
eb|-----------------------------------------------|
Bb|-17t12p10-------17t12p10-------17t12p10--------|
Gb|---------16t12p9--------16t12p9--------16t12p9-|
Db|-----------------------------------------------|
Ab|-----------------------------------------------|
Eb|-----------------------------------------------|

eb|-----------------------------------------------|
Bb|-15t12p10-------15t12p10-------15t12p10--------|
Gb|---------16t12p9--------16t12p9--------16t12p9-|
Db|-----------------------------------------------|
Ab|-----------------------------------------------|
Eb|-----------------------------------------------|

eb|-----------------------------------------------|
Bb|-17t12p10-------17t12p10-------17t12p10--------|
Gb|---------16t12p9--------16t12p9--------16t12p9-|
Db|-----------------------------------------------|
Ab|-----------------------------------------------|
Eb|-----------------------------------------------|

eb|----------------------------------------------------|
Bb|-15t12p10-------------------------------------------|
Gb|---------16t12p9-15t12p9-14t12p9-t12\11-------------|
Db|----------------------------------------h10-14t10p8-|
Ab|----------------------------------------------------|
Eb|----------------------------------------------------|

eb|-------------------------------------------------|
Bb|-------------------------------------------------|
Gb|-------------------------------------------------|
Db|-14t10p8-14t10p8-14t10p8-14t10p8-14t10p8-14t10p8-|
Ab|-------------------------------------------------|
Eb|-------------------------------------------------|

eb|-------------------------------------------|
Bb|-------------------------------------------|
Gb|---------------------------------------21\-|
Db|-17t10p8-17t10p8-17t10p8-17t10p8-t17/------|
Ab|-------------------------------------------|
Eb|-------------------------------------------|

End Solo

Solo (Friedman)
eb|----------------------------------------------|
Bb|-17p15p12-17p15p12-17p15p12-17p15p12-17p15p12-|
Gb|----------------------------------------------|
Db|----------------------------------------------|
Ab|----------------------------------------------|
Eb|----------------------------------------------|

eb|----------------------------17b19r17-|
Bb|-17p15p12-17p15p12-17p15p12----------|
Gb|-------------------------------------|
Db|-------------------------------------|
Ab|-------------------------------------|
Eb|-------------------------------------|

eb|-----------------12h14-15p14-12----12h14-17p14-|
Bb|---------12h14h15---------------15-------------|
Gb|-12h14h15--------------------------------------|
Db|-----------------------------------------------|
Ab|-----------------------------------------------|
Eb|-----------------------------------------------|

eb|-12----12h14-12----12--------12-----------------------------|
Bb|----15----------15----15b17-----15-12-----------------------|
Gb|--------------------------------------15-14-12-14\12~~\(5)/-|
Db|------------------------------------------------------------|
Ab|------------------------------------------------------------|
Eb|------------------------------------------------------------|

eb|------------------------------|
Bb|-13-12h13p12------------------|
Gb|------------14-12\11----------|
Db|---------------------12-------|
Ab|------------------------12\10-|
Eb|------------------------------|

End Solo

Solo (Mustaine)
eb|-------------------------------------------|
Bb|-15p12--12-15p12-15p12--12-15p12-17p12--12-|
Gb|------15--------------15--------------15---|
Db|-------------------------------------------|
Ab|-------------------------------------------|
Eb|-------------------------------------------|

eb|-------------------------------------------|
Bb|-15p12--12-15p12-15p12--12-15p12-17p12--12-|
Gb|------15--------------15--------------15---|
Db|-------------------------------------------|
Ab|-------------------------------------------|
Eb|-------------------------------------------|

eb|-------------------------------------------|
Bb|-15p12--12-17p12--12-15p12--12-17p12-15p12-|
Gb|------15--------15--------15---------------|
Db|-------------------------------------------|
Ab|-------------------------------------------|
Eb|-------------------------------------------|

eb|-17p15p12---------------------------------------|
Bb|---------17p15p12---------17p15p12--------------|
Gb|-----------------15p14p12---------16p15p14p12---|
Db|---------------------------------------------14-|
Ab|------------------------------------------------|
Eb|------------------------------------------------|

eb|------------------------------------|
Bb|-------------------------------12\--|
Gb|-12h14b16----14--12--14p12~~~--12\--|
Db|------------------------------------|
Ab|------------------------------------|
Eb|------------------------------------|

End Solo

Solo (Friedman)
eb|--------------------------------------|
Bb|--------------------------------------|
Gb|-------------------------9h12p9--9h12-|
Db|--------------------9h12-------12-----|
Ab|------7h10p7---7h10-------------------|
Eb|-7h10-------10------------------------|

eb|-------12h15p12--12--------15-|
Bb|-/12h15--------15--15-12h15---|
Gb|------------------------------|
Db|------------------------------|
Ab|------------------------------|
Eb|------------------------------|

eb|------------12-----------10---------8-----------|
Bb|-15p12\10h12--12p10\8h10---10p8\7h8---8p7---8p7-|
Gb|------------------------------------------9-----|
Db|------------------------------------------------|
Ab|------------------------------------------------|
Eb|------------------------------------------------|

eb|--------------------------------------------------------|
Bb|---------------5----------------------------------------|
Gb|-9-7-9-7\5h7p5---7p5h7p5\4h7p5p4h5h7p5p4h5p4h7p5p4------|
Db|---------------------------------------------------5~~~-|
Ab|--------------------------------------------------------|
Eb|--------------------------------------------------------|

eb|------------------10~~-----------15~~/-|
Bb|--------------7-8-------13-12-13-------|
Gb|-------7-7~~---------------------------|
Db|-4--5----------------------------------|
Ab|---------------------------------------|
Eb|---------------------------------------|

eb|-------22b24--22b24-22b24-22b24r22-21~~\-|
Bb|-19-20-----------------------------------|
Gb|-----------------------------------------|
Db|-----------------------------------------|
Ab|-----------------------------------------|
Eb|-----------------------------------------|

End Solo


Play Riff 2  "Not even close..."
Play Riff 3  "Had fingers..."
Final time:
eb|------------------------------|
Bb|------------------------------|
Gb|------------------------------|
Db|------------------------------|
Ab|-----------5----------(5)--2--|
Eb|-0-0-0-0-0-3----------(3)--0--|
    * * * * *
    "I am..."         "...a victory."

Guitar fill over Riff 3
eb|------------------------------------------------|
Bb|------------------------------------------------|
Gb|-/9----\7----/12~--------/9----\7----\2----0----|
Db|-/9----\7----/12~--------/9----\7----\2----0----|
Ab|------------------------------------------------|
Eb|------------------------------------------------|

eb|------------------------------------------------|
Bb|------------------------------------------------|
Gb|-/9----\7----/12~--------/9----\7----6-----(6)--|
Db|-/9----\7----/12~--------/9----\7----7-----(7)--|
Ab|------------------------------------------------|
Eb|------------------------------------------------|

eb|------------------------------------------------|
Bb|------------------------------------------------|
Gb|-/9----\7----/12~--------/9----\7----\2----0----|
Db|-/9----\7----/12~--------/9----\7----\2----0----|
Ab|------------------------------------------------|
Eb|------------------------------------------------|

eb|------------------------------------------------|
Bb|------------------------------------------------|
Gb|-/9----\7----/12~--------/9----\7----6----------|
Db|-/9----\7----/12~--------/9----\7----7----------|
Ab|---------------------------------------------2--|
Eb|---------------------------------------------0--|

13.CROWN OF WORMS

Eb Tuning

Intro
------------------------------------------------------
------------------------------------------------------
---------------5--------7h8--7-------5---7----------
-7--7--7---7---5---7----7h8--7---7---5---7----7-----
-7--7--7---7-------7-------------7------------7-----
-5--5--5----------------------------------------------

Verse
-----------------------------------------------------
-----------------------------------------------------
-----5---------7---5-------5------------7---5--------
-7---5----7----7---5---7---5------------7---5---7----
-7--------7------------7-------7--6-------------7----
-----------------------------------------------------

-------------------------------------------------
------------------------------------------------
-----5-------7---5-------7---7-------5----------
-4---5---7---7---5---7---7---7---7---5----------
-4-------7-----------7-----------7--------7--6--
------------------------------------------------

Chorus
-------------------------------
-------------------------------
------5---7--------------------
-7----5---7--------------------        
-7---------------7-7-6-6-5-5---
-------------------------------

Outro
-------------------------------------------------------
-------------------------------------------------------
-----8---7-------5---7-------7---5-----------5---------
-7---8---7---5---5---7---7---7---5---7---8---5---8---7-
-7-----------5-----------7-----------7---8-------8---7-
-------------------------------------------------------
comments
print report bad tab
1 comment total.
+2 reply
KoRnHead wrote on August 10 2006, 09:51 pm

Dude where's the rest of "The Killing Road"?

I want to post or [tab]
guest
You may want to rate the tab now too:
select rating
Please do not post tabs as comments. Select "correction" instead!