Oops, an error
Loading. Please wait.

Altered Beast - Rise From Your Grave Tab

3,003 views 6 this week
no commentswrite comment
1 2 3 4 5
please rate
Autoscroll
+/-
esc
set tempo
stop
Difficulty
intermediate
Hey! There's an official Ultimate Guitar app which is ideal
for learning songs when you're away from computer. Get the app
WARNING: You are trying to view
                                    content from Ultimate-Guitar.com
                                    in an unauthorized application,
                                    which is prohibited.

                                    Please use an official Ultimate
                                    Guitar Tabs application for iPhone,
                                    iPad or Android to access legitimate
                                    chords, guitar, bass, and drum tabs
                                    from Ultimate-Guitar.com database.

                                    Type "ultimate guitar tabs" in Apple
                                    App Store's or Android Market's
                                    search to find the application.
E||-------------------------3--|--1------------------|-------------------|
B||------------3------1--3-----|------------------1--|--3----------------|
G||--0------0------------------|---------------------|-------------------|
D||----------------------------|---------------------|-------------------|
A||----------------------------|---------------------|-------------------|
E||----------------------------|---------------------|-------------------|


-------------------|----------------------|--------------------3--|
-------------------|----------------------|--3-----------1--3-----|
-------------------|-------------------0--|-----------------------|
-------------------|------------0---------|-----------------------|
-------------------|----------------------|-----------------------|
-------------------|-------3--------------|-----------------------|

--1------------------|-------------------|--6-----------5--6--10--|
-----------4------1--|--3----------------|------------------------|
---------------------|-------------------|------------------------|
---------------------|-------------------|------------------------|
---------------------|-------------------|------------------------|
---------------------|-------------------|------------------------|

--8--------------------|--------------------------|-------------------|
---------10------------|--11-----------10--8------|--8----------------|
-----------------10----|----------------------10--|-------------------|
-----------------------|--------------------------|-------------------|
-----------------------|--------------------------|-------------------|
-----------------------|--------------------------|-------------------|

-----------------------|---------------------|-----------------------|
-----------------------|-----3---------------|--1----3------1--------|
--7----8------7--5--3--|--3------------------|-----------------3--2--|
-----------------------|---------------------|-----------------------|
-----------------------|---------------------|-----------------------|
-----------------------|---------------------|-----------------------|
 
---------------------|----------------------|----------------------|
-----1---------------|--3-------------------|--1-------------------|
--2------------------|--------------0--2----|-----------------0----|
---------------------|-------3--------------|-------1------3-------|
---------------------|----------------------|----------------------|
---------------------|----------------------|----------------------|
  
----------------------|-------------------|---------------------|
----------------------|-------------------|---------------------|
----------------------|-------------------|---------0------3----|
--3-------------------|--0----------------|--1------------------|
-------0------1--3----|-------------------|---------------------|
----------------------|-------------------|---------------------|
         
------------------------|---------3------6----|--5----------------|
------------------------|--4------------------|-------------------|
--2------0--------------|---------------------|-------------------|
------------3--1--3--0--|---------------------|-------------------|
------------------------|---------------------|-------------------|
------------------------|---------------------|-------------------|
 
---------------------|------------------------|---------------------|
---------------------|------------------------|---------------------|
----------------3----|--2------0--------------|---------0------3----|
---------5-----------|------------3--1--3--0--|--1------------------|
--6------------------|------------------------|---------------------|
---------------------|------------------------|---------------------|
 
-------------------|-------------------------|-------------------------|
--3----------------|--3--1--3-------------1--|--1-----1----------------|
-------------------|-----------0----2--3-----|-----3----------0--2--3--|
-------------------|-------------------------|-----------3-------------|
-------------------|-------------------------|-------------------------|
-------------------|-------------------------|-------------------------|
 
-------------------------|-------------------------|-----------3----1--------|
--3--1--3-------------1--|--1-----1----------------|--3--1--3----------4--3--|
-----------0----2--3-----|-----3----------0--2--3--|-------------------------|
-------------------------|-----------3-------------|-------------------------|
-------------------------|-------------------------|-------------------------|
-------------------------|-------------------------|-------------------------|
     
-------------------------|-------------------|-------------------|
--1-----1--3-------------|-------------------|-------------------|
-----3----------2--0-----|--0----------------|-------------------|
----------------------3--|-------------------|-------------------|
-------------------------|-------------------|-------------------|
-------------------------|-------------------|-------------------|

-------------------------|-------------------------|-------------------------|
--3--1--3-------------1--|--1-----1----------------|--3--1--3-------------1--|
-----------0----2--3-----|-----3----------0--2--3--|-----------0----2--3-----|
-------------------------|-----------3-------------|-------------------------|
-------------------------|-------------------------|-------------------------|
-------------------------|-------------------------|-------------------------|

-------------------------|-----------3----1--------|-------------------------|
--1-----1----------------|--3--1--3----------4--3--|--1-----1--3-------------|
-----3----------0--2--3--|-------------------------|-----3----------2--0-----|
-----------3-------------|-------------------------|----------------------3--|
-------------------------|-------------------------|-------------------------|
-------------------------|-------------------------|-------------------------|

-------------------|-------------------|--------------------------|
-------------------|-------------------|--1-----1-----------------|
--0----------------|-------------------|-----3-----3--2--3--2--3--|
-------------------|-------------------|--------------------------|
-------------------|-------------------|--------------------------|
-------------------|-------------------|--------------------------|

--------------------------|--------------------------|
--3--1--3--1-----1-----1--|--4--3--4--3--1--3--1--3--|
--------------3-----3-----|--------------------------|
--------------------------|--------------------------|
--------------------------|--------------------------|
--------------------------|--------------------------|

--1-----1-----------------|--------------------------|
-----4-----4--3--4--3--4--|--------------------------|
--------------------------|--5--3--5--3--2--3--2--3--|
--------------------------|--------------------------|
--------------------------|--------------------------|
--------------------------|--------------------------|

--------------------------|--------------------------|
--3--1--3--1-----1-----1--|--4--3--4--3--1--3--1--3--|
--------------3-----3-----|--------------------------|
--------------------------|--------------------------|
--------------------------|--------------------------|
--------------------------|--------------------------|

--------------6--5--3--1--|-------------------------|-------------------------|
--------------------------|--3--1--3-------------1--|--1-----1----------------|
--------------------------|-----------0----2--3-----|-----3----------0--2--3--|
--1--0--1--0--------------|-------------------------|-----------3-------------|
--------------------------|-------------------------|-------------------------|
--------------------------|-------------------------|-------------------------|
  
-------------------------|-------------------------|-----------3----1--------|
--3--1--3-------------1--|--1-----1----------------|--3--1--3----------4--3--|
-----------0----2--3-----|-----3----------0--2--3--|-------------------------|
-------------------------|-----------3-------------|-------------------------|
-------------------------|-------------------------|-------------------------|
-------------------------|-------------------------|-------------------------|
            
-------------------------|-------------------|-------------------|
--1-----1--3-------------|-------------------|-------------------|
-----3----------2--0-----|--0----------------|-------------------|
----------------------3--|-------------------|-------------------|
-------------------------|-------------------|-------------------|
-------------------------|-------------------|-------------------|

----------------------|--------------------3--|--1------------------|
----------------------|--3-----------1--3-----|-----------4------1--|
-------------------0--|-----------------------|---------------------|
------------0---------|-----------------------|---------------------|
----------------------|-----------------------|---------------------|
-------3--------------|-----------------------|---------------------|

-------------------|--6--------L--5--6--10--|--8--------------------|
--3----------------|------------------------|---------10------------|
-------------------|------------------------|-----------------10----|
-------------------|------------------------|-----------------------|
-------------------|------------------------|-----------------------|
-------------------|------------------------|-----------------------|

--------------------------|-------------------|-----------------------|
--11-----------10--8------|--8----------------|-----------------------|
----------------------10--|-------------------|--7----8------7--5--3--|
--------------------------|-------------------|-----------------------|
--------------------------|-------------------|-----------------------|
--------------------------|-------------------|-----------------------|

---------------------|-----------------------|---------------------|
-----3---------------|--1----3------1--------|-----1---------------|
--3------------------|-----------------3--2--|--2------------------|
---------------------|-----------------------|---------------------|
---------------------|-----------------------|---------------------|
---------------------|-----------------------|---------------------|

----------------------|----------------------|----------------------|
--3-------------------|--1-------------------|----------------------|
--------------0--2----|-----------------0----|----------------------|
-------3--------------|-------1------3-------|--3-------------------|
----------------------|----------------------|-------0------1--3----|
----------------------|----------------------|----------------------|

-------------------|---------------------|------------------------|
-------------------|---------------------|------------------------|
-------------------|---------0------3----|--2------0--------------|
--0----------------|--1------------------|------------3--1--3--0--|
-------------------|---------------------|------------------------|
-------------------|---------------------|------------------------|
       
---------3------6----|--5----------------||
--4------------------|-------------------||
---------------------|-------------------||
---------------------|-------------------||
---------------------|-------------------||
---------------------|-------------------||

http://www.megadriver.com.br/sitev2.html
comments
We did not receive enough feedback on this tab! Please rate:
print report bad tab
1 2 3 4 5
I want to post or [tab]
guest
You may want to rate the tab now too:
select rating
Please do not post tabs as comments. Select "correction" instead!