Oops, an error
Loading. Please wait.

Panic Tab

371 views 3 this week
no commentswrite comment
1 2 3 4 5
accurate
x 1
Autoscroll
+/-
esc
set tempo
stop
Contributor
Hey! There's an official Ultimate Guitar app which is ideal
for learning songs when you're away from computer. Get the app
WARNING: You are trying to view
                                    content from Ultimate-Guitar.com
                                    in an unauthorized application,
                                    which is prohibited.

                                    Please use an official Ultimate
                                    Guitar Tabs application for iPhone,
                                    iPad or Android to access legitimate
                                    chords, guitar, bass, and drum tabs
                                    from Ultimate-Guitar.com database.

                                    Type "ultimate guitar tabs" in Apple
                                    App Store's or Android Market's
                                    search to find the application.
----------------------------------------------------------------------------
			     Panic - MELTDOWN
----------------------------------------------------------------------------
Tabbed by: Sirweird
Email: akalordsauron@aol.com

Tuning: Standard

Well here it is... it's a cool song so go hear it on the link below... hope you guys like it...



band website is

purevolume.com/meltdownpa

plus the song is on their site so you can hear it and download it

I have the song on my profile incase you wanna hear or play along to

LEGEND
-------
| /  slide up
| \  slide down
| h  hammer-on
| p  pull-off
| ~  vibrato
| +  harmonic
| *  Palm Mute


   (x8)
e|-------------------------------------------------------------------------|
B|-------------------------------------------------------------------------|
G|-------------------------------------------------------------------------|
D|-------------------h-p-h-p-h---------------------h-p-h-p-h---------------|
A|-------00000000----8-0-7-0-5---------00000000----8-0-7-0-5---------------|
E|-------------------------------------------------------------------------|

e|-------------------------------------------------------------------------|
B|-------------------------------------------------------------------------|
G|-------------------------------------------------------------------------|
D|------------h-p-h-p-h-p-h--p-h--p-h-p-h-p-h-p-h--------------------------|
A|--00000000--8-0-7-0-5-0-12-0-10-0-8-0-8-0-7-0-5--------------------------|
E|-------------------------------------------------------------------------|




   
e|-------------------------------------------------------------------------|
B|-------------------------------------------------------------------------|
G|-------------------------------------------------------------------------|
D|--7--6--5-------5-------5-------7-7--------------------------------------|
A|--7--6--5-------5-------5-------7-7--------------------------------------|
E|--5--4--3--000--3--000--3--000--5-5--------------------------------------|
             ***     ***     ***




   (x7)
e|-------------------------------------------------------------------------|
B|-------------------------------------------------------------------------|
G|-------------------------------------------------------------------------|
D|--5-------5-------5-------7-7--------------------------------------------|
A|--5-------5-------5-------7-7--------------------------------------------|
E|--3--000--3--000--3--000--5-5--------------------------------------------|
       ***     ***     ***




   (x2)
e|-------------------------------------------------------------------------|
B|-------------------------------------------------------------------------|
G|-------------------------------------------------------------------------|
D|--------------h-p-h-p-h---------------------h-p-h-p-h--------------------|
A|--00000000----8-0-7-0-5---------00000000----8-0-7-0-5--------------------|
E|-------------------------------------------------------------------------|

e|-------------------------------------------------------------------------|
B|-------------------------------------------------------------------------|
G|-------------------------------------------------------------------------|
D|------------h-p-h-p-h-p-h--p-h--p-h-p-h-p-h-p-h--------------------------|
A|--00000000--8-0-7-0-5-0-12-0-10-0-8-0-8-0-7-0-5--------------------------|
E|-------------------------------------------------------------------------|



                           
e|-------------------------------------------------------------------------|
B|-------------------------------------------------------------------------|
G|-------------------------------------------------------------------------|
D|--7--6--5-------5-------5-------7-7--------------------------------------|
A|--7--6--5-------5-------5-------7-7--------------------------------------|
E|--5--4--3--000--3--000--3--000--5-5--------------------------------------|
             ***     ***     ***




   (x3)
e|-------------------------------------------------------------------------|
B|-------------------------------------------------------------------------|
G|-------------------------------------------------------------------------|
D|--5-------5-------5-------7-7--------------------------------------------|
A|--5-------5-------5-------7-7--------------------------------------------|
E|--3--000--3--000--3--000--5-5--------------------------------------------|
       ***     ***     ***
   




   (x2)
e|-------------------------------------------------------------------------|
B|-------------------------------------------------------------------------|
G|-------------------------------------------------------------------------|
D|--------------h-p-h-p-h---------------------h-p-h-p-h--------------------|
A|--00000000----8-0-7-0-5---------00000000----8-0-7-0-5--------------------|
E|-------------------------------------------------------------------------|

e|-------------------------------------------------------------------------|
B|-------------------------------------------------------------------------|
G|-------------------------------------------------------------------------|
D|------------h-p-h-p-h-p-h--p-h--p-h-p-h-p-h-p-h--------------------------|
A|--00000000--8-0-7-0-5-0-12-0-10-0-8-0-8-0-7-0-5--------------------------|
E|-------------------------------------------------------------------------|



                              
e|-------------------------------------------------------------------------|
B|-------------------------------------------------------------------------|
G|-------------------------------------------------------------------------|
D|--7--6--5------5------33333333-------------------------------------------|
A|--7--6--5------5------33333333-------------------------------------------|
E|--5--4--3--00--3--00--11111111-------------------------------------------|
             **     **  ********



   (x3)
e|-------------------------------------------------------------------------|
B|-------------------------------------------------------------------------|
G|-------------------------------------------------------------------------|
D|--5------5------33333333-------------------------------------------------|
A|--5------5------33333333-------------------------------------------------|
E|--3--00--3--00--11111111-------------------------------------------------|
       **     **  ********



e|-------------------------------------------------------------------------|
B|-------------------------------------------------------------------------|
G|-------------------------------------------------------------------------|
D|--7--6--5-------5-------5-------7-7--------------------------------------|
A|--7--6--5-------5-------5-------7-7--------------------------------------|
E|--5--4--3--000--3--000--3--000--5-5--------------------------------------|
             ***     ***     ***



   (x7)
e|-------------------------------------------------------------------------|
B|-------------------------------------------------------------------------|
G|-------------------------------------------------------------------------|
D|--5-------5-------5-------7-7--------------------------------------------|
A|--5-------5-------5-------7-7--------------------------------------------|
E|--3--000--3--000--3--000--5-5--------------------------------------------|
       ***     ***     ***



   (x2)
e|-------------------------------------------------------------------------|
B|-------------------------------------------------------------------------|
G|-------------------------------------------------------------------------|
D|--------------h-p-h-p-h---------------------h-p-h-p-h--------------------|
A|--00000000----8-0-7-0-5---------00000000----8-0-7-0-5--------------------|
E|-------------------------------------------------------------------------|

e|-------------------------------------------------------------------------|
B|-------------------------------------------------------------------------|
G|-------------------------------------------------------------------------|
D|------------h-p-h-p-h-p-h--p-h--p-h-p-h-p-h-p-h--------------------------|
A|--00000000--8-0-7-0-5-0-12-0-10-0-8-0-8-0-7-0-5--------------------------|
E|-------------------------------------------------------------------------|





e|-------------------------------------------------------------------------|
B|-------------------------------------------------------------------------|
G|-------------------------------------------------------------------------|
D|--7--6--5-------5-------5-------7-7--------------------------------------|
A|--7--6--5-------5-------5-------7-7--------------------------------------|
E|--5--4--3--000--3--000--3--000--5-5--------------------------------------|
             ***     ***     ***



   (x3)
e|-------------------------------------------------------------------------|
B|-------------------------------------------------------------------------|
G|-------------------------------------------------------------------------|
D|--5-------5-------5-------7--7-------------------------------------------|
A|--5-------5-------5-------7--7-------------------------------------------|
E|--3--000--3--000--3--000--5--5-------------------------------------------|
       ***     ***     ***



   (x2)
e|-------------------------------------------------------------------------|
B|-------------------------------------------------------------------------|
G|-------------------------------------------------------------------------|
D|--------------h-p-h-p-h---------------------h-p-h-p-h--------------------|
A|--00000000----8-0-7-0-5---------00000000----8-0-7-0-5--------------------|
E|-------------------------------------------------------------------------|

e|-------------------------------------------------------------------------|
B|-------------------------------------------------------------------------|
G|-------------------------------------------------------------------------|
D|------------h-p-h-p-h-p-h--p-h--p-h-p-h-p-h-p-h--------------------------|
A|--00000000--8-0-7-0-5-0-12-0-10-0-8-0-8-0-7-0-5--------------------------|
E|-------------------------------------------------------------------------|





e|-------------------------------------------------------------------------|
B|-------------------------------------------------------------------------|
G|-------------------------------------------------------------------------|
D|--7--6--5------5------33333333-------------------------------------------|
A|--7--6--5------5------33333333-------------------------------------------|
E|--5--4--3--00--3--00--11111111-------------------------------------------|
             **     **  ********



   (x3)
e|-------------------------------------------------------------------------|
B|-------------------------------------------------------------------------|
G|-------------------------------------------------------------------------|
D|--5------5------33333333-------------------------------------------------|
A|--5------5------33333333-------------------------------------------------|
E|--3--00--3--00--11111111-------------------------------------------------|
       **     **  ********
 



   (Over Solo)
e|-------------------------------------------------------------------------|
B|-------------------------------------------------------------------------|
G|-------------------------------------------------------------------------|
D|--7--6--5-------5-------5-------7-7--------------------------------------|
A|--7--6--5-------5-------5-------7-7--------------------------------------|
E|--5--4--3--000--3--000--3--000--5-5--------------------------------------|
             ***     ***     ***



   (x7)
e|-------------------------------------------------------------------------|
B|-------------------------------------------------------------------------|
G|-------------------------------------------------------------------------|
D|--5-------5-------5-------7-7--------------------------------------------|
A|--5-------5-------5-------7-7--------------------------------------------|
E|--3--000--3--000--3--000--5-5--------------------------------------------|
       ***     ***     ***
   (End Solo)



   (x3)
e|-------------------------------------------------------------------------|
B|-------------------------------------------------------------------------|
G|------------3--7--5------------------------------------------------------|
D|------------3--7--5------------------------------------------------------|
A|--00000000--1--5--3------------------------------------------------------|
E|-------------------------------------------------------------------------|

   



e|-------------------------------------------------------------------------|
B|-------------------------------------------------------------------------|
G|------------3--5------3--------------------------------------------------|
D|------------3----4----3--------------------------------------------------|
A|--33333333--1------2--1--------------------------------------------------|
E|-------------------------------------------------------------------------|




   (x3)
e|-------------------------------------------------------------------------|
B|-------------------------------------------------------------------------|
G|--------------3--7--5----------------------------------------------------|
D|--------------3--7--5----------------------------------------------------|
A|----00000000--1--5--3----------------------------------------------------|
E|-------------------------------------------------------------------------|

   


e|-------------------------------------------------------------------------|
B|-------------------------------------------------------------------------|
G|------------5/3--5-------3-----------------------------------------------|
D|------------5/3----4-----3-----------------------------------------------|
A|------------3/1------2---1-----------------------------------------------|
E|-------------------------------------------------------------------------|

  


   (x3)
   (Short pause for solo)		
e|-------------------------------------------------------------------------|
B|-------------------------------------------------------------------------|
G|--------------3--7--5----------------------------------------------------|
D|--------------3--7--5----------------------------------------------------|
A|----00000000--1--5--3----------------------------------------------------|
E|-------------------------------------------------------------------------|

   



  
e|-------------------------------------------------------------------------|
B|-------------------------------------------------------------------------|
G|------------5/3--5------3------------------------------------------------|
D|------------5/3----4----3------------------------------------------------|
A|------------3/1------2--1------------------------------------------------|
E|-------------------------------------------------------------------------|
    



   (x3)
e|-------------------------------------------------------------------------|
B|-------------------------------------------------------------------------|
G|--------------3--7--5----------------------------------------------------|
D|--------------3--7--5----------------------------------------------------|
A|----00000000--1--5--3----------------------------------------------------|
E|-------------------------------------------------------------------------|

			




e|-------------------------------------------------------------------------|
B|-------------------------------------------------------------------------|
G|------------5/3--5------3------------------------------------------------|
D|------------5/3----4----3------------------------------------------------|
A|------------3/1------2--1------------------------------------------------|
E|-------------------------------------------------------------------------|
    
  


   (x3)
   (End Solo)
e|-------------------------------------------------------------------------|
B|-------------------------------------------------------------------------|
G|------------3--7--5------------------------------------------------------|
D|------------3--7--5------------------------------------------------------|
A|--00000000--1--5--3------------------------------------------------------|
E|-------------------------------------------------------------------------|

 




e|-------------------------------------------------------------------------|
B|-------------------------------------------------------------------------|
G|------------5/3--5-------3-----------------------------------------------|
D|------------5/3----4-----3-----------------------------------------------|
A|------------3/1------2---1-----------------------------------------------|
E|-------------------------------------------------------------------------|




   (x3)
e|-------------------------------------------------------------------------|
B|-------------------------------------------------------------------------|
G|------------3--7--5------------------------------------------------------|
D|------------3--7--5------------------------------------------------------|
A|--00000000--1--5--3------------------------------------------------------|
E|-------------------------------------------------------------------------|
              *  *
   play the two muted chords on the 2nd time only
   
e|-------------------------------------------------------------------------|
B|-------------------------------------------------------------------------|
G|------------5/3--5-------3-----------------------------------------------|
D|------------5/3----4-----3-----------------------------------------------|
A|--33333333--3/1------2---1-----------------------------------------------|
E|-------------------------------------------------------------------------|

e|-------------------------------------------------------------------------|
B|-------------------------------------------------------------------------|
G|-------------------------------------------------------------------------|
D|--7--6--5------5------33333333-------------------------------------------|
A|--7--6--5------5------33333333-------------------------------------------|
E|--5--4--3--00--3--00--11111111-------------------------------------------|
             **     **  ********




   (x3)
e|-------------------------------------------------------------------------|
B|-------------------------------------------------------------------------|
G|-----------------------------3-5-----------------------------------------|
D|--5------5------33333333-----3-5-----------------------------------------|
A|--5------5------33333333-----1-3-----------------------------------------|
E|--3--00--3--00--11111111-------------------------------------------------|
       **     **  ********    

   Last two chords are the ending which you play AFTER the 3rd
   time you play this measure.



band website is

purevolume.com/meltdownpa

plus the song is on their site so you can hear it and download it
    

    THE END

============================================================================
comments
We did not receive enough feedback on this tab! Please rate:
print report bad tab
1 2 3 4 5
I want to post or [tab]
guest
You may want to rate the tab now too:
select rating
Please do not post tabs as comments. Select "correction" instead!