Oops, an error
Loading. Please wait.

Alive In The Light Tab

14,027 views 117 this week
1 commentread comment
1 2 3 4 5
excellent!
x 4
add to favorites launch autoscroll
font size
0
reset
Autoscroll
+/-
esc
set tempo
stop
Contributor
Difficulty
Tuning
intermediate
C# G# C# F# A# D#
WARNING: You are trying to view
                                    content from Ultimate-Guitar.com
                                    in an unauthorized application,
                                    which is prohibited.

                                    Please use an official Ultimate
                                    Guitar Tabs application for iPhone,
                                    iPad or Android to access legitimate
                                    chords, guitar, bass, and drum tabs
                                    from Ultimate-Guitar.com database.

                                    Type "ultimate guitar tabs" in Apple
                                    App Store's or Android Market's
                                    search to find the application.
----------------------------------------------------------------------------
                          Alive in the Light
                           Memphis May Fire
----------------------------------------------------------------------------

What a song for sweet guitar riffs! This was a very interesting song to learn, and it
was well worth the time spent. It is a very fun song and the chorus lead guitar is very
catchy. Enjoy!

Username: dkm817 (same on X box live)
Youtube Cover: http://www.youtube.com/watch?v=MbZpIgbG6EM
Email: guitardrums@rockfan.com

Guitar 1 Rhythmic (C# G# C# F# A# D#)
Guitar 2 Lead     (C# G# C# F# A# D#)

Tab Guide...
===================================================================
(end of measures)

===================================================================
===================================================================
(end of parts)

===================================================================
===================================================================
===================================================================
(end of song)
(If there is a “continued” it is because the numbers could not
fit on 1 line or connecting times played.)


Intro

Guitar 1
D#---------------|
A#---------------|
F#---------------|
C#---------------|
G#---------------|
C#---------0-0~~-|
Pm         .

Guitar 2
D#---------------|
A#---------------|
F#---------------|
C#---------------|
G#---------------|
C#-0-0-0~~-------|
Pm . .

===================================================================
===================================================================


Verse 1

Guitar 1 & 2
D#-----------------------------------------------------------------|
A#-----------------------------------------------------------------|
F#-----------------------------------------------------------------|
C#-----------------------------------------------------------------|
G#-----------------3~~---------------------------------3~~-1-3-1-0-|
C#-0-0-0~~-0-0~~-0-----0-0~~-0-0~~-0-1~~-0-5~~-0-3~~-0-------------|
Pm . .     .     .     .     .     .     .     .     .

===================================================================

Guitar 1 & 2
D#-----------------------------------------------------------------|
A#-----------------------------------------------------------------|
F#-----------------------------------------------------------------|
C#-----------------------------------------------------------------|
G#-5~~-3-5-5~~-3-6-----------------------------3-------------------|
C#-----------------0~~-1-1~~-5-8-5~~-5-5~~-0-5---4~~-4-4~~-4-4~~~~-|

===================================================================

Guitar 1 & 2
D#-----------------------------------------------------------------|
A#-----------------------------------------------------------------|
F#-----------------------------------------------------------------|
C#-----------------------------------12~---10~---8~~---7~~---------|
G#-----------------3~~---9~~---------------------------------------|
C#-0-0-0~~-0-0~~-0-----0-----0-0~~-0-----0-----0-----0-----4-4-4~~-|
Pm . .     .     .     .     .     .     .     .     .

===================================================================

Guitar 1 & 2
D#-----------------------------------------------------------------|
A#-----------------------------------------------------------------|
F#-----------------------------------------------------------------|
C#-5-5-5---5-5---5-------------------------------------------------|
G#-5-5-5---5-5---5-6~~-6-3~~-3-3~~-0~~-0-0~~-0-0~~-3-3-3-3---------|
C#-5-5-5~~-5-5~~-5-5~~-5-5~~-5-5~~-3~~-3-3~~-3-3~~---------1-1-1-1-|
Pm . .     .     .     .     .         .     .

===================================================================

Guitar 1 & 2
D#-----------------------------------------------------------------|
A#-----------------------------------------------------------------|
F#-----------------------------------------------------------------|
C#-----------------------------------------------------------------|
G#-----------------3~~---------------------------------3~~-1-3-1-0-|
C#-0-0-0~~-0-0~~-0-----0-0~~-0-0~~-0-1~~-0-5~~-0-3~~-0-------------|
Pm . .     .     .     .     .     .     .     .     .

===================================================================

Guitar 1 & 2
D#-----------------------------------------------------------------|
A#-----------------------------------------------------------------|
F#-----------------------------------------------------------------|
C#-----------------------------------------------------------------|
G#-5~~-3-5-5~~-3-6-----------------------------3-------------------|
C#-----------------0~~-1-1~~-5-8-5~~-5-5~~-0-5---4~~-4-4~~-4-4~~~~-|

===================================================================

Guitar 1 & 2
D#-----------------------------------------------------------------|
A#-----------------------------------------------------------------|
F#-----------------------------------------------------------------|
C#-----------------------------------12~---10~---8~~---7~~-7-8-7---|
G#-----------------3~~---9~~-------------------------------------8-|
C#-0-0-0~~-0-0~~-0-----0-----0-0~~-0-----0-----0-----0-------------|
Pm . .     .     .     .     .     .     .     .     .

===================================================================

Guitar 1 & 2
D#-----------------------------------------------------------------|
A#-----------------------------------------------------------------|
F#-----------------------------------------------------------------|
C#-5-5-5---5-5-5~~-1~~-1-0-----------------------------------------|
G#-5-5-5---5-5-5~~---------3-3-3-3---------------------------------|
C#-5-5-5~~-5-5-5~~-----------------1-1-1-1-1-1-1-1-1-1-1-1-3-3-3-3-|
Pm . .     . .

===================================================================
===================================================================


Breakdown 1

Guitar 1
D#-----------------------------------------------------------------|
A#-----------------------------------------------------------------|
F#-----------------------------------------------------------------|
C#-0-0-----0-0-0-0-0-0-----0-0-0---0-0-0-0---0-0---0-0---0-0~~-0---|
G#-0-0-----0-0-0-0-0-0-----0-0-0---0-0-0-0---0-0---0-0---0-0~~-0---|
C#-0-0-----0-0-0-0-0-0-----0-0-0---0-0-0-0---0-0---0-0---0-0~~-0---|
Pm . .     . . . . . .     . . .   . . . .   . .   . .   . .   .

Guitar 2
D#-----------------------------------------------------------------|
A#---------------------7---8---10--11--10--8---11--10--8---7---11--|
F#-7---7---7---7---7-----------------------------------------------|
C#-----------------------------------------------------------------|
G#-----------------------------------------------------------------|
C#-----------------------------------------------------------------|
Pm .   .   .   .   .   .   .   .   .   .   .   .   .   .   .   .

===================================================================

Guitar 1
D#-----------------------------------------------------------------|
A#-----------------------------------------------------------------|
F#-----------------------------------------------------------------|
C#-0-0-----0-0-0-0-0-0-----0-0-0---0-0-0-0---0-0---0-0---0-0~~-0---|
G#-0-0-----0-0-0-0-0-0-----0-0-0---0-0-0-0---0-0---0-0---0-0~~-0---|
C#-0-0-----0-0-0-0-0-0-----0-0-0---0-0-0-0---0-0---0-0---0-0~~-0---|
Pm . .     . . . . . .     . . .   . . . .   . .   . .   . .   .

Guitar 2
D#-----------------------------10--11--10--10--10--10--10--10--10--|
A#-10--10--10--10--10--10--10--------------------------------------|
F#-----------------------------------------------------------------|
C#-----------------------------------------------------------------|
G#-----------------------------------------------------------------|
C#-----------------------------------------------------------------|
Pm .   .   .   .   .   .   .   .   .   .   .   .   .   .   .   .

===================================================================

Guitar 1
D#------------------------------------------------------------------|
A#------------------------------------------------------------------|
F#------------------------------------------------------------------|
C#-0-0~~~~-0-0-0-0-0-0~~~~-0-0-0~~-0-0-0-0~~-0-0~~-0-0~~-0-0~~-0~---|
G#-0-0~~~~-0-0-0-0-0-0~~~~-0-0-0~~-0-0-0-0~~-0-0~~-0-0~~-0-0~~-0~~--|
C#-0-0~~~~-0-0-0-0-0-0~~~~-0-0-0~~-0-0-0-0~~-0-0~~-0-0~~-0-0~~-0~~--|
Pm . .     . . . . . .     . . .   . . . .   . .   . .   . .   .

Guitar 2
D#-----------------------------------------------------------------|
A#---------------------7---8---10--11--10--8---11--10--8---7---11--|
F#/7~~~~~~~~~~~~~~~~~~---------------------------------------------|
C#-----------------------------------------------------------------|
G#-----------------------------------------------------------------|
C#-----------------------------------------------------------------|

===================================================================

Guitar 1
D#-----------------------------------------------------------------|
A#-----------------------------------------------------------------|
F#-----------------------------------------------------------------|
C#-0-0-----0-0-0-0-0-0-----0-0-0---0-0-0-0---0-0---0-0---0-0~~-0---|
G#-0-0-----0-0-0-0-0-0-----0-0-0---0-0-0-0---0-0---0-0---0-0~~-0---|
C#-0-0-----0-0-0-0-0-0-----0-0-0---0-0-0-0---0-0---0-0---0-0~~-0---|
Pm . .     . . . . . .     . . .   . . . .   . .   . .   . .   .

Guitar 2
D#-----------------------------10--11--10~~~~~~~~~~~~~~~~~~~~~~~~~~-|
A#-10~~~~~~~~~~~~~~~~~~~~~~~~~--------------------------------------|
F#------------------------------------------------------------------|
C#------------------------------------------------------------------|
G#------------------------------------------------------------------|
C#------------------------------------------------------------------|

===================================================================

Guitar 2
D#-~~~~~~~~~~~~~~~~~~~~~~~~~~~~~~~~~~~~~~~~~~~~~~~~~~~~~~~~~~~~~~~-|
A#-----------------------------------------------------------------|
F#-----------------------------------------------------------------|
C#-----------------------------------------------------------------|
G#-----------------------------------------------------------------|
C#-----------------------------------------------------------------|

===================================================================
===================================================================


Pre Chorus 1

Guitar 1 & 2
D#-----------------------------------------------------------------|
A#-----------------------------------------------------------------|
F#-----------------------------------------------------------------|
C#-5-5-5-5-5-5-5-5-5-5-5-5-5-5-5-5-5-5-5-5-5-5-5-5-5-5-5-5-5-5-5-5-|
G#-----------------------------------------------------------------|
C#-----------------------------------------------------------------|

===================================================================

Guitar 1
D#-----------------------------------------------------------------|
A#-----------------------------------------------------------------|
F#-----------------------------------------------------------------|
C#-5-5-5-5-5-5-5-5-5-5-5-5-5-5-5-5-5-5-5-5-5-5-5-5-5-5-5-5-5-5-5-5-|
G#-----------------------------------------------------------------|
C#-----------------------------------------------------------------|

Guitar 2
D#-----------------------------------------------------------------|
A#-----------------------------------------------------------------|
F#-----------------------------------------------------------------|
C#-3-3-3-3-3-3-3-3-3-3-3-3-3-3-3-3-3-3-3-3-3-3-3-3-3-3-3-3-3-3-3-3-|
G#-----------------------------------------------------------------|
C#-----------------------------------------------------------------|

===================================================================

Guitar 1
D#-----------------------------------------------------------------|
A#-----------------------------------------------------------------|
F#-----------------------------------------------------------------|
C#-5-5-5-5-5-5-5-5-5-5-5-5-5-5-5-5-5-5-5-5-5-5-5-5-5-5-5-5-5-5-5-5-|
G#-----------------------------------------------------------------|
C#-----------------------------------------------------------------|

Guitar 2
D#-----------------------------------------------------------------|
A#-----------------------------------------------------------------|
F#-----------------------------------------------------------------|
C#-1-1-1-1-1-1-1-1-1-1-1-1-1-1-1-1-1-1-1-1-1-1-1-1-1-1-1-1-1-1-1-1-|
G#-----------------------------------------------------------------|
C#-----------------------------------------------------------------|

===================================================================

Guitar 1
D#-----------------------------------------------------------------|
A#-----------------------------------------------------------------|
F#---------------------------------7~~~~~~-5~~~~~~-----------------|
C#-7-7-7-7-7-7-7-7-7-7-7-7-7-7-7-7-----------------8~~~~~~-7\~~~~--|
G#-----------------------------------------------------------------|
C#-----------------------------------------------------------------|

Guitar 2
D#---------------------------------|
A#---------------------------------|
F#---------------------------------|
C#-0-0-0-0-0-0-0-0-0-0-0-0-0-0-0-0-|
G#---------------------------------|
C#---------------------------------|

Guitar 2 continued
D#------------------------------------------------|
A#------------------------11-13-11-10-13-15-13-11-|
F#---------10-12-15-12-10-------------------------|
C#-8-10-12----------------------------------------|
G#------------------------------------------------|
C#------------------------------------------------|

===================================================================
===================================================================


Chorus

Guitar 1
D#-----------------------------------------------------------------|
A#-----------------------------------------------------------------|
F#-----------------------------------------------------------------|
C#-1---1---1---1---1---1---1---1---5---5---5---5---5---5---5---5---|
G#-1---1---1---1---1---1---1---1---5---5---5---5---5---5---5---5---|
C#-1---1---1---1---1---1---1---1---5---5---5---5---5---5---5---5---|

Guitar 2
D#-----------------------------------------------------------------|
A#-----------------------------------------------------------------|
F#-----------------------------------------------------------------|
C#-5~~-5-5-7~~-8~~~~~~-8~~-8-8-8-8-5~~-5-5-7~~-8~~~~~~-8~~-8-8-8-8-|
G#-----------------------------------------------------------------|
C#-----------------------------------------------------------------|

===================================================================

Guitar 1
D#-----------------------------------------------------------------|
A#-----------------------------------------------------------------|
F#-----------------------------------------------------------------|
C#-8---8---8---8---8---8---8---8---3---3---3---3---3---3---3---3---|
G#-8---8---8---8---8---8---8---8---3---3---3---3---3---3---3---3---|
C#-8---8---8---8---8---8---8---8---3---3---3---3---3---3---3---3---|

Guitar 2
D#-----------------------------------------------------------------|
A#-----------------------------------------------------------------|
F#-7~~-7-7-7~~-7~~-7~~-8~~-7~~-5~~~~~~-5~~-5~~---------------------|
C#---------------------------------------------8~~-8~~-8~~-7~~~~~~-|
G#-----------------------------------------------------------------|
C#-----------------------------------------------------------------|

===================================================================

Guitar 1
D#-----------------------------------------------------------------|
A#-----------------------------------------------------------------|
F#-----------------------------------------------------------------|
C#-1---1---1---1---1---1---1---1---5---5---5---5---5---5---5---5---|
G#-1---1---1---1---1---1---1---1---5---5---5---5---5---5---5---5---|
C#-1---1---1---1---1---1---1---1---5---5---5---5---5---5---5---5---|

Guitar 2
D#-----------------------------------------------------------------|
A#-----------------------------------------------------------------|
F#-----------------------------------------------------------------|
C#-5~~-5-5-7~~-8~~~~~~-8~~-8-8-8-8-5~~-5-5-7~~-8~~~~~~-8~~-8-8-8-8-|
G#-----------------------------------------------------------------|
C#-----------------------------------------------------------------|

===================================================================

Guitar 1
D#-----------------------------------------------------------------|
A#-----------------------------------------------------------------|
F#-----------------------------------------------------------------|
C#-----------------------------------------------------------------|
G#-5-5-5-5-5-5-5-5-5-5-5-5-5-5-5-5-5-5-5-3-3-3-1-1-1-1-0-0-0-0-0-0-|
C#-----------------------------------------------------------------|

Guitar 2
D#----------------------------------------------------------------|
A#----------------------------------------------------------------|
F#----------------------------------------------------------------|
C#-7~~-7~~-7~~----------------------------------------------------|
G#-------------9~~-9~~-9~~----------------------------------------|
C#-------------------------10-10-10-10-10-10-10-10-10-10-10-10-10-|

===================================================================

Guitar 1
D#-----------------------------------------------------------------|
A#-----------------------------------------------------------------|
F#-----------------------------------------------------------------|
C#-1---1---1---1---1---1---1---1---5---5---5---5---5---5---5---5---|
G#-1---1---1---1---1---1---1---1---5---5---5---5---5---5---5---5---|
C#-1---1---1---1---1---1---1---1---5---5---5---5---5---5---5---5---|

Guitar 2 (x2)
D#-------------------------------------|
A#-8~~-8-8-10~-11~~~~~-11~-11-11-11-11-|
F#-------------------------------------|
C#-------------------------------------|
G#-------------------------------------|
C#-------------------------------------|

===================================================================

Guitar 1
D#-----------------------------------------------------------------|
A#-----------------------------------------------------------------|
F#-----------------------------------------------------------------|
C#-8---8---8---8---8---8---8---8---3---3---3---3---3---3---3---3---|
G#-8---8---8---8---8---8---8---8---3---3---3---3---3---3---3---3---|
C#-8---8---8---8---8---8---8---8---3---3---3---3---3---3---3---3---|

Guitar 2
D#-10~-10-10-10~-10~-10~-11~-10~-8~~~~~~-8~~-8~~-------------------|
A#-----------------------------------------------11~-11~-11~-10~~~-|
F#-----------------------------------------------------------------|
C#-----------------------------------------------------------------|
G#-----------------------------------------------------------------|
C#-----------------------------------------------------------------|

===================================================================

Guitar 1
D#-----------------------------------------------------------------|
A#-----------------------------------------------------------------|
F#-----------------------------------------------------------------|
C#-1---1---1---1---1---1---1---1---5---5---5---5---5---5---5---5---|
G#-1---1---1---1---1---1---1---1---5---5---5---5---5---5---5---5---|
C#-1---1---1---1---1---1---1---1---5---5---5---5---5---5---5---5---|

Guitar 2 (x2)
D#-------------------------------------|
A#-8~~-8-8-10~-11~~~~~-11~-11-11-11-11-|
F#-------------------------------------|
C#-------------------------------------|
G#-------------------------------------|
C#-------------------------------------|

===================================================================

Guitar 1
D#-----------------------------------------------------------------|
A#-----------------------------------------------------------------|
F#-----------------------------------------------------------------|
C#-0-0-0~~-0-0~~-0-0~~-0-0~~---------------------------------------|
G#-0-0-0~~-0-0~~-0-0~~-0-0~~-3-0~~-5-5-5-5-3-3-3-3-1-1-1-1-0-0-0-0-|
C#-0-0-0~~-0-0~~-0-0~~-0-0~~---------------------------------------|
Pm . .     .     .     .

Guitar 2
D#----------------------------------------------------------------|
A#-10-10-10-10-10-10-10-10-10-10-10-10-10-10-10-10-10-10-10-10-10-|
F#----------------------------------------------------------------|
C#----------------------------------------------------------------|
G#----------------------------------------------------------------|
C#----------------------------------------------------------------|

===================================================================
===================================================================


Break Off 1

Guitar 2
D#---------------------------------|
A#-8~~~~~~~~~~~~~~~~~~~~~~~~~~~~~~-|
F#---------------------------------|
C#---------------------------------|
G#---------------------------------|
C#---------------------------------|

===================================================================
===================================================================


Breakdown 2

(x2)

Guitar 1 & 2
D#-----------------------------------------------------------------|
A#-----------------------------------------------------------------|
F#-----------------------------------------------------------------|
C#-5-5-5~~-5-5~~-5-5~~-----5-5-5~~-5-5~~-5-5~~---------------------|
G#-5-5-5~~-5-5~~-5-5~~-----5-5-5~~-5-5~~-5-5~~-----6~~---3~~---3-5-|
C#-5-5-5~~-5-5~~-5-5~~-----5-5-5~~-5-5~~-5-5~~-0-0-----0-----0-----|
Pm . .     .     .         . .     .     .

===================================================================

Guitar 1 & 2
D#-----------------------------------------------------------------|
A#-----------------------------------------------------------------|
F#-------------------------------------------------8~~---7~~---5~~-|
C#-0-0-0~~-0-1~~-0-0~~-----0-0-0~~-0-----0-0~~-----10~---8~~---7~~-|
G#-0-0-0~~-0-1~~-0-0~~-----0-0-0~~-0-----0-0~~---------------------|
C#-0-0-0~~-0-1~~-0-0~~-----0-0-0~~-0-4~~-0-0~~-0-0-----0-----0-----|
Pm . .     .     .         . .     .     .     . .     .     .

===================================================================
===================================================================


Guitar Solo

Guitar 1
D#-----------------------------------------------------------------|
A#-----------------------------------------------------------------|
F#-----------------------------------------------------------------|
C#-5-5-5~~-5-5~~-5-5~~-----5-5-5~~-5-5~~-5-5~~---------------------|
G#-5-5-5~~-5-5~~-5-5~~-----5-5-5~~-5-5~~-5-5~~-----6~~---3~~---3-5-|
C#-5-5-5~~-5-5~~-5-5~~-----5-5-5~~-5-5~~-5-5~~-0-0-----0-----0-----|
Pm . .     .     .         . .     .     .

Guitar 2
D#-----------------------------------------------------------------|
A#-----------------------------------------------------------------|
F#-6b~~~-6b~~~-6b~~~~~~~~~-8~~-5-------------------3-5~~-5b~-3-----|
C#-------------------------------8-8b~-5~~~~~~-3-5-------------5~~-|
G#-----------------------------------------------------------------|
C#-----------------------------------------------------------------|

===================================================================

Guitar 1
D#-----------------------------------------------------------------|
A#-----------------------------------------------------------------|
F#-------------------------------------------------8~~---7~~---5~~-|
C#-0-0-0~~-0-1~~-0-0~~-----0-0-0~~-0-----0-0~~-----10~---8~~---7~~-|
G#-0-0-0~~-0-1~~-0-0~~-----0-0-0~~-0-----0-0~~---------------------|
C#-0-0-0~~-0-1~~-0-0~~-----0-0-0~~-0-4~~-0-0~~-0-0-----0-----0-----|
Pm . .     .     .         . .     .     .     . .     .     .

Guitar 2
D#-----------------------------------------------------------------|
A#-------------------------------------------------6-7-6-8-6---6-7-|
F#-----------------------------------------------------------7-----|
C#-4~~~~-8~~~~-7~~~~-----------------------------------------------|
G#-------------------5*~~~-0-1-3-3*~~~-3*~~~-3*~~~-----------------|
C#-----------------------------------------------------------------|

===================================================================

Guitar 1
D#-----------------------------------------------------------------|
A#-----------------------------------------------------------------|
F#-----------------------------------------------------------------|
C#-5-5-5~~-5-5~~-5-5~~-----5-5-5~~-5-5~~-5-5~~---------------------|
G#-5-5-5~~-5-5~~-5-5~~-----5-5-5~~-5-5~~-5-5~~-----6~~---3~~---3-5-|
C#-5-5-5~~-5-5~~-5-5~~-----5-5-5~~-5-5~~-5-5~~-0-0-----0-----0-----|
Pm . .     .     .         . .     .     .

Guitar 2
D#-------------------------8-10-8-6-8-6~~--------------------------|
A#-8b~~~-8b~~~-8b~~~~~~~~~----------------6-7-8~~~~~~~-8~~-8~~-7-8-|
F#-----------------------------------------------------------------|
C#-----------------------------------------------------------------|
G#-----------------------------------------------------------------|
C#-----------------------------------------------------------------|

===================================================================

Guitar 1
D#-----------------------------------------------------------------|
A#-----------------------------------------------------------------|
F#-----------------------------------------------------------------|
C#-0-0-0~~-0-1~~-0-0~~-----0-0-0~~-----------------0---------------|
G#-0-0-0~~-0-1~~-0-0~~-----0-0-0~~-----------------0---------------|
C#-0-0-0~~-0-1~~-0-0~~-----0-0-0~~-0-0-1-3-0-0-1~~-0---------------|
Pm . .     .     .         . .

Guitar 2
D#-----------------------------------------------------------------|
A#-7~~~~-----------------------------------------------------------|
F#-------8~~~~-7\~~~-----------------------------------------------|
C#-------------------------------------0-3-0-------0---------------|
G#---------------------------------3-5-------3-6~~-0---------------|
C#-------------------------------------------------0---------------|

===================================================================
===================================================================


Verse 2

Guitar 1 & 2
D#-----------------------------------------------------------------|
A#-----------------------------------------------------------------|
F#-----------------------------------------------------------------|
C#-----------------------------------------------------------------|
G#-----------------3~~---------------------------------3~~-1-3-1-0-|
C#-0-0-0~~-0-0~~-0-----0-0~~-0-0~~-0-1~~-0-5~~-0-3~~-0-------------|
Pm . .     .     .     .     .     .     .     .     .

===================================================================

Guitar 1 & 2
D#-----------------------------------------------------------------|
A#-----------------------------------------------------------------|
F#-----------------------------------------------------------------|
C#-----------------------------------------------------------------|
G#-5~~-3-5-5~~-3-6-----------------------------3-------------------|
C#-----------------0~~-1-1~~-5-8-5~~-5-5~~-0-5---4~~-4-4~~-4-4~~~~-|

===================================================================

Guitar 1 & 2
D#-----------------------------------------------------------------|
A#-----------------------------------------------------------------|
F#-----------------------------------------------------------------|
C#-----------------------------------12~---10~---8~~---7~~---------|
G#-----------------3~~---9~~---------------------------------------|
C#-0-0-0~~-0-0~~-0-----0-----0-0~~-0-----0-----0-----0-----4-4-4~~-|
Pm . .     .     .     .     .     .     .     .     .

===================================================================

Guitar 1 & 2
D#-----------------------------------------------------------------|
A#-----------------------------------------------------------------|
F#-----------------------------------------------------------------|
C#-5-5-5---5-5-5~~-1~~-1-0-----------------------------------------|
G#-5-5-5---5-5-5~~---------3-3-3-3---------------------------------|
C#-5-5-5~~-5-5-5~~-----------------1-1-1-1-1-1-1-1-1-1-1-1-1-1-1-1-|
Pm . .     . .

===================================================================
===================================================================


Pre Chorus 2

Guitar 2
D#-15~~~~~-18~~~~~-17~---------------------------------------------|
A#---------------------18~~~~~-15~~~~~---------16~-15~~~~~~~~~~~~~-|
F#-------------------------------------17~~~~~---------------------|
C#-----------------------------------------------------------------|
G#-----------------------------------------------------------------|
C#-----------------------------------------------------------------|

===================================================================
===================================================================


Chorus

Guitar 1
D#-----------------------------------------------------------------|
A#-----------------------------------------------------------------|
F#-----------------------------------------------------------------|
C#-1---1---1---1---1---1---1---1---5---5---5---5---5---5---5---5---|
G#-1---1---1---1---1---1---1---1---5---5---5---5---5---5---5---5---|
C#-1---1---1---1---1---1---1---1---5---5---5---5---5---5---5---5---|

Guitar 2
D#-----------------------------------------------------------------|
A#-----------------------------------------------------------------|
F#-----------------------------------------------------------------|
C#-5~~-5-5-7~~-8~~~~~~-8~~-8-8-8-8-5~~-5-5-7~~-8~~~~~~-8~~-8-8-8-8-|
G#-----------------------------------------------------------------|
C#-----------------------------------------------------------------|

===================================================================

Guitar 1
D#-----------------------------------------------------------------|
A#-----------------------------------------------------------------|
F#-----------------------------------------------------------------|
C#-8---8---8---8---8---8---8---8---3---3---3---3---3---3---3---3---|
G#-8---8---8---8---8---8---8---8---3---3---3---3---3---3---3---3---|
C#-8---8---8---8---8---8---8---8---3---3---3---3---3---3---3---3---|

Guitar 2
D#-----------------------------------------------------------------|
A#-----------------------------------------------------------------|
F#-7~~-7-7-7~~-7~~-7~~-8~~-7~~-5~~~~~~-5~~-5~~---------------------|
C#---------------------------------------------8~~-8~~-8~~-7~~~~~~-|
G#-----------------------------------------------------------------|
C#-----------------------------------------------------------------|

===================================================================

Guitar 1
D#-----------------------------------------------------------------|
A#-----------------------------------------------------------------|
F#-----------------------------------------------------------------|
C#-1---1---1---1---1---1---1---1---5---5---5---5---5---5---5---5---|
G#-1---1---1---1---1---1---1---1---5---5---5---5---5---5---5---5---|
C#-1---1---1---1---1---1---1---1---5---5---5---5---5---5---5---5---|

Guitar 2
D#-----------------------------------------------------------------|
A#-----------------------------------------------------------------|
F#-----------------------------------------------------------------|
C#-5~~-5-5-7~~-8~~~~~~-8~~-8-8-8-8-5~~-5-5-7~~-8~~~~~~-8~~-8-8-8-8-|
G#-----------------------------------------------------------------|
C#-----------------------------------------------------------------|

===================================================================

Guitar 1
D#-----------------------------------------------------------------|
A#-----------------------------------------------------------------|
F#-----------------------------------------------------------------|
C#-----------------------------------------------------------------|
G#-5-5-5-5-5-5-5-5-5-5-5-5-5-5-5-5-5-5-5-3-3-3-1-1-1-1-0-0-0-0-0-0-|
C#-----------------------------------------------------------------|

Guitar 2
D#----------------------------------------------------------------|
A#----------------------------------------------------------------|
F#----------------------------------------------------------------|
C#-7~~-7~~-7~~----------------------------------------------------|
G#-------------9~~-9~~-9~~----------------------------------------|
C#-------------------------10-10-10-10-10-10-10-10-10-10-10-10-10-|

===================================================================

Guitar 1
D#-----------------------------------------------------------------|
A#-----------------------------------------------------------------|
F#-----------------------------------------------------------------|
C#-1---1---1---1---1---1---1---1---5---5---5---5---5---5---5---5---|
G#-1---1---1---1---1---1---1---1---5---5---5---5---5---5---5---5---|
C#-1---1---1---1---1---1---1---1---5---5---5---5---5---5---5---5---|

Guitar 2 (x2)
D#-------------------------------------|
A#-8~~-8-8-10~-11~~~~~-11~-11-11-11-11-|
F#-------------------------------------|
C#-------------------------------------|
G#-------------------------------------|
C#-------------------------------------|

===================================================================

Guitar 1
D#-----------------------------------------------------------------|
A#-----------------------------------------------------------------|
F#-----------------------------------------------------------------|
C#-8---8---8---8---8---8---8---8---3---3---3---3---3---3---3---3---|
G#-8---8---8---8---8---8---8---8---3---3---3---3---3---3---3---3---|
C#-8---8---8---8---8---8---8---8---3---3---3---3---3---3---3---3---|

Guitar 2
D#-10~-10-10-10~-10~-10~-11~-10~-8~~~~~~-8~~-8~~-------------------|
A#-----------------------------------------------11~-11~-11~-10~~~-|
F#-----------------------------------------------------------------|
C#-----------------------------------------------------------------|
G#-----------------------------------------------------------------|
C#-----------------------------------------------------------------|

===================================================================

Guitar 1
D#-----------------------------------------------------------------|
A#-----------------------------------------------------------------|
F#-----------------------------------------------------------------|
C#-1---1---1---1---1---1---1---1---5---5---5---5---5---5---5---5---|
G#-1---1---1---1---1---1---1---1---5---5---5---5---5---5---5---5---|
C#-1---1---1---1---1---1---1---1---5---5---5---5---5---5---5---5---|

Guitar 2 (x2)
D#-------------------------------------|
A#-8~~-8-8-10~-11~~~~~-11~-11-11-11-11-|
F#-------------------------------------|
C#-------------------------------------|
G#-------------------------------------|
C#-------------------------------------|

===================================================================

Guitar 1
D#-----------------------------------------------------------------|
A#-----------------------------------------------------------------|
F#-----------------------------------------------------------------|
C#-0-0-0~~-0-0~~-0-0~~-0-0~~---------------------------------------|
G#-0-0-0~~-0-0~~-0-0~~-0-0~~-3-0~~-5-5-5-5-3-3-3-3-1-1-1-1-0-0-0-0-|
C#-0-0-0~~-0-0~~-0-0~~-0-0~~---------------------------------------|
Pm . .     .     .     .

Guitar 2
D#----------------------------------------------------------------|
A#-10-10-10-10-10-10-10-10-10-10-10-10-10-10-10-10-10-10-10-10-10-|
F#----------------------------------------------------------------|
C#----------------------------------------------------------------|
G#----------------------------------------------------------------|
C#----------------------------------------------------------------|

===================================================================
===================================================================


Break Off 2

Guitar 1
D#-----------------------------------------------------------------|
A#-----------------------------------------------------------------|
F#-----------------------------------------------------------------|
C#-----------------------------------------------------------------|
G#-----------------------------------------------------------------|
C#-------------------------------0-6b~-0-0~~-0-0~~-6b~-0-0~~-1-0~~-|

Guitar 2
D#-----------------------------------------------------------------|
A#-----------------------------------------------------------------|
F#-----------------------------------------------------------------|
C#-5~~~~-5-6~~-5~~~~-----------------------------------------------|
G#-5~~~~-5-6~~-5~~~~---------6~~-----------------------------------|
C#-5~~~~-5-6~~-5~~~~-5-6-4~~---------------------------------------|

===================================================================

Guitar 1
D#-----------------------------------------------------------------|
A#-----------------------------------------------------------------|
F#-----------------------------------------------------------------|
C#-----------------------------------------------------------------|
G#---------------------------------5b~-------------5b~-------5-----|
C#-------------------------------0-----0-0~~-0-0~~-----0-0~~---0~~-|

Guitar 2
D#-----------------------------------------------------------------|
A#-----------------------------------------------------------------|
F#-----------------------------------------------------------------|
C#-5~~~~-5-6~~-5~~~~-----------------------------------------------|
G#-5~~~~-5-6~~-5~~~~-----------------------------------------------|
C#-5~~~~-5-6~~-5~~~~-0-1~~~~-4~~-----------------------------------|

===================================================================
===================================================================


Breakdown 3

Guitar 1 & 2
D#-----------------------------------------------------------------|
A#-----------------------------------------------------------------|
F#-----------------------------------------------------------------|
C#-5~~~~-5-6~~-5~~~~-----------------------------------------------|
G#-5~~~~-5-6~~-5~~~~---------6~~-----------------------------------|
C#-5~~~~-5-6~~-5~~~~-5-6-4~~-----0-6b~-0-0~~-0-0~~-6b~-0-0~~-1-0~~-|

===================================================================

Guitar 1 & 2
D#-----------------------------------------------------------------|
A#-----------------------------------------------------------------|
F#-----------------------------------------------------------------|
C#-5~~~~-5-6~~-5~~~~-----------------------------------------------|
G#-5~~~~-5-6~~-5~~~~---------------5b~-------------5b~-------5-----|
C#-5~~~~-5-6~~-5~~~~-0-1~~~~-4~~-0-----0-0~~-0-0~~-----0-0~~---0~~-|

===================================================================

Guitar 1 & 2
D#-----------------------------------------------------------------|
A#-----------------------------------------------------------------|
F#-----------------------------------------------------------------|
C#-5~~~~-5-6~~-5~~~~-----------------------------------------------|
G#-5~~~~-5-6~~-5~~~~---------6~~-----------------------------------|
C#-5~~~~-5-6~~-5~~~~-5-6-4~~-----0-6b~-0-0~~-0-0~~-6b~-0-0~~-1-0~~-|

===================================================================

Guitar 1 & 2
D#-----------------------------------------------------------------|
A#-----------------------------------------------------------------|
F#-----------------------------------------------------------------|
C#-5~~~~-5-6~~-5~~~~-----------------------------------------------|
G#-5~~~~-5-6~~-5~~~~---------------5b~-------------5b~-------5-----|
C#-5~~~~-5-6~~-5~~~~-0-1~~~~-4~~-0-----0-0~~-0-0~~-----0-0~~---0~~-|

===================================================================

Guitar 1 & 2
D#-----------------------------------------------------------------|
A#-----------------------------------------------------------------|
F#-----------------------------------------------------------------|
C#-5~~~~-5-6~~-5~~~~-----------------------------------------------|
G#-5~~~~-5-6~~-5~~~~---------6~~-----------------------------------|
C#-5~~~~-5-6~~-5~~~~-5-6-4~~-----0-6b~-0-0~~-0-0~~-6b~-0-0~~-1-0~~-|

===================================================================

Guitar 1 & 2
D#-----------------------------------------------------------------|
A#-----------------------------------------------------------------|
F#-----------------------------------------------------------------|
C#-5~~~~-5-6~~-5~~~~-----------------------------------------------|
G#-5~~~~-5-6~~-5~~~~---------------5b~-------------5b~-------5-----|
C#-5~~~~-5-6~~-5~~~~-0-1~~~~-4~~-0-----0-0~~-0-0~~-----0-0~~---0~~-|

===================================================================

Guitar 1 & 2
D#-----------------------------------------------------------------|
A#-----------------------------------------------------------------|
F#-----------------------------------------------------------------|
C#-5~~~~-5-6~~-5~~~~-----------------------------------------------|
G#-5~~~~-5-6~~-5~~~~---------6~~-----------------------------------|
C#-5~~~~-5-6~~-5~~~~-5-6-4~~-----0-6b~-0-0~~-0-0~~-6b~-0-0~~-1-0~~-|

===================================================================

Guitar 1
D#-----------------------------------------------------------------|
A#-----------------------------------------------------------------|
F#-----------------------------------------------------------------|
C#-5~~~~-5-6~~-5~~~~-------------------------------x-x-x-x---------|
G#-5~~~~-5-6~~-5~~~~---------------5b~-------------x-x-x-x---------|
C#-5~~~~-5-6~~-5~~~~-0-1~~~~-4~~-0-----0-0~~-0-0~~-x-x-x-x---------|

Guitar 2
D#-----------------------------------------------------------------|
A#-----------------------------------------------------------------|
F#-----------------------------------------------------------------|
C#-5~~~~-5-6~~-5~~~~---------------------------------------x-x-x-x-|
G#-5~~~~-5-6~~-5~~~~---------------5b~---------------------x-x-x-x-|
C#-5~~~~-5-6~~-5~~~~-0-1~~~~-4~~-0-----0-0~~-0-0~~---------x-x-x-x-|

===================================================================
===================================================================


Breakdown 4

(x2)

Guitar 1 & 2
D#-----------------------------------------------------------------|
A#-----------------------------------------------------------------|
F#-----------------------------------------------------------------|
C#-0~~-0-0-0~~-0~~-0-0-0~~~~-0-0~~-0-0~~-0~~~~-0-0~~~~-0-0~~~~-0-0-|
G#-0~~-0-0-0~~-0~~-0-0-0~~~~-0-0~~-0-0~~-0~~~~-0-0~~~~-0-0~~~~-0-0-|
C#-0~~-0-0-0~~-0~~-0-0-0~~~~-0-0~~-0-0~~-0~~~~-0-0~~~~-0-0~~~~-0-0-|
Pm .   . . .   .   . . .     . .   . .   .     . .     . .     . .

===================================================================

Guitar 1 & 2
D#-----------------------------------------------------------------|
A#-----------------------------------------------------------------|
F#-----------------------------------------------------------------|
C#-0~~-0-0~~-0-0-0-0-0~~-0-0~~-0-0-0-0-0-0---0-0---0-0-0-0---0-0---|
G#-0~~-0-0~~-0-0-0-0-0~~-0-0~~-0-0-0-0-0-0---0-0---0-0-0-0---0-0---|
C#-0~~-0-0~~-0-0-0-0-0~~-0-0~~-0-0-0-0-0-0---0-0---0-0-0-0---0-0---|
Pm .   . .   . . . . .   . .   . . . . . .   . .   . . . .   . .

===================================================================
===================================================================


Pre Chorus 3

Guitar 2
D#-18~~~~~-22~-20~~~~~-17~-18~-20~-17~~~~~~~~~~~~~~~~~~~~~~~~~~~~~-|
A#-20~~~~~-------------------------18~~~~~~~~~~~~~~~~~~~~~~~~~~~~~-|
F#-----------------------------------------------------------------|
C#-----------------------------------------------------------------|
G#-----------------------------------------------------------------|
C#-----------------------------------------------------------------|

===================================================================
===================================================================


Chorus

Guitar 1
D#-----------------------------------------------------------------|
A#-----------------------------------------------------------------|
F#-----------------------------------------------------------------|
C#-1---1---1---1---1---1---1---1---5---5---5---5---5---5---5---5---|
G#-1---1---1---1---1---1---1---1---5---5---5---5---5---5---5---5---|
C#-1---1---1---1---1---1---1---1---5---5---5---5---5---5---5---5---|

Guitar 2
D#-----------------------------------------------------------------|
A#-----------------------------------------------------------------|
F#-----------------------------------------------------------------|
C#-5~~-5-5-7~~-8~~~~~~-8~~-8-8-8-8-5~~-5-5-7~~-8~~~~~~-8~~-8-8-8-8-|
G#-----------------------------------------------------------------|
C#-----------------------------------------------------------------|

===================================================================

Guitar 1
D#-----------------------------------------------------------------|
A#-----------------------------------------------------------------|
F#-----------------------------------------------------------------|
C#-8---8---8---8---8---8---8---8---3---3---3---3---3---3---3---3---|
G#-8---8---8---8---8---8---8---8---3---3---3---3---3---3---3---3---|
C#-8---8---8---8---8---8---8---8---3---3---3---3---3---3---3---3---|

Guitar 2
D#-----------------------------------------------------------------|
A#-----------------------------------------------------------------|
F#-7~~-7-7-7~~-7~~-7~~-8~~-7~~-5~~~~~~-5~~-5~~---------------------|
C#---------------------------------------------8~~-8~~-8~~-7~~~~~~-|
G#-----------------------------------------------------------------|
C#-----------------------------------------------------------------|

===================================================================

Guitar 1
D#-----------------------------------------------------------------|
A#-----------------------------------------------------------------|
F#-----------------------------------------------------------------|
C#-1---1---1---1---1---1---1---1---5---5---5---5---5---5---5---5---|
G#-1---1---1---1---1---1---1---1---5---5---5---5---5---5---5---5---|
C#-1---1---1---1---1---1---1---1---5---5---5---5---5---5---5---5---|

Guitar 2
D#-----------------------------------------------------------------|
A#-----------------------------------------------------------------|
F#-----------------------------------------------------------------|
C#-5~~-5-5-7~~-8~~~~~~-8~~-8-8-8-8-5~~-5-5-7~~-8~~~~~~-8~~-8-8-8-8-|
G#-----------------------------------------------------------------|
C#-----------------------------------------------------------------|

===================================================================

Guitar 1
D#-----------------------------------------------------------------|
A#-----------------------------------------------------------------|
F#-----------------------------------------------------------------|
C#-----------------------------------------------------------------|
G#-5-5-5-5-5-5-5-5-5-5-5-5-5-5-5-5-5-5-5-3-3-3-1-1-1-1-0-0-0-0-0-0-|
C#-----------------------------------------------------------------|

Guitar 2
D#----------------------------------------------------------------|
A#----------------------------------------------------------------|
F#----------------------------------------------------------------|
C#-7~~-7~~-7~~----------------------------------------------------|
G#-------------9~~-9~~-9~~----------------------------------------|
C#-------------------------10-10-10-10-10-10-10-10-10-10-10-10-10-|

===================================================================

Guitar 1
D#-----------------------------------------------------------------|
A#-----------------------------------------------------------------|
F#-----------------------------------------------------------------|
C#-1---1---1---1---1---1---1---1---5---5---5---5---5---5---5---5---|
G#-1---1---1---1---1---1---1---1---5---5---5---5---5---5---5---5---|
C#-1---1---1---1---1---1---1---1---5---5---5---5---5---5---5---5---|

Guitar 2 (x2)
D#-------------------------------------|
A#-8~~-8-8-10~-11~~~~~-11~-11-11-11-11-|
F#-------------------------------------|
C#-------------------------------------|
G#-------------------------------------|
C#-------------------------------------|

===================================================================

Guitar 1
D#-----------------------------------------------------------------|
A#-----------------------------------------------------------------|
F#-----------------------------------------------------------------|
C#-8---8---8---8---8---8---8---8---3---3---3---3---3---3---3---3---|
G#-8---8---8---8---8---8---8---8---3---3---3---3---3---3---3---3---|
C#-8---8---8---8---8---8---8---8---3---3---3---3---3---3---3---3---|

Guitar 2
D#-10~-10-10-10~-10~-10~-11~-10~-8~~~~~~-8~~-8~~-------------------|
A#-----------------------------------------------11~-11~-11~-10~~~-|
F#-----------------------------------------------------------------|
C#-----------------------------------------------------------------|
G#-----------------------------------------------------------------|
C#-----------------------------------------------------------------|

===================================================================

Guitar 1
D#-----------------------------------------------------------------|
A#-----------------------------------------------------------------|
F#-----------------------------------------------------------------|
C#-1---1---1---1---1---1---1---1---5---5---5---5---5---5---5---5---|
G#-1---1---1---1---1---1---1---1---5---5---5---5---5---5---5---5---|
C#-1---1---1---1---1---1---1---1---5---5---5---5---5---5---5---5---|

Guitar 2 (x2)
D#-------------------------------------|
A#-8~~-8-8-10~-11~~~~~-11~-11-11-11-11-|
F#-------------------------------------|
C#-------------------------------------|
G#-------------------------------------|
C#-------------------------------------|

===================================================================

Guitar 1
D#-----------------------------------------------------------------|
A#-----------------------------------------------------------------|
F#-----------------------------------------------------------------|
C#-0-0-0~~-0-0~~-0-0~~-0-0~~---------------------------------------|
G#-0-0-0~~-0-0~~-0-0~~-0-0~~-3-0~~-5-5-5-5-3-3-3-3-1-1-1-1-0-0-0-0-|
C#-0-0-0~~-0-0~~-0-0~~-0-0~~---------------------------------------|
Pm . .     .     .     .

Guitar 2
D#----------------------------------------------------------------|
A#-10-10-10-10-10-10-10-10-10-10-10-10-10-10-10-10-10-10-10-10-10-|
F#----------------------------------------------------------------|
C#----------------------------------------------------------------|
G#----------------------------------------------------------------|
C#----------------------------------------------------------------|

===================================================================
===================================================================


Outro

Guitar 1
D#-----------------------------------------------------------------|
A#-----------------------------------------------------------------|
F#-----------------------------------------------------------------|
C#-5~~~~~~~~~~~~~~~~~~~~~~~~~~~~~~~~~~~~~~~~~~~~~~~~~~~~~~~~~~~~~~-|
G#-5~~~~~~~~~~~~~~~~~~~~~~~~~~~~~~~~~~~~~~~~~~~~~~~~~~~~~~~~~~~~~~-|
C#-5~~~~~~~~~~~~~~~~~~~~~~~~~~~~~~~~~~~~~~~~~~~~~~~~~~~~~~~~~~~~~~-|

Guitar 2
D#-----------------------------------------------------------------|
A#-8~~~~~~~~~~~~~~~~~~~~~~~~~~~~~~~~~~~~~~~~~~~~~~~~~~~~~~~~~~~~~~-|
F#-----------------------------------------------------------------|
C#-----------------------------------------------------------------|
G#-----------------------------------------------------------------|
C#-----------------------------------------------------------------|

===================================================================
===================================================================
===================================================================


Tab Legend
h  - hammer-on
p  - pull-off
/  - slide up
\  - slide down
ps/- pickslide up
ps\- pickslide down
~  - let ring
pm.- palm mute
b  - bend
r  - return from bend
t  - finger tapping
*  - harmonic
x  - dead note
^  - Whammy bar
^\ - Whammy bar (hold down)

That is all! I hope this helped, and be sure to check out my cover if you are
having problems with the tab. Thanks, oh and one last thing... ROCK OUT!!!!
1 comment total.
0 reply
AdamGuion wrote on June 30 2012, 08:35 pm

Perfect tab, the only thing is that it's hard to follow along when both guitars are mashed together. I think it's easier to read when it's one complete guitar tab, and then guitar two follows at the end of the first. Great job though!

I want to post or [tab]
guest
You may want to rate the tab now too:
select rating
Please do not post tabs as comments. Select "correction" instead!