Oops, an error
Loading. Please wait.

Challenger Tab

ver1
ver1

Album

Interactive

More versions @911Tabs.com
5,530 views 6 this week
no commentswrite comment
1 2 3 4 5
excellent!
x 3
Autoscroll
+/-
esc
set tempo
stop
Contributor
Difficulty
intermediate
Hey! There's an official Ultimate Guitar app which is ideal
for learning songs when you're away from computer. Get the app
WARNING: You are trying to view
                                    content from Ultimate-Guitar.com
                                    in an unauthorized application,
                                    which is prohibited.

                                    Please use an official Ultimate
                                    Guitar Tabs application for iPhone,
                                    iPad or Android to access legitimate
                                    chords, guitar, bass, and drum tabs
                                    from Ultimate-Guitar.com database.

                                    Type "ultimate guitar tabs" in Apple
                                    App Store's or Android Market's
                                    search to find the application.
----------------------------------------------------------------------------
                              Challenger
                           Memphis May Fire
----------------------------------------------------------------------------

This is the completed full album tab for Memphis May Fire’s “Challenger” album. After
hours and hours of listening, playing and tabbing, I have finished tabbing and covering my
“2012 album of the year”. This is my opinion though and I really don’t see anything 
getting better than this in 2012. God Bless MMF. Enjoy!

Username: dkm817 (same on X box live)
Challenger Album Cover: Not Yet Available
Email: guitardrums@rockfan.com

Tab Guide...
===================================================================
(end of measures)

===================================================================
===================================================================
(end of parts)

===================================================================
===================================================================
===================================================================
(end of song)

===================================================================
===================================================================
===================================================================
===================================================================
(end of album)

(If there is a “continued” it is because the numbers could not
fit on 1 line or connecting times played.)


----------------------------------------------------------------------------
                            Without Walls
                           Memphis May Fire
----------------------------------------------------------------------------

What a great way to start and album. It makes me feel like I’m starting a movie. Once
those lyrics come in, it gives life to the whole album. It is just amazing all around. Enjoy!

Guitar 1 Rhythmic (C# G# C# F# A# D#)
Guitar 2 Lead     (C# G# C# F# A# D#)


===================================================================
Guitar 1
===================================================================


Intro

Guitar 1 (Piano Part) (x5)
D#-----------------------------------------------------------------|
A#-10~~~~~-----11~-10~~~~~---------------------10~-----------------|
F#---------12~-------------10~~~~~-12~~~~~-12~-------------12~~~~~-|
C#-0~~~~~~~~~~~~~~~~~~~~~~~~~~~~~~~~~~~~~~~~~~~~~~-11~~~~~~~~~~~~~-|
G#-----------------------------------------------------------------|
C#-----------------------------------------------------------------|

===================================================================

Guitar 1 continued
D#-----------------------------------------------------------------|
A#-----------------------------------------------------------------|
F#-10~~~~~-10~-12~-10~~~~~-9~~~~~~-10~~~~~-9~~~~~~-----------------|
C#-8~~~~~~~~~~~~~~~~~~~~~~~~~~~~~~-11~~~~~~~~~~~~~-12~~~~~-11~~~~~-|
G#-----------------------------------------------------------------|
C#-----------------------------------------------------------------|

===================================================================

Guitar 1 (Piano Part) (x5)
D#-----------------------------------------------------------------|
A#-10~~~~~-----11~-10~~~~~---------------------10~-----------------|
F#---------12~-------------10~~~~~-12~~~~~-12~-------------12~~~~~-|
C#-0~~~~~~~~~~~~~~~~~~~~~~~~~~~~~~~~~~~~~~~~~~~~~~-11~~~~~~~~~~~~~-|
G#-----------------------------------------------------------------|
C#-----------------------------------------------------------------|

===================================================================

Guitar 1
D#-----------------------------------------------------------------|
A#-----------------------------------------------------------------|
F#-10~~~~~-10~-12~-10~~~~~-9~~~~~~---------------------------------|
C#-8~~~~~~~~~~~~~~~~~~~~~~~~~~~~~~---------------------------------|
G#-----------------------------------------------------------------|
C#---------------------------------------------------------3~b~r~~-|

===================================================================
===================================================================


Verse

Guitar 1
D#-----------------------------------------------------------------|
A#-----------------------------------------------------------------|
F#-----------------------------------------------------------------|
C#---------------------------------------------0~~-----------------|
G#-----------------5b~---------------------4~~~~~~-1-0-------------|
C#-0---0---3-2-0-------0-0---3-0---7b~-0---------------5-3---5-0-0-|

===================================================================

Guitar 1
D#-----------------------------------------------------------------|
A#-----------------------------------------------------------------|
F#-----------------------------------------------------------------|
C#-8-------------------------------7---------------5-----7-----3---|
G#-----5-----------5-------------------4-----------5-----7-----3---|
C#---------8-8-8-------0-8---0-5-----------7-7-7---5---0-7---0-3---|
Pm         . .         .     .             . .         .     .

===================================================================

Guitar 1
D#-----------------------------------------------------------------|
A#-----------------------------------------------------------------|
F#-----------------------------------------------------------------|
C#---------------------------------------------0~~-----------------|
G#-----------------5b~---------------------4~~~~~~-1-0-------------|
C#-0---0---3-2-0-------0-0---3-0---7b~-0---------------5-3---5-0-0-|

===================================================================

Guitar 1
D#-----------------------------------------------------------------|
A#-----------------------------------------------------------------|
F#-----------------------------------------------------------------|
C#-8-------------------------------7---7-7---7-7---------------7-7-|
G#-----5-----------8-----10----7---7---7-7---7-7---4-4-4-4-7-7-----|
C#---------8-8-8-------0-----0-----7---7-7---7-7-------------------|
Pm         . .         .     .         .     .

===================================================================

Guitar 1
D#-----------------------------------------------------------------|
A#-----------------------------------------------------------------|
F#-----------------------------------------------------------------|
C#---------------------------------------------0~~-----------------|
G#-----------------5b~---------------------4~~~~~~-1-0-------------|
C#-0---0---3-2-0-------0-0---3-0---7b~-0---------------5-3---5-0-0-|

===================================================================

Guitar 1
D#-----------------------------------------------------------------|
A#-----------------------------------------------------------------|
F#-----------------------------------------------------------------|
C#-8-------------------------------7---------------5-----7-----3---|
G#-----5-----------5-------------------4-----------5-----7-----3---|
C#---------8-8-8-------0-8---0-5-----------7-7-7---5---0-7---0-3---|
Pm         . .         .     .             . .         .     .

===================================================================

Guitar 1
D#-----------------------------------------------------------------|
A#-----------------------------------------------------------------|
F#-----------------------------------------------------------------|
C#---------------------------------------------0~~-----------------|
G#-----------------5b~---------------------4~~~~~~-1-0-------------|
C#-0---0---3-2-0-------0-0---3-0---7b~-0---------------5-3---5-0-0-|

===================================================================

Guitar 1
D#-----------------------------------------------------------------|
A#-----------------------------------------------------------------|
F#-----------------------------------------------------------------|
C#-8-------------------------------7---7-7---7-7---0-0-0-0---x-x-x-|
G#-----5-----------8-----10----7---7---7-7---7-7---0-0-0-0---x-x-x-|
C#---------8-8-8-------0-----0-----7---7-7---7-7---0-0-0-0---x-x-x-|
Pm         . .         .     .         .     .     . . . .

===================================================================
===================================================================


Breakdown

Guitar 1
D#------------------------------------------------------------------|
A#------------------------------------------------------------------|
F#------------------------------------------------------------------|
C#-0~~~~~~~~~~-0~~~~~~~~~~-0~~~~~~-0-0-0-0-0~~~~~~-0~~~~~~-0---0~~~-|
G#-0~~~~~~~~~~-0~~~~~~~~~~-0~~~~~~-0-0-0-0-0~~~~~~-0~~~~~~-0---0~~~-|
C#-0~~~~~~~~~~-0~~~~~~~~~~-0~~~~~~-0-0-0-0-0~~~~~~-0~~~~~~-0---0~~~-|
Pm .           .           .       . . . . .       .       .   .

===================================================================

Guitar 1
D#-----------------------------------------------------------------|
A#-----------------------------------------------------------------|
F#-----------------------------------------------------------------|
C#-~~~-------------------------------------------------------------|
G#-~~~-4b--4b~~~~~-------------------------------------------------|
C#-~~~-------------0---0-------------------x---x-------x---0~~~~~~-|

===================================================================

Guitar 1
D#-----------------------------------------------------------------|
A#-----------------------------------------------------------------|
F#-----------------------------------------------------------------|
C#-0---0---0-------0---0-------0---0-0-0-0-0-------0---0-------0---|
G#-0---0---0-------0---0-------0---0-0-0-0-0-------0---0-------0---|
C#-0---0---0-------0---0-------0---0-0-0-0-0-------0---0-------0---|
Pm .   .   .       .   .       .   . . . . .       .   .       .

===================================================================

Guitar 1
D#-----------------------------------------------------------------|
A#-----------------------------------------------------------------|
F#-----------------------------------------------------------------|
C#-----------------------------------------------------------------|
G#-----5---5~~~~~~-1---0-------------------------------------------|
C#-----------------------------------------3---3-------2---0-------|

===================================================================

Guitar 1
D#------------------------------------------------------------------|
A#------------------------------------------------------------------|
F#------------------------------------------------------------------|
C#-0~~~~~~~~~~-0~~~~~~~~~~-0~~~~~~-0-0-0-0-0~~~~~~-0~~~~~~-0---0~~~-|
G#-0~~~~~~~~~~-0~~~~~~~~~~-0~~~~~~-0-0-0-0-0~~~~~~-0~~~~~~-0---0~~~-|
C#-0~~~~~~~~~~-0~~~~~~~~~~-0~~~~~~-0-0-0-0-0~~~~~~-0~~~~~~-0---0~~~-|
Pm .           .           .       . . . . .       .       .   .

===================================================================

Guitar 1
D#-----------------------------------------------------------------|
A#-----------------------------------------------------------------|
F#-----------------------------------------------------------------|
C#-~~~~~~~~~~~~~~~~~~~~~~~~~~~~~~~~~~~~~~~-0---0~~~~~~-0---0---0---|
G#-~~~~~~~~~~~~~~~~~~~~~~~~~~~~~~~~~~~~~~~-0---0~~~~~~-0---0---0---|
C#-~~~~~~~~~~~~~~~~~~~~~~~~~~~~~~~~~~~~~~~-0---0~~~~~~-0---0---0---|
Pm                                         .   .       .   .   .

===================================================================

Guitar 1
D#-----------------------------------------------------------------|
A#-----------------------------------------------------------------|
F#-----------------------------------------------------------------|
C#-0~~~~~~~~~~-0~~~~~~~~~~-0~~~~~~-0-0-0-0-0~~~~~~-0~~~~~~-0---0---|
G#-0~~~~~~~~~~-0~~~~~~~~~~-0~~~~~~-0-0-0-0-0~~~~~~-0~~~~~~---------|
C#-0~~~~~~~~~~-0~~~~~~~~~~-0~~~~~~-0-0-0-0-0~~~~~~-0~~~~~~---------|
Pm .           .           .       . . . . .       .

===================================================================

Guitar 1
D#-----------------------------------------------------------------|
A#-----------------------------------------------------------------|
F#-----------------------------------------------------------------|
C#-3~~~~~~-0---5~~~~~~-0---3~~~~~~---------------------------------|
G#-3~~~~~~-0---5~~~~~~-0---3~~~~~~-1b~~~~~-----1b~~~~~-----4b~~~~~-|
C#-3~~~~~~-0---5~~~~~~-0---3~~~~~~---------0-----------0-----------|
Pm         .           .                   .           .

===================================================================

Guitar 1
D#-----------------------------------------------------------------|
A#-----------------------------------------------------------------|
F#-----------------------------------------------------------------|
C#-0---------------------------------------------------------------|
G#-0---------------------------------------------------------------|
C#-0---------------------------------------------------------------|
Pm .

===================================================================
===================================================================
===================================================================


===================================================================
Guitar 2
===================================================================


Intro


===================================================================
Rest
===================================================================


===================================================================

Guitar 2 (x4)
D#-------------------------5~~~~~~~~~~~~~~~~~~~~~~~~~~~~~~-5~~~~~~~-|
A#-----------------6~~~~~~~~~~~~~~~~~~~~~~~~~~~~~~-6~~~~~~~~~~~~~~~-|
F#---------7~~~~~~~~~~~~~~~~~~~~~~~~~~~~~~-7~~~~~~~~~~~~~~~~~~~~~~~-|
C#------------------------------------------------------------------|
G#------------------------------------------------------------------|
C#------------------------------------------------------------------|

===================================================================

Guitar 2 continued
D#-~~~~~~~~~~~~~~~~~~~~~~~-5~~~~~~~~~~~~~~~~~~~~~~~~~~~~~~-5~~~~~~~
A#-~~~~~~~~~~~~~~~-8~~~~~~~~~~~~~~~~~~~~~~~~~~~~~~-8~~~~~~~~~~~~~~~
F#-~~~~~~~-7~~~~~~~~~~~~~~~~~~~~~~~~~~~~~~-6~~~~~~~~~~~~~~~~~~~~~~~
C#-----------------------------------------------------------------|
G#-----------------------------------------------------------------|
C#-----------------------------------------------------------------|

===================================================================

Guitar 2
D#-------------------------5~~~~~~~~~~~~~~~~~~~~~~~~~~~~~~-5~~~~~~~-|
A#-----------------6~~~~~~~~~~~~~~~~~~~~~~~~~~~~~~-6~~~~~~~~~~~~~~~-|
F#---------7~~~~~~~~~~~~~~~~~~~~~~~~~~~~~~-7~~~~~~~~~~~~~~~~~~~~~~~-|
C#------------------------------------------------------------------|
G#------------------------------------------------------------------|
C#------------------------------------------------------------------|

===================================================================

Guitar 2
D#-~~~~~~~~~~~~~~~~~~~~~~~-5~~~~~~~~~------------------------------|
A#-~~~~~~~~~~~~~~~-8~~~~~~~~~~~~~~~~~------------------------------|
F#-~~~~~~~-7~~~~~~~~~~~~~~~~~~~~~~~~~------------------------------|
C#-----------------------------------------------------------------|
G#-----------------------------------------------------------------|
C#---------------------------------------------------------3~b~r~~-|

===================================================================
===================================================================

Verse

Guitar 2
D#-----------------------------------------------------------------|
A#-----------------------------------------------------------------|
F#-----------------------------------------------------------------|
C#---------------------------------------------0~~-----------------|
G#-----------------5b~---------------------4~~~~~~-1-0-------------|
C#-0---0---3-2-0-------0-0---3-0---7b~-0---------------5-3---5-0-0-|

===================================================================

Guitar 2
D#-----------------------------------------------------------------|
A#-----------------------------------------------------------------|
F#-7-------------------------------6-------------------------------|
C#-----8-------------------------------7-----------5-----7-----3---|
G#-----------------5-------------------------------5-----7-----3---|
C#---------8-8-8-------0-8---0-5-----------7-7-7---5---0-7---0-3---|
Pm         . .         .     .             . .         .     .

===================================================================

Guitar 2
D#-----------------------------------------------------------------|
A#-----------------------------------------------------------------|
F#-----------------------------------------------------------------|
C#---------------------------------------------0~~-----------------|
G#-----------------5b~---------------------4~~~~~~-1-0-------------|
C#-0---0---3-2-0-------0-0---3-0---7b~-0---------------5-3---5-0-0-|

===================================================================

Guitar 2
D#-----------------------------------------------------------------|
A#-----------------------------------------------------------------|
F#-7---------------------------------------------------------------|
C#-----8---------------------------7-7-7-7-7-7-7-7-------------7-7-|
G#---------------------------------4-4-4-4-4-4-4-4-4-4-4-4-7-7-----|
C#---------8-8-8---5---0-8---0-5-----------------------------------|
Pm         . .         .     .

===================================================================

Guitar 2
D#-----------------------------------------------------------------|
A#-----------------------------------------------------------------|
F#-----------------------------------------------------------------|
C#---------------------------------------------0~~-----------------|
G#-----------------5b~---------------------4~~~~~~-1-0-------------|
C#-0---0---3-2-0-------0-0---3-0---7b~-0---------------5-3---5-0-0-|

===================================================================

Guitar 2
D#-----------------------------------------------------------------|
A#-----------------------------------------------------------------|
F#-7-------------------------------6-------------------------------|
C#-----8-------------------------------7-----------5-----7-----3---|
G#-----------------5-------------------------------5-----7-----3---|
C#---------8-8-8-------0-8---0-5-----------7-7-7---5---0-7---0-3---|
Pm         . .         .     .             . .         .     .

===================================================================

Guitar 2
D#-----------------------------------------------------------------|
A#-----------------------------------------------------------------|
F#-----------------------------------------------------------------|
C#---------------------------------------------0~~-----------------|
G#-----------------5b~---------------------4~~~~~~-1-0-------------|
C#-0---0---3-2-0-------0-0---3-0---7b~-0---------------5-3---5-0-0-|

===================================================================

Guitar 2
D#-----------------------------------------------------------------|
A#-----------------------------------------------------------------|
F#-7---------------------------------------------------------------|
C#-----8---------------------------7-7-7-7-7-7-7-7-0-0-0-0---x-x-x-|
G#---------------------------------4-4-4-4-4-4-4-4-0-0-0-0---x-x-x-|
C#---------8-8-8---5---0-8---0-5-------------------0-0-0-0---x-x-x-|
Pm         . .         .     .                     . . . .

===================================================================
===================================================================


Breakdown

Guitar 2
D#------------------------------------------------------------------|
A#------------------------------------------------------------------|
F#------------------------------------------------------------------|
C#-0~~~~~~~~~~-0~~~~~~~~~~-0~~~~~~-0-0-0-0-0~~~~~~-0~~~~~~-0---0~~~-|
G#-0~~~~~~~~~~-0~~~~~~~~~~-0~~~~~~-0-0-0-0-0~~~~~~-0~~~~~~-0---0~~~-|
C#-0~~~~~~~~~~-0~~~~~~~~~~-0~~~~~~-0-0-0-0-0~~~~~~-0~~~~~~-0---0~~~-|
Pm .           .           .       . . . . .       .       .   .

===================================================================

Guitar 2
D#-----------------------------------------------------------------|
A#-----------------------------------------------------------------|
F#-----------------------------------------------------------------|
C#-~~~~~~~~~~~~~~~~~~~~~~~~~~~~~~~~~~~~~~~-------------------------|
G#-~~~~~~~~~~~~~~~~~~~~~~~~~~~~~~~~~~~~~~~-------------------------|
C#-~~~~~~~~~~~~~~~~~~~~~~~~~~~~~~~~~~~~~~~-x---x-------x---0~~~~~~-|

===================================================================

Guitar 2
D#-----------------------------------------------------------------|
A#-----------------------------------------------------------------|
F#-----------------------------------------------------------------|
C#-0---0---0-------0---0-------0---0-0-0-0-0-------0---0-------0---|
G#-0---0---0-------0---0-------0---0-0-0-0-0-------0---0-------0---|
C#-0---0---0-------0---0-------0---0-0-0-0-0-------0---0-------0---|
Pm .   .   .       .   .       .   . . . . .       .   .       .

===================================================================

Guitar 2
D#-----------------------------------------------------------------|
A#-----------------------------------------------------------------|
F#-----------------------------------------------------------------|
C#-----------------------------------------------------------------|
G#-----1---1~~~~~~-------------------------------------------------|
C#-----------------3---5-------------------3---3-------2---0-------|

===================================================================

Guitar 2
D#------------------------------------------------------------------|
A#------------------------------------------------------------------|
F#------------------------------------------------------------------|
C#-0~~~~~~~~~~-0~~~~~~~~~~-0~~~~~~-0-0-0-0-0~~~~~~-0~~~~~~-0---0~~~-|
G#-0~~~~~~~~~~-0~~~~~~~~~~-0~~~~~~-0-0-0-0-0~~~~~~-0~~~~~~-0---0~~~-|
C#-0~~~~~~~~~~-0~~~~~~~~~~-0~~~~~~-0-0-0-0-0~~~~~~-0~~~~~~-0---0~~~-|
Pm .           .           .       . . . . .       .       .   .

===================================================================

Guitar 2
D#-----------------------------------------------------------------|
A#-----------------------------------------------------------------|
F#-----------------------------------------------------------------|
C#-~~~-0---0~~~~~~-0---0~~~~~~~~~~~~~~~~~~-0---0~~~~~~-0---0---0---|
G#-~~~-0---0~~~~~~-0---0~~~~~~~~~~~~~~~~~~-0---0~~~~~~-0---0---0---|
C#-~~~-0---0~~~~~~-0---0~~~~~~~~~~~~~~~~~~-0---0~~~~~~-0---0---0---|
Pm     .   .       .   .                   .   .       .   .   .

===================================================================

Guitar 2
D#-----------------------------------------------------------------|
A#-----------------------------------------------------------------|
F#-----------------------------------------------------------------|
C#-0~~~~~~~~~~-0~~~~~~~~~~-0~~~~~~-0-0-0-0-0~~~~~~-0~~~~~~-0---0---|
G#-0~~~~~~~~~~-0~~~~~~~~~~-0~~~~~~-0-0-0-0-0~~~~~~-0~~~~~~---------|
C#-0~~~~~~~~~~-0~~~~~~~~~~-0~~~~~~-0-0-0-0-0~~~~~~-0~~~~~~---------|
Pm .           .           .       . . . . .       .

===================================================================

Guitar 2
D#-----------------------------------------------------------------|
A#-----------------------------------------------------------------|
F#-----------------------------------------------------------------|
C#-3~~~~~~-0---5~~~~~~-0---3~~~~~~---------------------------------|
G#-3~~~~~~-0---5~~~~~~-0---3~~~~~~-1b~~~~~-----1b~~~~~-----4b~~~~~-|
C#-3~~~~~~-0---5~~~~~~-0---3~~~~~~---------0-----------0-----------|
Pm         .           .                   .           .

===================================================================

Guitar 2
D#-----------------------------------------------------------------|
A#-----------------------------------------------------------------|
F#-----------------------------------------------------------------|
C#-0---------------------------------------------------------------|
G#-0---------------------------------------------------------------|
C#-0---------------------------------------------------------------|
Pm .

===================================================================
===================================================================
===================================================================


----------------------------------------------------------------------------
                          Alive in the Light
                           Memphis May Fire
----------------------------------------------------------------------------

What a song for sweet guitar riffs! This was a very interesting song to learn, and it
was well worth the time spent. It is a very fun song and the chorus lead guitar is very
catchy. Enjoy!

Guitar 1 Rhythmic (C# G# C# F# A# D#)
Guitar 2 Lead     (C# G# C# F# A# D#)


===================================================================
Guitar 1
===================================================================


Intro

Guitar 1
D#---------------|
A#---------------|
F#---------------|
C#---------------|
G#---------------|
C#---------0-0~~-|
Pm         .

===================================================================
===================================================================


Verse 1

Guitar 1
D#-----------------------------------------------------------------|
A#-----------------------------------------------------------------|
F#-----------------------------------------------------------------|
C#-----------------------------------------------------------------|
G#-----------------3~~---------------------------------3~~-1-3-1-0-|
C#-0-0-0~~-0-0~~-0-----0-0~~-0-0~~-0-1~~-0-5~~-0-3~~-0-------------|
Pm . .     .     .     .     .     .     .     .     .

===================================================================

Guitar 1
D#-----------------------------------------------------------------|
A#-----------------------------------------------------------------|
F#-----------------------------------------------------------------|
C#-----------------------------------------------------------------|
G#-5~~-3-5-5~~-3-6-----------------------------3-------------------|
C#-----------------0~~-1-1~~-5-8-5~~-5-5~~-0-5---4~~-4-4~~-4-4~~~~-|

===================================================================

Guitar 1
D#-----------------------------------------------------------------|
A#-----------------------------------------------------------------|
F#-----------------------------------------------------------------|
C#-----------------------------------12~---10~---8~~---7~~---------|
G#-----------------3~~---9~~---------------------------------------|
C#-0-0-0~~-0-0~~-0-----0-----0-0~~-0-----0-----0-----0-----4-4-4~~-|
Pm . .     .     .     .     .     .     .     .     .

===================================================================

Guitar 1
D#-----------------------------------------------------------------|
A#-----------------------------------------------------------------|
F#-----------------------------------------------------------------|
C#-5-5-5---5-5---5-------------------------------------------------|
G#-5-5-5---5-5---5-6~~-6-3~~-3-3~~-0~~-0-0~~-0-0~~-3-3-3-3---------|
C#-5-5-5~~-5-5~~-5-5~~-5-5~~-5-5~~-3~~-3-3~~-3-3~~---------1-1-1-1-|
Pm . .     .     .     .     .         .     .

===================================================================

Guitar 1
D#-----------------------------------------------------------------|
A#-----------------------------------------------------------------|
F#-----------------------------------------------------------------|
C#-----------------------------------------------------------------|
G#-----------------3~~---------------------------------3~~-1-3-1-0-|
C#-0-0-0~~-0-0~~-0-----0-0~~-0-0~~-0-1~~-0-5~~-0-3~~-0-------------|
Pm . .     .     .     .     .     .     .     .     .

===================================================================

Guitar 1
D#-----------------------------------------------------------------|
A#-----------------------------------------------------------------|
F#-----------------------------------------------------------------|
C#-----------------------------------------------------------------|
G#-5~~-3-5-5~~-3-6-----------------------------3-------------------|
C#-----------------0~~-1-1~~-5-8-5~~-5-5~~-0-5---4~~-4-4~~-4-4~~~~-|

===================================================================

Guitar 1
D#-----------------------------------------------------------------|
A#-----------------------------------------------------------------|
F#-----------------------------------------------------------------|
C#-----------------------------------12~---10~---8~~---7~~-7-8-7---|
G#-----------------3~~---9~~-------------------------------------8-|
C#-0-0-0~~-0-0~~-0-----0-----0-0~~-0-----0-----0-----0-------------|
Pm . .     .     .     .     .     .     .     .     .

===================================================================

Guitar 1
D#-----------------------------------------------------------------|
A#-----------------------------------------------------------------|
F#-----------------------------------------------------------------|
C#-5-5-5---5-5-5~~-1~~-1-0-----------------------------------------|
G#-5-5-5---5-5-5~~---------3-3-3-3-------------------------3-3-3-3-|
C#-5-5-5~~-5-5-5~~-----------------1-1-1-1-1-1-1-1-1-1-1-1---------|
Pm . .     . .

===================================================================
===================================================================


Breakdown 1

Guitar 1
D#-----------------------------------------------------------------|
A#-----------------------------------------------------------------|
F#-----------------------------------------------------------------|
C#-0-0-----0-0-0-0-0-0-----0-0-0---0-0-0-0---0-0---0-0---0-0~~-0---|
G#-0-0-----0-0-0-0-0-0-----0-0-0---0-0-0-0---0-0---0-0---0-0~~-0---|
C#-0-0-----0-0-0-0-0-0-----0-0-0---0-0-0-0---0-0---0-0---0-0~~-0---|
Pm . .     . . . . . .     . . .   . . . .   . .   . .   . .   .

===================================================================

Guitar 1
D#-----------------------------------------------------------------|
A#-----------------------------------------------------------------|
F#-----------------------------------------------------------------|
C#-0-0-----0-0-0-0-0-0-----0-0-0---0-0-0-0---0-0---0-0---0-0~~-0---|
G#-0-0-----0-0-0-0-0-0-----0-0-0---0-0-0-0---0-0---0-0---0-0~~-0---|
C#-0-0-----0-0-0-0-0-0-----0-0-0---0-0-0-0---0-0---0-0---0-0~~-0---|
Pm . .     . . . . . .     . . .   . . . .   . .   . .   . .   .

===================================================================

Guitar 1
D#-----------------------------------------------------------------|
A#-----------------------------------------------------------------|
F#-----------------------------------------------------------------|
C#-0-0~~~~-0-0-0-0-0-0~~~~-0-0-0~~-0-0-0-0~~-0-0~~-0-0~~-0-0~~-0~~-|
G#-0-0~~~~-0-0-0-0-0-0~~~~-0-0-0~~-0-0-0-0~~-0-0~~-0-0~~-0-0~~-0~~-|
C#-0-0~~~~-0-0-0-0-0-0~~~~-0-0-0~~-0-0-0-0~~-0-0~~-0-0~~-0-0~~-0~~-|
Pm . .     . . . . . .     . . .   . . . .   . .   . .   . .   .

===================================================================

Guitar 1
D#-----------------------------------------------------------------|
A#-----------------------------------------------------------------|
F#-----------------------------------------------------------------|
C#-0-0-----0-0-0-0-0-0-----0-0-0---0-0-0-0---0-0---0-0---0-0~~-0---|
G#-0-0-----0-0-0-0-0-0-----0-0-0---0-0-0-0---0-0---0-0---0-0~~-0---|
C#-0-0-----0-0-0-0-0-0-----0-0-0---0-0-0-0---0-0---0-0---0-0~~-0---|
Pm . .     . . . . . .     . . .   . . . .   . .   . .   . .   .

===================================================================


===================================================================
Rest
===================================================================


===================================================================
===================================================================


Pre Chorus 1

Guitar 1
D#-----------------------------------------------------------------|
A#-----------------------------------------------------------------|
F#-----------------------------------------------------------------|
C#-5-5-5-5-5-5-5-5-5-5-5-5-5-5-5-5-5-5-5-5-5-5-5-5-5-5-5-5-5-5-5-5-|
G#-----------------------------------------------------------------|
C#-----------------------------------------------------------------|

===================================================================

Guitar 1
D#-----------------------------------------------------------------|
A#-----------------------------------------------------------------|
F#-----------------------------------------------------------------|
C#-5-5-5-5-5-5-5-5-5-5-5-5-5-5-5-5-5-5-5-5-5-5-5-5-5-5-5-5-5-5-5-5-|
G#-----------------------------------------------------------------|
C#-----------------------------------------------------------------|

===================================================================

Guitar 1
D#-----------------------------------------------------------------|
A#-----------------------------------------------------------------|
F#-----------------------------------------------------------------|
C#-5-5-5-5-5-5-5-5-5-5-5-5-5-5-5-5-5-5-5-5-5-5-5-5-5-5-5-5-5-5-5-5-|
G#-----------------------------------------------------------------|
C#-----------------------------------------------------------------|

===================================================================

Guitar 1
D#-----------------------------------------------------------------|
A#-----------------------------------------------------------------|
F#---------------------------------7~~~~~~-5~~~~~~-----------------|
C#-7-7-7-7-7-7-7-7-7-7-7-7-7-7-7-7-----------------8~~~~~~-7\~~~~--|
G#-----------------------------------------------------------------|
C#-----------------------------------------------------------------|

===================================================================
===================================================================


Chorus

Guitar 1
D#-----------------------------------------------------------------|
A#-----------------------------------------------------------------|
F#-----------------------------------------------------------------|
C#-1---1---1---1---1---1---1---1---5---5---5---5---5---5---5---5---|
G#-1---1---1---1---1---1---1---1---5---5---5---5---5---5---5---5---|
C#-1---1---1---1---1---1---1---1---5---5---5---5---5---5---5---5---|

===================================================================

Guitar 1
D#-----------------------------------------------------------------|
A#-----------------------------------------------------------------|
F#-----------------------------------------------------------------|
C#-8---8---8---8---8---8---8---8---3---3---3---3---3---3---3---3---|
G#-8---8---8---8---8---8---8---8---3---3---3---3---3---3---3---3---|
C#-8---8---8---8---8---8---8---8---3---3---3---3---3---3---3---3---|

===================================================================

Guitar 1
D#-----------------------------------------------------------------|
A#-----------------------------------------------------------------|
F#-----------------------------------------------------------------|
C#-1---1---1---1---1---1---1---1---5---5---5---5---5---5---5---5---|
G#-1---1---1---1---1---1---1---1---5---5---5---5---5---5---5---5---|
C#-1---1---1---1---1---1---1---1---5---5---5---5---5---5---5---5---|

===================================================================

Guitar 1
D#-----------------------------------------------------------------|
A#-----------------------------------------------------------------|
F#-----------------------------------------------------------------|
C#-----------------------------------------------------------------|
G#-5-5-5-5-5-5-5-5-5-5-5-5-5-5-5-5-5-5-5-3-3-3-1-1-1-1-0-0-0-0-0-0-|
C#-----------------------------------------------------------------|

===================================================================

Guitar 1
D#-----------------------------------------------------------------|
A#-----------------------------------------------------------------|
F#-----------------------------------------------------------------|
C#-1---1---1---1---1---1---1---1---5---5---5---5---5---5---5---5---|
G#-1---1---1---1---1---1---1---1---5---5---5---5---5---5---5---5---|
C#-1---1---1---1---1---1---1---1---5---5---5---5---5---5---5---5---|

===================================================================

Guitar 1
D#-----------------------------------------------------------------|
A#-----------------------------------------------------------------|
F#-----------------------------------------------------------------|
C#-8---8---8---8---8---8---8---8---3---3---3---3---3---3---3---3---|
G#-8---8---8---8---8---8---8---8---3---3---3---3---3---3---3---3---|
C#-8---8---8---8---8---8---8---8---3---3---3---3---3---3---3---3---|

===================================================================

Guitar 1
D#-----------------------------------------------------------------|
A#-----------------------------------------------------------------|
F#-----------------------------------------------------------------|
C#-1---1---1---1---1---1---1---1---5---5---5---5---5---5---5---5---|
G#-1---1---1---1---1---1---1---1---5---5---5---5---5---5---5---5---|
C#-1---1---1---1---1---1---1---1---5---5---5---5---5---5---5---5---|

===================================================================

Guitar 1
D#-----------------------------------------------------------------|
A#-----------------------------------------------------------------|
F#-----------------------------------------------------------------|
C#-0-0-0~~-0-0~~-0-0~~-0-0~~---------------------------------------|
G#-0-0-0~~-0-0~~-0-0~~-0-0~~-3-0~~-5-5-5-5-3-3-3-3-1-1-1-1-0-0-0-0-|
C#-0-0-0~~-0-0~~-0-0~~-0-0~~---------------------------------------|
Pm . .     .     .     .

===================================================================
===================================================================


Break Off 1


===================================================================
Rest
===================================================================


===================================================================
===================================================================


Breakdown 2

(x2)

Guitar 1
D#-----------------------------------------------------------------|
A#-----------------------------------------------------------------|
F#-----------------------------------------------------------------|
C#-5-5-5~~-5-5~~-5-5~~-----5-5-5~~-5-5~~-5-5~~---------------------|
G#-5-5-5~~-5-5~~-5-5~~-----5-5-5~~-5-5~~-5-5~~-----6~~---3~~---3-5-|
C#-5-5-5~~-5-5~~-5-5~~-----5-5-5~~-5-5~~-5-5~~-0-0-----0-----0-----|
Pm . .     .     .         . .     .     .

===================================================================

Guitar 1
D#-----------------------------------------------------------------|
A#-----------------------------------------------------------------|
F#-------------------------------------------------8~~---7~~---5~~-|
C#-0-0-0~~-0-1~~-0-0~~-----0-0-0~~-0-----0-0~~-----10~---8~~---7~~-|
G#-0-0-0~~-0-1~~-0-0~~-----0-0-0~~-0-----0-0~~---------------------|
C#-0-0-0~~-0-1~~-0-0~~-----0-0-0~~-0-4~~-0-0~~-0-0-----0-----0-----|
Pm . .     .     .         . .     .     .     . .     .     .

===================================================================
===================================================================


Guitar Solo

Guitar 1
D#-----------------------------------------------------------------|
A#-----------------------------------------------------------------|
F#-----------------------------------------------------------------|
C#-5-5-5~~-5-5~~-5-5~~-----5-5-5~~-5-5~~-5-5~~---------------------|
G#-5-5-5~~-5-5~~-5-5~~-----5-5-5~~-5-5~~-5-5~~-----6~~---3~~---3-5-|
C#-5-5-5~~-5-5~~-5-5~~-----5-5-5~~-5-5~~-5-5~~-0-0-----0-----0-----|
Pm . .     .     .         . .     .     .

===================================================================

Guitar 1
D#-----------------------------------------------------------------|
A#-----------------------------------------------------------------|
F#-------------------------------------------------8~~---7~~---5~~-|
C#-0-0-0~~-0-1~~-0-0~~-----0-0-0~~-0-----0-0~~-----10~---8~~---7~~-|
G#-0-0-0~~-0-1~~-0-0~~-----0-0-0~~-0-----0-0~~---------------------|
C#-0-0-0~~-0-1~~-0-0~~-----0-0-0~~-0-4~~-0-0~~-0-0-----0-----0-----|
Pm . .     .     .         . .     .     .     . .     .     .

===================================================================

Guitar 1
D#-----------------------------------------------------------------|
A#-----------------------------------------------------------------|
F#-----------------------------------------------------------------|
C#-5-5-5~~-5-5~~-5-5~~-----5-5-5~~-5-5~~-5-5~~---------------------|
G#-5-5-5~~-5-5~~-5-5~~-----5-5-5~~-5-5~~-5-5~~-----6~~---3~~---3-5-|
C#-5-5-5~~-5-5~~-5-5~~-----5-5-5~~-5-5~~-5-5~~-0-0-----0-----0-----|
Pm . .     .     .         . .     .     .

===================================================================

Guitar 1
D#-----------------------------------------------------------------|
A#-----------------------------------------------------------------|
F#-----------------------------------------------------------------|
C#-0-0-0~~-0-1~~-0-0~~-----0-0-0~~-----------------0---------------|
G#-0-0-0~~-0-1~~-0-0~~-----0-0-0~~-----------------0---------------|
C#-0-0-0~~-0-1~~-0-0~~-----0-0-0~~-0-0-1-3-0-0-1~~-0---------------|
Pm . .     .     .         . .

===================================================================
===================================================================


Verse 2

Guitar 1
D#-----------------------------------------------------------------|
A#-----------------------------------------------------------------|
F#-----------------------------------------------------------------|
C#-----------------------------------------------------------------|
G#-----------------3~~---------------------------------3~~-1-3-1-0-|
C#-0-0-0~~-0-0~~-0-----0-0~~-0-0~~-0-1~~-0-5~~-0-3~~-0-------------|
Pm . .     .     .     .     .     .     .     .     .

===================================================================

Guitar 1
D#-----------------------------------------------------------------|
A#-----------------------------------------------------------------|
F#-----------------------------------------------------------------|
C#-----------------------------------------------------------------|
G#-5~~-3-5-5~~-3-6-----------------------------3-------------------|
C#-----------------0~~-1-1~~-5-8-5~~-5-5~~-0-5---4~~-4-4~~-4-4~~~~-|

===================================================================

Guitar 1
D#-----------------------------------------------------------------|
A#-----------------------------------------------------------------|
F#-----------------------------------------------------------------|
C#-----------------------------------12~---10~---8~~---7~~---------|
G#-----------------3~~---9~~---------------------------------------|
C#-0-0-0~~-0-0~~-0-----0-----0-0~~-0-----0-----0-----0-----4-4-4~~-|
Pm . .     .     .     .     .     .     .     .     .

===================================================================

Guitar 1
D#-----------------------------------------------------------------|
A#-----------------------------------------------------------------|
F#-----------------------------------------------------------------|
C#-5-5-5---5-5-5~~-1~~-1-0-----------------------------------------|
G#-5-5-5---5-5-5~~---------3-3-3-3---------------------------------|
C#-5-5-5~~-5-5-5~~-----------------1-1-1-1-1-1-1-1-1-1-1-1-1-1-1-1-|
Pm . .     . .

===================================================================
===================================================================


Pre Chorus 2


===================================================================
Rest
===================================================================


===================================================================
===================================================================


Chorus

Guitar 1
D#-----------------------------------------------------------------|
A#-----------------------------------------------------------------|
F#-----------------------------------------------------------------|
C#-1---1---1---1---1---1---1---1---5---5---5---5---5---5---5---5---|
G#-1---1---1---1---1---1---1---1---5---5---5---5---5---5---5---5---|
C#-1---1---1---1---1---1---1---1---5---5---5---5---5---5---5---5---|

===================================================================

Guitar 1
D#-----------------------------------------------------------------|
A#-----------------------------------------------------------------|
F#-----------------------------------------------------------------|
C#-8---8---8---8---8---8---8---8---3---3---3---3---3---3---3---3---|
G#-8---8---8---8---8---8---8---8---3---3---3---3---3---3---3---3---|
C#-8---8---8---8---8---8---8---8---3---3---3---3---3---3---3---3---|

===================================================================

Guitar 1
D#-----------------------------------------------------------------|
A#-----------------------------------------------------------------|
F#-----------------------------------------------------------------|
C#-1---1---1---1---1---1---1---1---5---5---5---5---5---5---5---5---|
G#-1---1---1---1---1---1---1---1---5---5---5---5---5---5---5---5---|
C#-1---1---1---1---1---1---1---1---5---5---5---5---5---5---5---5---|

===================================================================

Guitar 1
D#-----------------------------------------------------------------|
A#-----------------------------------------------------------------|
F#-----------------------------------------------------------------|
C#-----------------------------------------------------------------|
G#-5-5-5-5-5-5-5-5-5-5-5-5-5-5-5-5-5-5-5-3-3-3-1-1-1-1-0-0-0-0-0-0-|
C#-----------------------------------------------------------------|

===================================================================

Guitar 1
D#-----------------------------------------------------------------|
A#-----------------------------------------------------------------|
F#-----------------------------------------------------------------|
C#-1---1---1---1---1---1---1---1---5---5---5---5---5---5---5---5---|
G#-1---1---1---1---1---1---1---1---5---5---5---5---5---5---5---5---|
C#-1---1---1---1---1---1---1---1---5---5---5---5---5---5---5---5---|

===================================================================

Guitar 1
D#-----------------------------------------------------------------|
A#-----------------------------------------------------------------|
F#-----------------------------------------------------------------|
C#-8---8---8---8---8---8---8---8---3---3---3---3---3---3---3---3---|
G#-8---8---8---8---8---8---8---8---3---3---3---3---3---3---3---3---|
C#-8---8---8---8---8---8---8---8---3---3---3---3---3---3---3---3---|

===================================================================

Guitar 1
D#-----------------------------------------------------------------|
A#-----------------------------------------------------------------|
F#-----------------------------------------------------------------|
C#-1---1---1---1---1---1---1---1---5---5---5---5---5---5---5---5---|
G#-1---1---1---1---1---1---1---1---5---5---5---5---5---5---5---5---|
C#-1---1---1---1---1---1---1---1---5---5---5---5---5---5---5---5---|

===================================================================

Guitar 1
D#-----------------------------------------------------------------|
A#-----------------------------------------------------------------|
F#-----------------------------------------------------------------|
C#-0-0-0~~-0-0~~-0-0~~-0-0~~---------------------------------------|
G#-0-0-0~~-0-0~~-0-0~~-0-0~~-3-0~~-5-5-5-5-3-3-3-3-1-1-1-1-0-0-0-0-|
C#-0-0-0~~-0-0~~-0-0~~-0-0~~---------------------------------------|
Pm . .     .     .     .

===================================================================
===================================================================


Break Off 2

Guitar 1
D#-----------------------------------------------------------------|
A#-----------------------------------------------------------------|
F#-----------------------------------------------------------------|
C#-----------------------------------------------------------------|
G#-----------------------------------------------------------------|
C#-------------------------------0-6b~-0-0~~-0-0~~-6b~-0-0~~-1-0~~-|

===================================================================

Guitar 1
D#-----------------------------------------------------------------|
A#-----------------------------------------------------------------|
F#-----------------------------------------------------------------|
C#-----------------------------------------------------------------|
G#---------------------------------5b~-------------5b~-------------|
C#-------------------------------0-----0-0~~-0-0~~-----0-0~~-0-0~~-|

===================================================================
===================================================================


Breakdown 3

Guitar 1
D#-----------------------------------------------------------------|
A#-----------------------------------------------------------------|
F#-----------------------------------------------------------------|
C#-5~~~~-5-6~~-5~~~~-----------------------------------------------|
G#-5~~~~-5-6~~-5~~~~---------6~~-----------------------------------|
C#-5~~~~-5-6~~-5~~~~-5-6-4~~-----0-6b~-0-0~~-0-0~~-6b~-0-0~~-1-0~~-|

===================================================================

Guitar 1
D#-----------------------------------------------------------------|
A#-----------------------------------------------------------------|
F#-----------------------------------------------------------------|
C#-5~~~~-5-6~~-5~~~~-----------------------------------------------|
G#-5~~~~-5-6~~-5~~~~---------------5b~-------------5b~-------------|
C#-5~~~~-5-6~~-5~~~~-0-1~~~~-4~~-0-----0-0~~-0-0~~-----0-0~~-0-0~~-|

===================================================================

Guitar 1
D#-----------------------------------------------------------------|
A#-----------------------------------------------------------------|
F#-----------------------------------------------------------------|
C#-5~~~~-5-6~~-5~~~~-----------------------------------------------|
G#-5~~~~-5-6~~-5~~~~---------6~~-----------------------------------|
C#-5~~~~-5-6~~-5~~~~-5-6-4~~-----0-6b~-0-0~~-0-0~~-6b~-0-0~~-1-0~~-|

===================================================================

Guitar 1
D#-----------------------------------------------------------------|
A#-----------------------------------------------------------------|
F#-----------------------------------------------------------------|
C#-5~~~~-5-6~~-5~~~~-----------------------------------------------|
G#-5~~~~-5-6~~-5~~~~---------------5b~-------------5b~-------------|
C#-5~~~~-5-6~~-5~~~~-0-1~~~~-4~~-0-----0-0~~-0-0~~-----0-0~~-0-0~~-|

===================================================================

Guitar 1
D#-----------------------------------------------------------------|
A#-----------------------------------------------------------------|
F#-----------------------------------------------------------------|
C#-5~~~~-5-6~~-5~~~~-----------------------------------------------|
G#-5~~~~-5-6~~-5~~~~---------6~~-----------------------------------|
C#-5~~~~-5-6~~-5~~~~-5-6-4~~-----0-6b~-0-0~~-0-0~~-6b~-0-0~~-1-0~~-|

===================================================================

Guitar 1
D#-----------------------------------------------------------------|
A#-----------------------------------------------------------------|
F#-----------------------------------------------------------------|
C#-5~~~~-5-6~~-5~~~~-----------------------------------------------|
G#-5~~~~-5-6~~-5~~~~---------------5b~-------------5b~-------------|
C#-5~~~~-5-6~~-5~~~~-0-1~~~~-4~~-0-----0-0~~-0-0~~-----0-0~~-0-0~~-|

===================================================================

Guitar 1
D#-----------------------------------------------------------------|
A#-----------------------------------------------------------------|
F#-----------------------------------------------------------------|
C#-5~~~~-5-6~~-5~~~~-----------------------------------------------|
G#-5~~~~-5-6~~-5~~~~---------6~~-----------------------------------|
C#-5~~~~-5-6~~-5~~~~-5-6-4~~-----0-6b~-0-0~~-0-0~~-6b~-0-0~~-1-0~~-|

===================================================================

Guitar 1
D#-----------------------------------------------------------------|
A#-----------------------------------------------------------------|
F#-----------------------------------------------------------------|
C#-5~~~~-5-6~~-5~~~~-------------------------------x-x-x-x---------|
G#-5~~~~-5-6~~-5~~~~---------------5b~-------------x-x-x-x---------|
C#-5~~~~-5-6~~-5~~~~-0-1~~~~-4~~-0-----0-0~~-0-0~~-x-x-x-x---------|

===================================================================
===================================================================


Breakdown 4

(x2)

Guitar 1
D#-----------------------------------------------------------------|
A#-----------------------------------------------------------------|
F#-----------------------------------------------------------------|
C#-0~~-0-0-0~~-0~~-0-0-0~~~~-0-0~~-0-0~~-0~~~~-0-0~~~~-0-0~~~~-0-0-|
G#-0~~-0-0-0~~-0~~-0-0-0~~~~-0-0~~-0-0~~-0~~~~-0-0~~~~-0-0~~~~-0-0-|
C#-0~~-0-0-0~~-0~~-0-0-0~~~~-0-0~~-0-0~~-0~~~~-0-0~~~~-0-0~~~~-0-0-|
Pm .   . . .   .   . . .     . .   . .   .     . .     . .     . .

===================================================================

Guitar 1
D#-----------------------------------------------------------------|
A#-----------------------------------------------------------------|
F#-----------------------------------------------------------------|
C#-0~~-0-0~~-0-0-0-0-0~~-0-0~~-0-0-0-0-0-0---0-0---0-0-0-0---0-0---|
G#-0~~-0-0~~-0-0-0-0-0~~-0-0~~-0-0-0-0-0-0---0-0---0-0-0-0---0-0---|
C#-0~~-0-0~~-0-0-0-0-0~~-0-0~~-0-0-0-0-0-0---0-0---0-0-0-0---0-0---|
Pm .   . .   . . . . .   . .   . . . . . .   . .   . . . .   . .

===================================================================
===================================================================


Pre Chorus 3


===================================================================
Rest
===================================================================


===================================================================
===================================================================


Chorus

Guitar 1
D#-----------------------------------------------------------------|
A#-----------------------------------------------------------------|
F#-----------------------------------------------------------------|
C#-1---1---1---1---1---1---1---1---5---5---5---5---5---5---5---5---|
G#-1---1---1---1---1---1---1---1---5---5---5---5---5---5---5---5---|
C#-1---1---1---1---1---1---1---1---5---5---5---5---5---5---5---5---|

===================================================================

Guitar 1
D#-----------------------------------------------------------------|
A#-----------------------------------------------------------------|
F#-----------------------------------------------------------------|
C#-8---8---8---8---8---8---8---8---3---3---3---3---3---3---3---3---|
G#-8---8---8---8---8---8---8---8---3---3---3---3---3---3---3---3---|
C#-8---8---8---8---8---8---8---8---3---3---3---3---3---3---3---3---|

===================================================================

Guitar 1
D#-----------------------------------------------------------------|
A#-----------------------------------------------------------------|
F#-----------------------------------------------------------------|
C#-1---1---1---1---1---1---1---1---5---5---5---5---5---5---5---5---|
G#-1---1---1---1---1---1---1---1---5---5---5---5---5---5---5---5---|
C#-1---1---1---1---1---1---1---1---5---5---5---5---5---5---5---5---|

===================================================================

Guitar 1
D#-----------------------------------------------------------------|
A#-----------------------------------------------------------------|
F#-----------------------------------------------------------------|
C#-----------------------------------------------------------------|
G#-5-5-5-5-5-5-5-5-5-5-5-5-5-5-5-5-5-5-5-3-3-3-1-1-1-1-0-0-0-0-0-0-|
C#-----------------------------------------------------------------|

===================================================================

Guitar 1
D#-----------------------------------------------------------------|
A#-----------------------------------------------------------------|
F#-----------------------------------------------------------------|
C#-1---1---1---1---1---1---1---1---5---5---5---5---5---5---5---5---|
G#-1---1---1---1---1---1---1---1---5---5---5---5---5---5---5---5---|
C#-1---1---1---1---1---1---1---1---5---5---5---5---5---5---5---5---|

===================================================================

Guitar 1
D#-----------------------------------------------------------------|
A#-----------------------------------------------------------------|
F#-----------------------------------------------------------------|
C#-8---8---8---8---8---8---8---8---3---3---3---3---3---3---3---3---|
G#-8---8---8---8---8---8---8---8---3---3---3---3---3---3---3---3---|
C#-8---8---8---8---8---8---8---8---3---3---3---3---3---3---3---3---|

===================================================================

Guitar 1
D#-----------------------------------------------------------------|
A#-----------------------------------------------------------------|
F#-----------------------------------------------------------------|
C#-1---1---1---1---1---1---1---1---5---5---5---5---5---5---5---5---|
G#-1---1---1---1---1---1---1---1---5---5---5---5---5---5---5---5---|
C#-1---1---1---1---1---1---1---1---5---5---5---5---5---5---5---5---|

===================================================================

Guitar 1
D#-----------------------------------------------------------------|
A#-----------------------------------------------------------------|
F#-----------------------------------------------------------------|
C#-0-0-0~~-0-0~~-0-0~~-0-0~~---------------------------------------|
G#-0-0-0~~-0-0~~-0-0~~-0-0~~-3-0~~-5-5-5-5-3-3-3-3-1-1-1-1-0-0-0-0-|
C#-0-0-0~~-0-0~~-0-0~~-0-0~~---------------------------------------|
Pm . .     .     .     .

===================================================================
===================================================================


Outro

Guitar 1
D#-----------------------------------------------------------------|
A#-----------------------------------------------------------------|
F#-----------------------------------------------------------------|
C#-5~~~~~~~~~~~~~~~~~~~~~~~~~~~~~~~~~~~~~~~~~~~~~~~~~~~~~~~~~~~~~~-
G#-5~~~~~~~~~~~~~~~~~~~~~~~~~~~~~~~~~~~~~~~~~~~~~~~~~~~~~~~~~~~~~~-
C#-5~~~~~~~~~~~~~~~~~~~~~~~~~~~~~~~~~~~~~~~~~~~~~~~~~~~~~~~~~~~~~~-

===================================================================
===================================================================
===================================================================


===================================================================
Guitar 2
===================================================================


Intro

Guitar 2
D#---------------|
A#---------------|
F#---------------|
C#---------------|
G#---------------|
C#-0-0-0~~-------|
Pm . .

===================================================================
===================================================================


Verse 1

Guitar 2
D#-----------------------------------------------------------------|
A#-----------------------------------------------------------------|
F#-----------------------------------------------------------------|
C#-----------------------------------------------------------------|
G#-----------------3~~---------------------------------3~~-1-3-1-0-|
C#-0-0-0~~-0-0~~-0-----0-0~~-0-0~~-0-1~~-0-5~~-0-3~~-0-------------|
Pm . .     .     .     .     .     .     .     .     .

===================================================================

Guitar 2
D#-----------------------------------------------------------------|
A#-----------------------------------------------------------------|
F#-----------------------------------------------------------------|
C#-----------------------------------------------------------------|
G#-5~~-3-5-5~~-3-6-----------------------------3-------------------|
C#-----------------0~~-1-1~~-5-8-5~~-5-5~~-0-5---4~~-4-4~~-4-4~~~~-|

===================================================================

Guitar 2
D#-----------------------------------------------------------------|
A#-----------------------------------------------------------------|
F#-----------------------------------------------------------------|
C#-----------------------------------12~---10~---8~~---7~~---------|
G#-----------------3~~---9~~---------------------------------------|
C#-0-0-0~~-0-0~~-0-----0-----0-0~~-0-----0-----0-----0-----4-4-4~~-|
Pm . .     .     .     .     .     .     .     .     .

===================================================================

Guitar 2
D#-----------------------------------------------------------------|
A#-----------------------------------------------------------------|
F#-----------------------------------------------------------------|
C#-5-5-5---5-5---5-------------------------------------------------|
G#-5-5-5---5-5---5-6~~-6-3~~-3-3~~-0~~-0-0~~-0-0~~-3-3-3-3---------|
C#-5-5-5~~-5-5~~-5-5~~-5-5~~-5-5~~-3~~-3-3~~-3-3~~---------1-1-1-1-|
Pm . .     .     .     .     .         .     .

===================================================================

Guitar 2
D#-----------------------------------------------------------------|
A#-----------------------------------------------------------------|
F#-----------------------------------------------------------------|
C#-----------------------------------------------------------------|
G#-----------------3~~---------------------------------3~~-1-3-1-0-|
C#-0-0-0~~-0-0~~-0-----0-0~~-0-0~~-0-1~~-0-5~~-0-3~~-0-------------|
Pm . .     .     .     .     .     .     .     .     .

===================================================================

Guitar 2
D#-----------------------------------------------------------------|
A#-----------------------------------------------------------------|
F#-----------------------------------------------------------------|
C#-----------------------------------------------------------------|
G#-5~~-3-5-5~~-3-6-----------------------------3-------------------|
C#-----------------0~~-1-1~~-5-8-5~~-5-5~~-0-5---4~~-4-4~~-4-4~~~~-|

===================================================================

Guitar 2
D#-----------------------------------------------------------------|
A#-----------------------------------------------------------------|
F#-----------------------------------------------------------------|
C#-----------------------------------12~---10~---8~~---7~~-7-8-7---|
G#-----------------3~~---9~~-------------------------------------8-|
C#-0-0-0~~-0-0~~-0-----0-----0-0~~-0-----0-----0-----0-------------|
Pm . .     .     .     .     .     .     .     .     .

===================================================================

Guitar 2
D#-----------------------------------------------------------------|
A#-----------------------------------------------------------------|
F#-----------------------------------------------------------------|
C#-5-5-5---5-5-5~~-1~~-1-0-----------------------------------------|
G#-5-5-5---5-5-5~~---------3-3-3-3-------------------------3-3-3-3-|
C#-5-5-5~~-5-5-5~~-----------------1-1-1-1-1-1-1-1-1-1-1-1---------|
Pm . .     . .

===================================================================
===================================================================


Breakdown 1

Guitar 2
D#-----------------------------------------------------------------|
A#---------------------7---8---10--11--10--8---11--10--8---7---11--|
F#-7---7---7---7---7-----------------------------------------------|
C#-----------------------------------------------------------------|
G#-----------------------------------------------------------------|
C#-----------------------------------------------------------------|
Pm .   .   .   .   .   .   .   .   .   .   .   .   .   .   .   .

===================================================================

Guitar 2
D#-----------------------------10--11--10--10--10--10--10--10--10--|
A#-10--10--10--10--10--10--10--------------------------------------|
F#-----------------------------------------------------------------|
C#-----------------------------------------------------------------|
G#-----------------------------------------------------------------|
C#-----------------------------------------------------------------|
Pm .   .   .   .   .   .   .   .   .   .   .   .   .   .   .   .

===================================================================

Guitar 2
D#-----------------------------------------------------------------|
A#---------------------7---8---10--11--10--8---11--10--8---7---11--|
F#/7~~~~~~~~~~~~~~~~~~---------------------------------------------|
C#-----------------------------------------------------------------|
G#-----------------------------------------------------------------|
C#-----------------------------------------------------------------|

===================================================================

Guitar 2
D#-----------------------------10--11--10~~~~~~~~~~~~~~~~~~~~~~~~~~-|
A#-10~~~~~~~~~~~~~~~~~~~~~~~~~--------------------------------------|
F#------------------------------------------------------------------|
C#------------------------------------------------------------------|
G#------------------------------------------------------------------|
C#------------------------------------------------------------------|

===================================================================

Guitar 2
D#-~~~~~~~~~~~~~~~~~~~~~~~~~~~~~~~~~~~~~~~~~~~~~~~~~~~~~~~~~~~~~~~-
A#-----------------------------------------------------------------|
F#-----------------------------------------------------------------|
C#-----------------------------------------------------------------|
G#-----------------------------------------------------------------|
C#-----------------------------------------------------------------|

===================================================================
===================================================================


Pre Chorus 1

Guitar 2
D#-----------------------------------------------------------------|
A#-----------------------------------------------------------------|
F#-----------------------------------------------------------------|
C#-5-5-5-5-5-5-5-5-5-5-5-5-5-5-5-5-5-5-5-5-5-5-5-5-5-5-5-5-5-5-5-5-|
G#-----------------------------------------------------------------|
C#-----------------------------------------------------------------|

===================================================================

Guitar 2
D#-----------------------------------------------------------------|
A#-----------------------------------------------------------------|
F#-----------------------------------------------------------------|
C#-3-3-3-3-3-3-3-3-3-3-3-3-3-3-3-3-3-3-3-3-3-3-3-3-3-3-3-3-3-3-3-3-|
G#-----------------------------------------------------------------|
C#-----------------------------------------------------------------|

===================================================================

Guitar 2
D#-----------------------------------------------------------------|
A#-----------------------------------------------------------------|
F#-----------------------------------------------------------------|
C#-1-1-1-1-1-1-1-1-1-1-1-1-1-1-1-1-1-1-1-1-1-1-1-1-1-1-1-1-1-1-1-1-|
G#-----------------------------------------------------------------|
C#-----------------------------------------------------------------|

===================================================================

Guitar 2
D#---------------------------------|
A#---------------------------------|
F#---------------------------------|
C#-0-0-0-0-0-0-0-0-0-0-0-0-0-0-0-0-|
G#---------------------------------|
C#---------------------------------|

Guitar 2 continued
D#------------------------------------------------|
A#------------------------11-13-11-10-13-15-13-11-|
F#---------10-12-15-12-10-------------------------|
C#-8-10-12----------------------------------------|
G#------------------------------------------------|
C#------------------------------------------------|

===================================================================
===================================================================


Chorus

Guitar 2
D#-----------------------------------------------------------------|
A#-----------------------------------------------------------------|
F#-----------------------------------------------------------------|
C#-5~~-5-5-7~~-8~~~~~~-8~~-8-8-8-8-5~~-5-5-7~~-8~~~~~~-8~~-8-8-8-8-|
G#-----------------------------------------------------------------|
C#-----------------------------------------------------------------|

===================================================================

Guitar 2
D#-----------------------------------------------------------------|
A#-----------------------------------------------------------------|
F#-7~~-7-7-7~~-7~~-7~~-8~~-7~~-5~~~~~~-5~~-5~~---------------------|
C#---------------------------------------------8~~-8~~-8~~-7~~~~~~-|
G#-----------------------------------------------------------------|
C#-----------------------------------------------------------------|

===================================================================

Guitar 2
D#-----------------------------------------------------------------|
A#-----------------------------------------------------------------|
F#-----------------------------------------------------------------|
C#-5~~-5-5-7~~-8~~~~~~-8~~-8-8-8-8-5~~-5-5-7~~-8~~~~~~-8~~-8-8-8-8-|
G#-----------------------------------------------------------------|
C#-----------------------------------------------------------------|

===================================================================

Guitar 2
D#----------------------------------------------------------------|
A#----------------------------------------------------------------|
F#----------------------------------------------------------------|
C#-7~~-7~~-7~~----------------------------------------------------|
G#-------------9~~-9~~-9~~----------------------------------------|
C#-------------------------10-10-10-10-10-10-10-10-10-10-10-10-10-|

===================================================================

Guitar 2 (x2)
D#-------------------------------------|
A#-8~~-8-8-10~-11~~~~~-11~-11-11-11-11-|
F#-------------------------------------|
C#-------------------------------------|
G#-------------------------------------|
C#-------------------------------------|

===================================================================

Guitar 2
D#-10~-10-10-10~-10~-10~-11~-10~-8~~~~~~-8~~-8~~-------------------|
A#-----------------------------------------------11~-11~-11~-10~~~-|
F#-----------------------------------------------------------------|
C#-----------------------------------------------------------------|
G#-----------------------------------------------------------------|
C#-----------------------------------------------------------------|

===================================================================

Guitar 2 (x2)
D#-------------------------------------|
A#-8~~-8-8-10~-11~~~~~-11~-11-11-11-11-|
F#-------------------------------------|
C#-------------------------------------|
G#-------------------------------------|
C#-------------------------------------|

===================================================================

Guitar 2
D#----------------------------------------------------------------|
A#-10-10-10-10-10-10-10-10-10-10-10-10-10-10-10-10-10-10-10-10-10-|
F#----------------------------------------------------------------|
C#----------------------------------------------------------------|
G#----------------------------------------------------------------|
C#----------------------------------------------------------------|

===================================================================
===================================================================


Break Off 1

Guitar 2
D#---------------------------------
A#-8~~~~~~~~~~~~~~~~~~~~~~~~~~~~~~-
F#---------------------------------|
C#---------------------------------|
G#---------------------------------|
C#---------------------------------|

===================================================================
===================================================================


Breakdown 2

(x2)

Guitar 2
D#-----------------------------------------------------------------|
A#-----------------------------------------------------------------|
F#-----------------------------------------------------------------|
C#-5-5-5~~-5-5~~-5-5~~-----5-5-5~~-5-5~~-5-5~~---------------------|
G#-5-5-5~~-5-5~~-5-5~~-----5-5-5~~-5-5~~-5-5~~-----6~~---3~~---3-5-|
C#-5-5-5~~-5-5~~-5-5~~-----5-5-5~~-5-5~~-5-5~~-0-0-----0-----0-----|
Pm . .     .     .         . .     .     .

===================================================================

Guitar 2
D#-----------------------------------------------------------------|
A#-----------------------------------------------------------------|
F#-------------------------------------------------8~~---7~~---5~~-|
C#-0-0-0~~-0-1~~-0-0~~-----0-0-0~~-0-----0-0~~-----10~---8~~---7~~-|
G#-0-0-0~~-0-1~~-0-0~~-----0-0-0~~-0-----0-0~~---------------------|
C#-0-0-0~~-0-1~~-0-0~~-----0-0-0~~-0-4~~-0-0~~-0-0-----0-----0-----|
Pm . .     .     .         . .     .     .     . .     .     .

===================================================================
===================================================================


Guitar Solo

Guitar 2
D#-----------------------------------------------------------------|
A#-----------------------------------------------------------------|
F#-6b~~~-6b~~~-6b~~~~~~~~~-8~~-5-------------------3-5~~-5b~-3-----|
C#-------------------------------8-8b~-5~~~~~~-3-5-------------5~~-|
G#-----------------------------------------------------------------|
C#-----------------------------------------------------------------|

===================================================================

Guitar 2
D#-----------------------------------------------------------------|
A#-------------------------------------------------6-7-6-8-6---6-7-|
F#-----------------------------------------------------------7-----|
C#-4~~~~-8~~~~-7~~~~-----------------------------------------------|
G#-------------------5*~~~-0-1-3-3*~~~-3*~~~-3*~~~-----------------|
C#-----------------------------------------------------------------|

===================================================================

Guitar 2
D#-------------------------8-10-8-6-8-6~~--------------------------|
A#-8b~~~-8b~~~-8b~~~~~~~~~----------------6-7-8~~~~~~~-8~~-8~~-7-8-|
F#-----------------------------------------------------------------|
C#-----------------------------------------------------------------|
G#-----------------------------------------------------------------|
C#-----------------------------------------------------------------|

===================================================================

Guitar 2
D#-----------------------------------------------------------------|
A#-7~~~~-----------------------------------------------------------|
F#-------8~~~~-7\~~~-----------------------------------------------|
C#-------------------------------------0-3-0-------0---------------|
G#---------------------------------3-5-------3-6~~-0---------------|
C#-------------------------------------------------0---------------|

===================================================================
===================================================================


Verse 2

Guitar 2
D#-----------------------------------------------------------------|
A#-----------------------------------------------------------------|
F#-----------------------------------------------------------------|
C#-----------------------------------------------------------------|
G#-----------------3~~---------------------------------3~~-1-3-1-0-|
C#-0-0-0~~-0-0~~-0-----0-0~~-0-0~~-0-1~~-0-5~~-0-3~~-0-------------|
Pm . .     .     .     .     .     .     .     .     .

===================================================================

Guitar 2
D#-----------------------------------------------------------------|
A#-----------------------------------------------------------------|
F#-----------------------------------------------------------------|
C#-----------------------------------------------------------------|
G#-5~~-3-5-5~~-3-6-----------------------------3-------------------|
C#-----------------0~~-1-1~~-5-8-5~~-5-5~~-0-5---4~~-4-4~~-4-4~~~~-|

===================================================================

Guitar 2
D#-----------------------------------------------------------------|
A#-----------------------------------------------------------------|
F#-----------------------------------------------------------------|
C#-----------------------------------12~---10~---8~~---7~~---------|
G#-----------------3~~---9~~---------------------------------------|
C#-0-0-0~~-0-0~~-0-----0-----0-0~~-0-----0-----0-----0-----4-4-4~~-|
Pm . .     .     .     .     .     .     .     .     .

===================================================================

Guitar 2
D#-----------------------------------------------------------------|
A#-----------------------------------------------------------------|
F#-----------------------------------------------------------------|
C#-5-5-5---5-5-5~~-1~~-1-0-----------------------------------------|
G#-5-5-5---5-5-5~~---------3-3-3-3---------------------------------|
C#-5-5-5~~-5-5-5~~-----------------1-1-1-1-1-1-1-1-1-1-1-1-1-1-1-1-|
Pm . .     . .

===================================================================
===================================================================


Pre Chorus 2

Guitar 2
D#-15~~~~~-18~~~~~-17~---------------------------------------------|
A#---------------------18~~~~~-15~~~~~---------16~-15~~~~~~~~~~~~~-|
F#-------------------------------------17~~~~~---------------------|
C#-----------------------------------------------------------------|
G#-----------------------------------------------------------------|
C#-----------------------------------------------------------------|

===================================================================
===================================================================


Chorus

Guitar 2
D#-----------------------------------------------------------------|
A#-----------------------------------------------------------------|
F#-----------------------------------------------------------------|
C#-5~~-5-5-7~~-8~~~~~~-8~~-8-8-8-8-5~~-5-5-7~~-8~~~~~~-8~~-8-8-8-8-|
G#-----------------------------------------------------------------|
C#-----------------------------------------------------------------|

===================================================================

Guitar 2
D#-----------------------------------------------------------------|
A#-----------------------------------------------------------------|
F#-7~~-7-7-7~~-7~~-7~~-8~~-7~~-5~~~~~~-5~~-5~~---------------------|
C#---------------------------------------------8~~-8~~-8~~-7~~~~~~-|
G#-----------------------------------------------------------------|
C#-----------------------------------------------------------------|

===================================================================

Guitar 2
D#-----------------------------------------------------------------|
A#-----------------------------------------------------------------|
F#-----------------------------------------------------------------|
C#-5~~-5-5-7~~-8~~~~~~-8~~-8-8-8-8-5~~-5-5-7~~-8~~~~~~-8~~-8-8-8-8-|
G#-----------------------------------------------------------------|
C#-----------------------------------------------------------------|

===================================================================

Guitar 2
D#----------------------------------------------------------------|
A#----------------------------------------------------------------|
F#----------------------------------------------------------------|
C#-7~~-7~~-7~~----------------------------------------------------|
G#-------------9~~-9~~-9~~----------------------------------------|
C#-------------------------10-10-10-10-10-10-10-10-10-10-10-10-10-|

===================================================================

Guitar 2 (x2)
D#-------------------------------------|
A#-8~~-8-8-10~-11~~~~~-11~-11-11-11-11-|
F#-------------------------------------|
C#-------------------------------------|
G#-------------------------------------|
C#-------------------------------------|

===================================================================

Guitar 2
D#-10~-10-10-10~-10~-10~-11~-10~-8~~~~~~-8~~-8~~-------------------|
A#-----------------------------------------------11~-11~-11~-10~~~-|
F#-----------------------------------------------------------------|
C#-----------------------------------------------------------------|
G#-----------------------------------------------------------------|
C#-----------------------------------------------------------------|

===================================================================

Guitar 2 (x2)
D#-------------------------------------|
A#-8~~-8-8-10~-11~~~~~-11~-11-11-11-11-|
F#-------------------------------------|
C#-------------------------------------|
G#-------------------------------------|
C#-------------------------------------|

===================================================================

Guitar 2
D#----------------------------------------------------------------|
A#-10-10-10-10-10-10-10-10-10-10-10-10-10-10-10-10-10-10-10-10-10-|
F#----------------------------------------------------------------|
C#----------------------------------------------------------------|
G#----------------------------------------------------------------|
C#----------------------------------------------------------------|

===================================================================
===================================================================


Break Off 2

Guitar 2
D#-----------------------------------------------------------------|
A#-----------------------------------------------------------------|
F#-----------------------------------------------------------------|
C#-5~~~~-5-6~~-5~~~~-----------------------------------------------|
G#-5~~~~-5-6~~-5~~~~---------6~~-----------------------------------|
C#-5~~~~-5-6~~-5~~~~-5-6-4~~---------------------------------------|

===================================================================

Guitar 2
D#-----------------------------------------------------------------|
A#-----------------------------------------------------------------|
F#-----------------------------------------------------------------|
C#-5~~~~-5-6~~-5~~~~-----------------------------------------------|
G#-5~~~~-5-6~~-5~~~~-----------------------------------------------|
C#-5~~~~-5-6~~-5~~~~-0-1~~~~-4~~-----------------------------------|

===================================================================
===================================================================


Breakdown 3

Guitar 2
D#-----------------------------------------------------------------|
A#-----------------------------------------------------------------|
F#-----------------------------------------------------------------|
C#-5~~~~-5-6~~-5~~~~-----------------------------------------------|
G#-5~~~~-5-6~~-5~~~~---------6~~-----------------------------------|
C#-5~~~~-5-6~~-5~~~~-5-6-4~~-----0-6b~-0-0~~-0-0~~-6b~-0-0~~-1-0~~-|

===================================================================

Guitar 2
D#-----------------------------------------------------------------|
A#-----------------------------------------------------------------|
F#-----------------------------------------------------------------|
C#-5~~~~-5-6~~-5~~~~-----------------------------------------------|
G#-5~~~~-5-6~~-5~~~~---------------5b~-------------5b~-------------|
C#-5~~~~-5-6~~-5~~~~-0-1~~~~-4~~-0-----0-0~~-0-0~~-----0-0~~-0-0~~-|

===================================================================

Guitar 2
D#-----------------------------------------------------------------|
A#-----------------------------------------------------------------|
F#-----------------------------------------------------------------|
C#-5~~~~-5-6~~-5~~~~-----------------------------------------------|
G#-5~~~~-5-6~~-5~~~~---------6~~-----------------------------------|
C#-5~~~~-5-6~~-5~~~~-5-6-4~~-----0-6b~-0-0~~-0-0~~-6b~-0-0~~-1-0~~-|

===================================================================

Guitar 2
D#-----------------------------------------------------------------|
A#-----------------------------------------------------------------|
F#-----------------------------------------------------------------|
C#-5~~~~-5-6~~-5~~~~-----------------------------------------------|
G#-5~~~~-5-6~~-5~~~~---------------5b~-------------5b~-------------|
C#-5~~~~-5-6~~-5~~~~-0-1~~~~-4~~-0-----0-0~~-0-0~~-----0-0~~-0-0~~-|

===================================================================

Guitar 2
D#-----------------------------------------------------------------|
A#-----------------------------------------------------------------|
F#-----------------------------------------------------------------|
C#-5~~~~-5-6~~-5~~~~-----------------------------------------------|
G#-5~~~~-5-6~~-5~~~~---------6~~-----------------------------------|
C#-5~~~~-5-6~~-5~~~~-5-6-4~~-----0-6b~-0-0~~-0-0~~-6b~-0-0~~-1-0~~-|

===================================================================

Guitar 2
D#-----------------------------------------------------------------|
A#-----------------------------------------------------------------|
F#-----------------------------------------------------------------|
C#-5~~~~-5-6~~-5~~~~-----------------------------------------------|
G#-5~~~~-5-6~~-5~~~~---------------5b~-------------5b~-------------|
C#-5~~~~-5-6~~-5~~~~-0-1~~~~-4~~-0-----0-0~~-0-0~~-----0-0~~-0-0~~-|

===================================================================

Guitar 2
D#-----------------------------------------------------------------|
A#-----------------------------------------------------------------|
F#-----------------------------------------------------------------|
C#-5~~~~-5-6~~-5~~~~-----------------------------------------------|
G#-5~~~~-5-6~~-5~~~~---------6~~-----------------------------------|
C#-5~~~~-5-6~~-5~~~~-5-6-4~~-----0-6b~-0-0~~-0-0~~-6b~-0-0~~-1-0~~-|

===================================================================

Guitar 2
D#-----------------------------------------------------------------|
A#-----------------------------------------------------------------|
F#-----------------------------------------------------------------|
C#-5~~~~-5-6~~-5~~~~---------------------------------------x-x-x-x-|
G#-5~~~~-5-6~~-5~~~~---------------5b~---------------------x-x-x-x-|
C#-5~~~~-5-6~~-5~~~~-0-1~~~~-4~~-0-----0-0~~-0-0~~---------x-x-x-x-|

===================================================================
===================================================================


Breakdown 4

(x2)

Guitar 2
D#-----------------------------------------------------------------|
A#-----------------------------------------------------------------|
F#-----------------------------------------------------------------|
C#-0~~-0-0-0~~-0~~-0-0-0~~~~-0-0~~-0-0~~-0~~~~-0-0~~~~-0-0~~~~-0-0-|
G#-0~~-0-0-0~~-0~~-0-0-0~~~~-0-0~~-0-0~~-0~~~~-0-0~~~~-0-0~~~~-0-0-|
C#-0~~-0-0-0~~-0~~-0-0-0~~~~-0-0~~-0-0~~-0~~~~-0-0~~~~-0-0~~~~-0-0-|
Pm .   . . .   .   . . .     . .   . .   .     . .     . .     . .

===================================================================

Guitar 2
D#-----------------------------------------------------------------|
A#-----------------------------------------------------------------|
F#-----------------------------------------------------------------|
C#-0~~-0-0~~-0-0-0-0-0~~-0-0~~-0-0-0-0-0-0---0-0---0-0-0-0---0-0---|
G#-0~~-0-0~~-0-0-0-0-0~~-0-0~~-0-0-0-0-0-0---0-0---0-0-0-0---0-0---|
C#-0~~-0-0~~-0-0-0-0-0~~-0-0~~-0-0-0-0-0-0---0-0---0-0-0-0---0-0---|
Pm .   . .   . . . . .   . .   . . . . . .   . .   . . . .   . .

===================================================================
===================================================================


Pre Chorus 3

Guitar 2
D#-18~~~~~-22~-20~~~~~-17~-18~-20~-17~~~~~~~~~~~~~~~~~~~~~~~~~~~~~-|
A#-20~~~~~-------------------------18~~~~~~~~~~~~~~~~~~~~~~~~~~~~~-|
F#-----------------------------------------------------------------|
C#-----------------------------------------------------------------|
G#-----------------------------------------------------------------|
C#-----------------------------------------------------------------|

===================================================================
===================================================================


Chorus

Guitar 2
D#-----------------------------------------------------------------|
A#-----------------------------------------------------------------|
F#-----------------------------------------------------------------|
C#-5~~-5-5-7~~-8~~~~~~-8~~-8-8-8-8-5~~-5-5-7~~-8~~~~~~-8~~-8-8-8-8-|
G#-----------------------------------------------------------------|
C#-----------------------------------------------------------------|

===================================================================

Guitar 2
D#-----------------------------------------------------------------|
A#-----------------------------------------------------------------|
F#-7~~-7-7-7~~-7~~-7~~-8~~-7~~-5~~~~~~-5~~-5~~---------------------|
C#---------------------------------------------8~~-8~~-8~~-7~~~~~~-|
G#-----------------------------------------------------------------|
C#-----------------------------------------------------------------|

===================================================================

Guitar 2
D#-----------------------------------------------------------------|
A#-----------------------------------------------------------------|
F#-----------------------------------------------------------------|
C#-5~~-5-5-7~~-8~~~~~~-8~~-8-8-8-8-5~~-5-5-7~~-8~~~~~~-8~~-8-8-8-8-|
G#-----------------------------------------------------------------|
C#-----------------------------------------------------------------|

===================================================================

Guitar 2
D#----------------------------------------------------------------|
A#----------------------------------------------------------------|
F#----------------------------------------------------------------|
C#-7~~-7~~-7~~----------------------------------------------------|
G#-------------9~~-9~~-9~~----------------------------------------|
C#-------------------------10-10-10-10-10-10-10-10-10-10-10-10-10-|

===================================================================

Guitar 2 (x2)
D#-------------------------------------|
A#-8~~-8-8-10~-11~~~~~-11~-11-11-11-11-|
F#-------------------------------------|
C#-------------------------------------|
G#-------------------------------------|
C#-------------------------------------|

===================================================================

Guitar 2
D#-10~-10-10-10~-10~-10~-11~-10~-8~~~~~~-8~~-8~~-------------------|
A#-----------------------------------------------11~-11~-11~-10~~~-|
F#-----------------------------------------------------------------|
C#-----------------------------------------------------------------|
G#-----------------------------------------------------------------|
C#-----------------------------------------------------------------|

===================================================================

Guitar 2 (x2)
D#-------------------------------------|
A#-8~~-8-8-10~-11~~~~~-11~-11-11-11-11-|
F#-------------------------------------|
C#-------------------------------------|
G#-------------------------------------|
C#-------------------------------------|

===================================================================

Guitar 2
D#----------------------------------------------------------------|
A#-10-10-10-10-10-10-10-10-10-10-10-10-10-10-10-10-10-10-10-10-10-|
F#----------------------------------------------------------------|
C#----------------------------------------------------------------|
G#----------------------------------------------------------------|
C#----------------------------------------------------------------|

===================================================================
===================================================================


Outro

Guitar 2
D#-----------------------------------------------------------------
A#-8~~~~~~~~~~~~~~~~~~~~~~~~~~~~~~~~~~~~~~~~~~~~~~~~~~~~~~~~~~~~~~-
F#-----------------------------------------------------------------|
C#-----------------------------------------------------------------|
G#-----------------------------------------------------------------|
C#-----------------------------------------------------------------|

===================================================================
===================================================================
===================================================================


----------------------------------------------------------------------------
                             Prove Me Right
                            Memphis May Fire
----------------------------------------------------------------------------

MMF has just grown so much it is incredible. This song is so intense and very creative.
They really put their soul into uncovering the record companies’ greed. In my point of
view, it is a dark and very emotional song and I love the guitar riffs for relating 
perfectly with the tone of the song. Enjoy!

Guitar 1 Rhythmic (G# D# G# C# F  A#)
Guitar 2 Lead     (G# D# G# C# F  A#)


===================================================================
Guitar 1
===================================================================


Intro

Guitar 1
A#-----------------------------------------------------------------|
F -----------------------------------------------------------------|
C#-----------------------------------------------------------------|
G#-----------------------------------------------------------------|
D#-----------------------------------------------------------------|
G#-12--12--12--12--12--12--12--12--8---8---8---8---8---8---8---8---|

===================================================================

Guitar 1
A#-----------------------------------------------------------------|
F -----------------------------------------------------------------|
C#-----------------------------------------------------------------|
G#-----------------------------------------------------------------|
D#-----------------------------------------------------------------|
G#-11--11--11--11--11--11--11--11--7---7---7---7---7---3---3---5---|

===================================================================

Guitar 1
A#-----------------------------------------------------------------|
F -----------------------------------------------------------------|
C#-----------------------------------------------------------------|
G#-----------------------------------------------------------------|
D#-----------------------------------------------------------------|
G#-12--12--12--12--12--12--12--12--8---8---8---8---8---8---8---8---|

===================================================================

Guitar 1
A#-----------------------------------------------------------------|
F -----------------------------------------------------------------|
C#-----------------------------------------2*~---------2*~---------|
G#---------------------------------x-x-x-x-2*~-x-x-x-x-2*~-x-x-x-x-|
D#---------------------------------x-x-x-x-0*~-x-x-x-x-0*~-x-x-x-x-|
G#-11--11--11--11--11--11--11--11--x-x-x-x-----x-x-x-x-----x-x-x-x-|

===================================================================
===================================================================


Verse 1

Guitar 1
A#-----------------------------------------------------------------|
F -----------------------------------------------------------------|
C#-----------------------------------------------------------------|
G#-------------------------------------------------5---7-----------|
D#---------5-------8-8-8-------------------3---5-----------8---7---|
G#-0---0-------0-----------0---2---3---0---------------------------|

===================================================================

Guitar 1
A#-----------------------------------------------------------------|
F -----------------------------------------------------------------|
C#-----------------------------------------------------------------|
G#-----7---7-------7---7---7-7-7-7-7---5---5-------3---2-----------|
D#-0-----------0-----------7-7-7-7-7-----------------------3---5---|
G#-------------------------7-7-7-7-7-----------5-------------------|
Pm                         . . . . .           .

===================================================================

Guitar 1
A#-----------------------------------------------------------------|
F -----------------------------------------------------------------|
C#-----------------------------------------------------------------|
G#-----------------------------------------------------------------|
D#---------5-------8-8-8-------------------3---5-------------------|
G#-0---0-------0-----------0---2---3---0-----------3---2---0---2---|

===================================================================

Guitar 1
A#-----------------------------------------------------------------|
F -----------------------------------------------------------------|
C#-----------------------------------------------------------------|
G#---------------------------------7---7---7---8---8---8---7---7---|
D#-----------------5---5---4---4-----------------------------------|
G#-8---8---8---8---------------------------------------------------|

===================================================================

Guitar 1
A#-----------------------------------------------------------------|
F -----------------------------------------------------------------|
C#-----------------------------------------------------------------|
G#-------------------------------------------------5---7-----------|
D#---------5-------8-8-8-------------------3---5-----------8---7---|
G#-0---0-------0-----------0---2---3---0---------------------------|

===================================================================

Guitar 1
A#-----------------------------------------------------------------|
F -----------------------------------------------------------------|
C#-----------------------------------------------------------------|
G#-----7---7-------7---7---7-7-7-7-7---5---5-------3---2-----------|
D#-0-----------0-----------7-7-7-7-7-----------------------3---5---|
G#-------------------------7-7-7-7-7-----------5-------------------|
Pm                         . . . . .           .

===================================================================

Guitar 1
A#-----------------------------------------------------------------|
F -----------------------------------------------------------------|
C#-----------------------------------------------------------------|
G#---------------------------------------------------------5---7---|
D#---------5-------8-8-8-------------------3---5---5---7-----------|
G#-0---0-------0-----------0---2---3---0---------------------------|

===================================================================

Guitar 1
A#-----------------------------------------------------------------|
F -----------------------------------------------------------------|
C#-----------------------------------------------------------------|
G#-8---8---8---8---8---8---8---8---7---7---7---7---7---7---7---7---|
D#-8---8---8---8---8---8---8---8---7---7---7---7---7---7---7---7---|
G#-8---8---8---8---8---8---8---8---7---7---7---7---7---7---7---7---|

===================================================================
===================================================================


Pre Chorus 1

Guitar 1
A#-----------------------------------------------------------------|
F -----------------------------------------------------------------|
C#-----------------------------------------------------------------|
G#-7-----------------------5h7p5---5-------2h3p2---2---0-----------|
D#-----8-------------------------7---------------3-----------------|
G#---------0-0-0---0-0-0---------------0-------------------0-0-0---|
Pm         . . .   . . .               .                   . . .

===================================================================

Guitar 1
A#-----------------------------------------------------------------|
F -------------------------------------------------5---3-----------|
C#-----------------------------------------------------------------|
G#-7-----------------------5h7p5---5-------2h3p2-------------------|
D#-----8-------------------------7---------------3-----------------|
G#---------0-0-0---0-0-0---------------0-------------------0-0-0---|
Pm         . . .   . . .               .                   . . .

===================================================================

Guitar 1
A#-----------------------------------------------------------------|
F -----------------------------------------------------------------|
C#-----------------------------------------------------------------|
G#-7-----------------------5h7p5---5-------2h3p2---2---0-----------|
D#-----8-------------------------7---------------3-----------------|
G#---------0-0-0---0-0-0---------------0-------------------0-0-0---|
Pm         . . .   . . .               .                   . . .

===================================================================

Guitar 1
A#-----------------------------------------------------------------|
F -----------------------------------------------------------------|
C#-----------------------------------------------------------------|
G#-7---------------------------------------------------------------|
D#-----8-----------------------------------------------------------|
G#---------0-0-0---0-0-0---0---8---11--11--11--11--11--12--11------|
Pm         . . .   . . .

===================================================================
===================================================================


Chorus

Guitar 1
A#-----------------------------------------------------------------|
F -----------------------------------------------------------------|
C#-7---7---7---7---7---7---7---7-----------------------------------|
G#-7---7---7---7---7---7---7---7---8---8---8---8---8---8---8---8---|
D#-5---5---5---5---5---5---5---5---8---8---8---8---8---8---8---8---|
G#---------------------------------8---8---8---8---8---8---8---8---|

===================================================================

Guitar 1
A#-----------------------------------------------------------------|
F -----------------------------------------------------------------|
C#-6---6---6---6---6---6---6---6---------------------------6---6---|
G#-6---6---6---6---6---6---6---6---3---3---3---2---2---2---6---6---|
D#-4---4---4---4---4---4---4---4---------------------------4---4---|
G#-----------------------------------------------------------------|
Pm                                                         .   .

===================================================================

Guitar 1
A#-----------------------------------------------------------------|
F -----------------------------------------------------------------|
C#-7---7---7---7---7---7---7---7-----------------------------------|
G#-7---7---7---7---7---7---7---7---8---8---8---8---8---8---8---8---|
D#-5---5---5---5---5---5---5---5---8---8---8---8---8---8---8---8---|
G#---------------------------------8---8---8---8---8---8---8---8---|

===================================================================

Guitar 1
A#-----------------------------------------------------------------|
F -----------------------------------------------------------------|
C#-6---6---6---6---6---6---6---------------------------------------|
G#-6---6---6---6---6---6---6---------------------------------------|
D#-4---4---4---4---4---4---4---1---1---0---0-----------------------|
G#---------------------------------------------5---5---3---2---3---|

===================================================================

Guitar 1
A#-----------------------------------------------------------------|
F -----------------------------------------------------------------|
C#---------0---0---0---3---3---------------3---3---3---5---5-------|
G#-0-0-0-----------------------3---3-3-3-----------------------5---|
D#-0-0-0-----------------------3---3-3-3-----------------------5---|
G#-0-0-0-----------------------3---3-3-3-----------------------5---|
Pm . . .                       .   . . .                       .

===================================================================

Guitar 1
A#-----------------------------------------------------------------|
F -----------------------------------------------------------------|
C#---------5---5---5---5---5---8---8---7---7---5---5---------------|
G#-5-5-5-----------------------------------------------8---8---7---|
D#-5-5-5-----------------------------------------------------------|
G#-5-5-5-----------------------------------------------------------|
Pm . . .

===================================================================

Guitar 1
A#-----------------------------------------------------------------|
F -----------------------------------------------------------------|
C#---------0---0---0---3---3---------------3---3---3---5---5-------|
G#-0-0-0-----------------------3---3-3-3-----------------------5---|
D#-0-0-0-----------------------3---3-3-3-----------------------5---|
G#-0-0-0-----------------------3---3-3-3-----------------------5---|
Pm . . .                       .   . . .                       .

===================================================================

Guitar 1
A#-----------------------------------------------------------------|
F -----------------------------------------------------------------|
C#---------5---5---5---5---5---8---8---7---7---5---5---------------|
G#-5-5-5-----------------------------------------------8---8---7---|
D#-5-5-5-----------------------------------------------------------|
G#-5-5-5-----------------------------------------------------------|
Pm . . .

===================================================================
===================================================================


Bridge 1

Guitar 1
A#-----------------------------------------------------------------|
F -----------------------------------------------------------------|
C#-----------------------------------------------------------------|
G#-----------------------------------------------------------------|
D#-----------------------------------------5---1---4---------------|
G#-5*b~~~~-0---5*b~~~~-0---5---3---0---0---------------0---5---3---|
Pm         .           .               .               .

===================================================================

Guitar 1
A#-----------------------------------------------------------------|
F -----------------------------------------------------------------|
C#-----------------------------------------------------------------|
G#-----------------------------------------------------------------|
D#-----------------------------------------5---1---4-------5---8---|
G#-5*b~~~~-0---5*b~~~~-0---5---3---0---0---------------0-----------|
Pm         .           .               .               .

===================================================================

Guitar 1
A#-----------------------------------------------------------------|
F -----------------------------------------------------------------|
C#-----------------------------------------------------------------|
G#-----------------------------------------------------------------|
D#-----------------------------------------5---1---4---------------|
G#-5*b~~~~-0---5*b~~~~-0---5---3---0---0---------------0---5---3---|
Pm         .           .               .               .

===================================================================

Guitar 1
A#-----------------------------------------------------------------|
F -----------------------------------------------------------------|
C#-----------------------------------------------------------------|
G#-------------------------------------------------x-x-x-x-x---x---|
D#-----------------------------------------5---1---x-x-x-x-x---x---|
G#-5*b~~~~-0---5*b~~~~-0---5---3---0---0-----------x-x-x-x-x---x---|
Pm         .           .               .

===================================================================


Breakdown 1

Guitar 1
A#-----------------------------------------------------------------|
F -----------------------------------------------------------------|
C#-----------------------------------------------------------------|
G#-0-0-0---0---0-0-0---0---0-0-0---0---0-0-0---0---0-0-0---3---6---|
D#-0-0-0---0---0-0-0---0---0-0-0---0---0-0-0---0---0-0-0---3---6---|
G#-0-0-0---0---0-0-0---0---0-0-0---0---0-0-0---0---0-0-0---3---6---|
Pm . . .   .   . . .   .   . . .   .   . . .   .   . . .

===================================================================

Guitar 1
A#-----------------------------------------------------------------|
F -----------------------------------------------------------------|
C#-----------------------------------------------------------------|
G#-0-0-0---0---0-0-0---0---0-0-0---0-------------------------------|
D#-0-0-0---0---0-0-0---0---0-0-0---0-------------------------------|
G#-0-0-0---0---0-0-0---0---0-0-0---0---8---8---8---8b--7---7---7---|
Pm . . .   .   . . .   .   . . .   .

===================================================================

Guitar 1
A#-----------------------------------------------------------------|
F -----------------------------------------------------------------|
C#-----------------------------------------------------------------|
G#-0-0-0---0---0-0-0---0---0-0-0---0---0-0-0---0---3---6---6---3---|
D#-0-0-0---0---0-0-0---0---0-0-0---0---0-0-0---0---3---6---6---3---|
G#-0-0-0---0---0-0-0---0---0-0-0---0---0-0-0---0---3---6---6---3---|
Pm . . .   .   . . .   .   . . .   .   . . .   .

===================================================================

Guitar 1
A#-----------------------------------------------------------------|
F -----------------------------------------------------------------|
C#-----------------------------------------------------------------|
G#-0-0-0---0---0-0-0---0---0-0-0---0-------------------------------|
D#-0-0-0---0---0-0-0---0---0-0-0---0-------------------------------|
G#-0-0-0---0---0-0-0---0---0-0-0---0---8---8---8---8b--11--11--11--|
Pm . . .   .   . . .   .   . . .   .

===================================================================

Guitar 1
A#-----------------------------------------------------------------|
F -----------------------------------------------------------------|
C#-----------------------------------------------------------------|
G#-0-0-0---0---0-0-0---0---0-0-0---0---0-0-0---0---0-0-0---3---6---|
D#-0-0-0---0---0-0-0---0---0-0-0---0---0-0-0---0---0-0-0---3---6---|
G#-0-0-0---0---0-0-0---0---0-0-0---0---0-0-0---0---0-0-0---3---6---|
Pm . . .   .   . . .   .   . . .   .   . . .   .   . . .

===================================================================

Guitar 1
A#-----------------------------------------------------------------|
F -----------------------------------------------------------------|
C#-----------------------------------------------------------------|
G#-0-0-0---0---0-0-0---0---0-0-0---0-------------------------------|
D#-0-0-0---0---0-0-0---0---0-0-0---0-------------------------------|
G#-0-0-0---0---0-0-0---0---0-0-0---0---8---8---8---8b--7---7---7---|
Pm . . .   .   . . .   .   . . .   .

===================================================================

Guitar 1
A#-----------------------------------------------------------------|
F -----------------------------------------------------------------|
C#-----------------------------------------------------------------|
G#-0-0-0---0---0-0-0---0---0-0-0---0---0-0-0---0---3---6---6---3---|
D#-0-0-0---0---0-0-0---0---0-0-0---0---0-0-0---0---3---6---6---3---|
G#-0-0-0---0---0-0-0---0---0-0-0---0---0-0-0---0---3---6---6---3---|
Pm . . .   .   . . .   .   . . .   .   . . .   .

===================================================================

Guitar 1
A#-----------------------------------------------------------------|
F -----------------------------------------------------------------|
C#-----------------------------------------------------------------|
G#-0-0-0---0---0-0-0---0---0-0-0---0-------------------------------|
D#-0-0-0---0---0-0-0---0---0-0-0---0-------------------------------|
G#-0-0-0---0---0-0-0---0---0-0-0---0---8---8---8---8b--11--11--11--|
Pm . . .   .   . . .   .   . . .   .

===================================================================
===================================================================


Break Off

Guitar 1
A#---------------------------------|
F ---------------------------------|
C#---------------------------------|
G#---------------------------------|
D#-5-----------7-------8---4---4---|
G#-----0---0-------0---------------|
Pm     .   .       .

===================================================================
===================================================================


Verse 2

Guitar 1
A#-----------------------------------------------------------------|
F -----------------------------------------------------------------|
C#-----------------------------------------------------------------|
G#-------------------------------------------------5---7-----------|
D#---------5-------8-8-8-------------------3---5-----------8---7---|
G#-0---0-------0-----------0---2---3---0---------------------------|

===================================================================

Guitar 1
A#-----------------------------------------------------------------|
F -----------------------------------------------------------------|
C#-----------------------------------------------------------------|
G#-----7---7-------7---7---7-7-7-7-7---5---5-------3---2-----------|
D#-0-----------0-----------7-7-7-7-7-----------------------3---5---|
G#-------------------------7-7-7-7-7-----------5-------------------|
Pm                         . . . . .           .

===================================================================

Guitar 1
A#-----------------------------------------------------------------|
F -----------------------------------------------------------------|
C#-----------------------------------------------------------------|
G#-----------------------------------------------------------------|
D#---------5-------8-8-8-------------------3---5-------------------|
G#-0---0-------0-----------0---2---3---0-----------3---2---0---2---|

===================================================================

Guitar 1
A#-----------------------------------------------------------------|
F -----------------------------------------------------------------|
C#-----------------------------------------------------------------|
G#-3-3-3-3-3-3-3-3-3-3-3-3-3-3-3-3-7-7-7-7-7-7-7-7-7-7-7-7-7-7-7-7-|
D#-----------------------------------------------------------------|
G#-----------------------------------------------------------------|

===================================================================
===================================================================


Chorus

Guitar 1
A#-----------------------------------------------------------------|
F -----------------------------------------------------------------|
C#-7---7---7---7---7---7---7---7-----------------------------------|
G#-7---7---7---7---7---7---7---7---8---8---8---8---8---8---8---8---|
D#-5---5---5---5---5---5---5---5---8---8---8---8---8---8---8---8---|
G#---------------------------------8---8---8---8---8---8---8---8---|

===================================================================

Guitar 1
A#-----------------------------------------------------------------|
F -----------------------------------------------------------------|
C#-6---6---6---6---6---6---6---6---------------------------6---6---|
G#-6---6---6---6---6---6---6---6---3---3---3---2---2---2---6---6---|
D#-4---4---4---4---4---4---4---4---------------------------4---4---|
G#-----------------------------------------------------------------|
Pm                                                         .   .

===================================================================

Guitar 1
A#-----------------------------------------------------------------|
F -----------------------------------------------------------------|
C#-7---7---7---7---7---7---7---7-----------------------------------|
G#-7---7---7---7---7---7---7---7---8---8---8---8---8---8---8---8---|
D#-5---5---5---5---5---5---5---5---8---8---8---8---8---8---8---8---|
G#---------------------------------8---8---8---8---8---8---8---8---|

===================================================================

Guitar 1
A#-----------------------------------------------------------------|
F -----------------------------------------------------------------|
C#-6---6---6---6---6---6---6---------------------------------------|
G#-6---6---6---6---6---6---6---------------------------------------|
D#-4---4---4---4---4---4---4---1---1---0---0-----------------------|
G#---------------------------------------------5---5---3---2---3---|

===================================================================

Guitar 1
A#-----------------------------------------------------------------|
F -----------------------------------------------------------------|
C#---------0---0---0---3---3---------------3---3---3---5---5-------|
G#-0-0-0-----------------------3---3-3-3-----------------------5---|
D#-0-0-0-----------------------3---3-3-3-----------------------5---|
G#-0-0-0-----------------------3---3-3-3-----------------------5---|
Pm . . .                       .   . . .                       .

===================================================================

Guitar 1
A#-----------------------------------------------------------------|
F -----------------------------------------------------------------|
C#---------5---5---5---5---5---8---8---7---7---5---5---------------|
G#-5-5-5-----------------------------------------------8---8---7---|
D#-5-5-5-----------------------------------------------------------|
G#-5-5-5-----------------------------------------------------------|
Pm . . .

===================================================================

Guitar 1
A#-----------------------------------------------------------------|
F -----------------------------------------------------------------|
C#---------0---0---0---3---3---------------3---3---3---5---5-------|
G#-0-0-0-----------------------3---3-3-3-----------------------5---|
D#-0-0-0-----------------------3---3-3-3-----------------------5---|
G#-0-0-0-----------------------3---3-3-3-----------------------5---|
Pm . . .                       .   . . .                       .

===================================================================

Guitar 1
A#-----------------------------------------------------------------|
F -----------------------------------------------------------------|
C#---------5---5---5---5---5---8---8---7---7---5---5---------------|
G#-5-5-5-----------------------------------------------8---8---7---|
D#-5-5-5-----------------------------------------------------------|
G#-5-5-5-----------------------------------------------------------|
Pm . . .

===================================================================
===================================================================


Bridge 2

Guitar 1
A#-----------------------------------------------------------------|
F -11----------8-----------10-----------5-----------6-------3------|
C#-----------------------------------------------------------------|
G#--h12---------h8----------h10----------h5----------h8------h5----|
D#-----------------------------------------------------------------|
G#-----0---0-------0---0--------0---0-------0---0-------0------0---|
Pm     .   .       .   .        .   .       .   .       .      .

===================================================================

Guitar 1
A#-----------------------------------------------------------------|
F -11----------8-------5-------6-----------------------------------|
C#-------------------------------------------------3h5p3p0---------|
G#--h12---------h8------h5------h8-------------------------3h5p3p0-|
D#-----------------------------------------------------------------|
G#-----0---0-------0-------0-------0---0---0---0-------------------|
Pm     .   .       .       .       .   .   .   .

===================================================================

Guitar 1
A#-----------------------------------------------------------------|
F -11----------8-----------10-----------5-----------6-------3------|
C#-----------------------------------------------------------------|
G#--h12---------h8----------h10----------h5----------h8------h5----|
D#-----------------------------------------------------------------|
G#-----0---0-------0---0--------0---0-------0---0-------0------0---|
Pm     .   .       .   .        .   .       .   .       .      .

===================================================================

Guitar 1
A#-----------------------------------------------------------------|
F -11----------8-------5-------3-----------------------------------|
C#-----------------------------------------------------------------|
G#--h12---------h8-------------------------------------------------|
D#-----------------------------------------------------------------|
G#-----0---0-------0-------0---------------------------------------|
Pm     .   .       .       .

===================================================================
===================================================================


Breakdown 2

Guitar 1
A#-----------------------------------------------------------------|
F -----------------------------------------------------------------|
C#-7-------7-------7-------7-------7-------7-----------------------|
G#-7---0---7---0---7---0---7---0---7---0---7---0---0-0-0-0-0-0-0-0-|
D#-5---0---5---0---5---0---5---0---5---0---5---0---0-0-0-0-0-0-0-0-|
G#-----0-------0-------0-------0-------0-------0---0-0-0-0-0-0-0-0-|
Pm     .       .       .       .       .       .   . . . . . . . .

===================================================================

Guitar 1
A#-----------------------------------------------------------------|
F -----------------------------------------------------------------|
C#-7-------7-------7-------7---------------------------------------|
G#-7---0---7---0---7---0---7---0-----------------------------------|
D#-5---0---5---0---5---0---5---0-----------------------------------|
G#-----0-------0-------0-------0---8---8---8---7---7---7---3---3---|
Pm     .       .       .       .

===================================================================

Guitar 1
A#-----------------------------------------------------------------|
F -----------------------------------------------------------------|
C#-7-------7-------7-------7-------7-------7-----------------------|
G#-7---0---7---0---7---0---7---0---7---0---7---0---0-0-0-0-0-0-0-0-|
D#-5---0---5---0---5---0---5---0---5---0---5---0---0-0-0-0-0-0-0-0-|
G#-----0-------0-------0-------0-------0-------0---0-0-0-0-0-0-0-0-|
Pm     .       .       .       .       .       .   . . . . . . . .

===================================================================

Guitar 1
A#-----------------------------------------------------------------|
F -----------------------------------------------------------------|
C#-7-------7-------7-------7---------------------------------------|
G#-7---0---7---0---7---0---7---0-----------------------------------|
D#-5---0---5---0---5---0---5---0-----------------------------------|
G#-----0-------0-------0-------0---7---7---7---3---3---3---5---5---|
Pm     .       .       .       .

===================================================================

Guitar 1
A#-----------------------------------------------------------------|
F -----------------------------------------------------------------|
C#-7-------7-------7-------7-------7-------7-----------------------|
G#-7---0---7---0---7---0---7---0---7---0---7---0---0-0-0-0-0-0-0-0-|
D#-5---0---5---0---5---0---5---0---5---0---5---0---0-0-0-0-0-0-0-0-|
G#-----0-------0-------0-------0-------0-------0---0-0-0-0-0-0-0-0-|
Pm     .       .       .       .       .       .   . . . . . . . .

===================================================================

Guitar 1
A#-----------------------------------------------------------------|
F -----------------------------------------------------------------|
C#-7-------7-------7-------7---------------------------------------|
G#-7---0---7---0---7---0---7---0-----------------------------------|
D#-5---0---5---0---5---0---5---0-----------------------------------|
G#-----0-------0-------0-------0-----------------------------------|
Pm     .       .       .       .

===================================================================

Guitar 1
A#-----------------------------------------------------------------|
F -----------------------------------------------------------------|
C#-7-------7-------7-------7-------7-------7-----------------------|
G#-7---0---7---0---7---0---7---0---7---0---7---0---0-0-0-0-0-0-0-0-|
D#-5---0---5---0---5---0---5---0---5---0---5---0---0-0-0-0-0-0-0-0-|
G#-----0-------0-------0-------0-------0-------0---0-0-0-0-0-0-0-0-|
Pm     .       .       .       .       .       .   . . . . . . . .

===================================================================

Guitar 1
A#----------------------------------------------------------------------|
F ----------------------------------------------------------------------|
C#-7-------7-------7----------------------------------------------------|
G#-7---0---7---0---7---0---0--3--5--5--3--0--7--5--0--8--7--0--5--3--0--|
D#-5---0---5---0---5---0---0--3--5--5--3--0--7--5--0--8--7--0--5--3--0--|
G#-----0-------0-------0---0--3--5--5--3--0--7--5--0--8--7--0--5--3--0--|
Pm     .       .       .   .  .  .  .  .  .  .  .  .  .  .  .  .  .  .

===================================================================
===================================================================


Bridge 3

Guitar 1
A#-----------------------------------------------------------------|
F -----------------------------------------------------------------|
C#-----------------------------------------------------------------|
G#-0~~~~~~~~~~~~~~~~~~~~~~~~~~~~~~~~~~~~~~~~~~~~~~~~~~~~~~~~~~~~~~-
D#-0~~~~~~~~~~~~~~~~~~~~~~~~~~~~~~~~~~~~~~~~~~~~~~~~~~~~~~~~~~~~~~-
G#-0~~~~~~~~~~~~~~~~~~~~~~~~~~~~~~~~~~~~~~~~~~~~~~~~~~~~~~~~~~~~~~-

===================================================================

Guitar 1
A#-----------------------------------------------------------------|
F -----------------------------------------------------------------|
C#-----------------------------------------------------------------|
G#---------------------------------ps\~~~~~~~~~~~~~~~~~~~~~~~~~~~~-|
D#---------------------------------ps\~~~~~~~~~~~~~~~~~~~~~~~~~~~~-|
G#---------------------------------ps\~~~~~~~~~~~~~~~~~~~~~~~~~~~~-|

===================================================================
===================================================================


Chorus

Guitar 1
A#-----------------------------------------------------------------|
F -----------------------------------------------------------------|
C#-7---7---7---7---7---7---7---7-----------------------------------|
G#-7---7---7---7---7---7---7---7---8---8---8---8---8---8---8---8---|
D#-5---5---5---5---5---5---5---5---8---8---8---8---8---8---8---8---|
G#---------------------------------8---8---8---8---8---8---8---8---|

===================================================================

Guitar 1
A#-----------------------------------------------------------------|
F -----------------------------------------------------------------|
C#-6---6---6---6---6---6---6---6---------------------------6---6---|
G#-6---6---6---6---6---6---6---6---3---3---3---2---2---2---6---6---|
D#-4---4---4---4---4---4---4---4---------------------------4---4---|
G#-----------------------------------------------------------------|
Pm                                                         .   .

===================================================================

Guitar 1
A#-----------------------------------------------------------------|
F -----------------------------------------------------------------|
C#-7---7---7---7---7---7---7---7-----------------------------------|
G#-7---7---7---7---7---7---7---7---8---8---8---8---8---8---8---8---|
D#-5---5---5---5---5---5---5---5---8---8---8---8---8---8---8---8---|
G#---------------------------------8---8---8---8---8---8---8---8---|

===================================================================

Guitar 1
A#-----------------------------------------------------------------|
F -----------------------------------------------------------------|
C#-6---6---6---6---6---6---6---------------------------------------|
G#-6---6---6---6---6---6---6---------------------------------------|
D#-4---4---4---4---4---4---4---1---1---0---0-----------------------|
G#---------------------------------------------5---5---3---2---3---|

===================================================================

Guitar 1
A#-----------------------------------------------------------------|
F -----------------------------------------------------------------|
C#---------0---0---0---3---3---------------3---3---3---5---5-------|
G#-0-0-0-----------------------3---3-3-3-----------------------5---|
D#-0-0-0-----------------------3---3-3-3-----------------------5---|
G#-0-0-0-----------------------3---3-3-3-----------------------5---|
Pm . . .                       .   . . .                       .

===================================================================

Guitar 1
A#-----------------------------------------------------------------|
F -----------------------------------------------------------------|
C#---------5---5---5---5---5---8---8---7---7---5---5---------------|
G#-5-5-5-----------------------------------------------8---8---7---|
D#-5-5-5-----------------------------------------------------------|
G#-5-5-5-----------------------------------------------------------|
Pm . . .

===================================================================

Guitar 1
A#-----------------------------------------------------------------|
F -----------------------------------------------------------------|
C#---------0---0---0---3---3---------------3---3---3---5---5-------|
G#-0-0-0-----------------------3---3-3-3-----------------------5---|
D#-0-0-0-----------------------3---3-3-3-----------------------5---|
G#-0-0-0-----------------------3---3-3-3-----------------------5---|
Pm . . .                       .   . . .                       .

===================================================================

Guitar 1
A#-----------------------------------------------------------------|
F -----------------------------------------------------------------|
C#---------5---5---5---5---5---8---8---7---7---5---5---------------|
G#-5-5-5-----------------------------------------------8---8---7---|
D#-5-5-5-----------------------------------------------------------|
G#-5-5-5-----------------------------------------------------------|
Pm . . .

===================================================================
===================================================================


Bridge 1

Guitar 1
A#-----------------------------------------------------------------|
F -----------------------------------------------------------------|
C#-----------------------------------------------------------------|
G#-----------------------------------------------------------------|
D#-----------------------------------------5---1---4---------------|
G#-5*b~~~~-0---5*b~~~~-0---5---3---0---0---------------0---5---3---|
Pm         .           .               .               .

===================================================================

Guitar 1
A#-----------------------------------------------------------------|
F -----------------------------------------------------------------|
C#-----------------------------------------------------------------|
G#-----------------------------------------------------------------|
D#-----------------------------------------5---1---4---4---4-4-4-4-|
G#-5*b~~~~-0---5*b~~~~-0---5---3---0---0---------------------------|
Pm         .           .               .

===================================================================

Guitar 1
A#-----------------------------------------------------------------|
F -----------------------------------------------------------------|
C#-----------------------------------------------------------------|
G#-----------------------------------------------------------------|
D#-----------------------------------------5---1---4---4---4-4-4-4-|
G#-5*b~~~~-0---5*b~~~~-0---5---3---0---0---------------------------|
Pm         .           .               .

===================================================================
===================================================================


Outro

Guitar 1 (x3)
A#-----------------------------------------------------------------|
F -----------------------------------------------------------------|
C#-----------------------------------------------------------------|
G#-0-0-0-------0-0-0-------0-0-0-------0-0-0-------0-0---0-0---0-0-|
D#-0-0-0-------0-0-0-------0-0-0-------0-0-0-------0-0---0-0---0-0-|
G#-0-0-0-------0-0-0-------0-0-0-------0-0-0-------0-0---0-0---0-0-|
Pm . . .       . . .       . . .       . . .       . .   . .   . .

===================================================================

Guitar 1
A#-----------------------------------------------------------------|
F -----------------------------------------------------------------|
C#-----------------------------------------------------------------|
G#-0-0-0-------0-0-0-------0-0-0-------0-0-0-------0-0-0---0-0-0-0-|
D#-0-0-0-------0-0-0-------0-0-0-------0-0-0-------0-0-0---0-0-0-0-|
G#-0-0-0-------0-0-0-------0-0-0-------0-0-0-------0-0-0---0-0-0-0-|
Pm . . .       . . .       . . .       . . .       . . .   . . . .

===================================================================

Guitar 1
A#-----------------------------------------------------------------|
F -----------------------------------------------------------------|
C#-----------------------------------------------------------------|
G#-0---------------------------------------------------------------|
D#-0---------------------------------------------------------------|
G#-0---------------------------------------------------------------|
Pm .

===================================================================
===================================================================
===================================================================


===================================================================
Guitar 2
===================================================================


Intro

Guitar 2
A#-----------------------------------------------------------------|
F -10--10--11------10--10--10--10--11------10--10--10--10--10--10--|
C#-------------12----------------------12--------------------------|
G#-----------------------------------------------------------------|
D#-----------------------------------------------------------------|
G#-----------------------------------------------------------------|

===================================================================

Guitar 2
A#-----------------------------------------------------------------|
F -10--10--11------10--10--10--10--11------10--10--13--13--11--11--|
C#-------------12----------------------12--------------------------|
G#-----------------------------------------------------------------|
D#-----------------------------------------------------------------|
G#-----------------------------------------------------------------|

===================================================================

Guitar 2
A#-----------------------------------------------------------------|
F -10--10--11------10--10--10--10--11------10--10--10--10--10--10--|
C#-------------12----------------------12--------------------------|
G#-----------------------------------------------------------------|
D#-----------------------------------------------------------------|
G#-----------------------------------------------------------------|

===================================================================

Guitar 2
A#-----------------------------------------------------------------|
F -10--10--11------10--10--10--10----------------------------------|
C#-------------12--------------------------2*~---------2*~---------|
G#---------------------------------x-x-x-x-2*~-x-x-x-x-2*~-x-x-x-x-|
D#---------------------------------x-x-x-x-0*~-x-x-x-x-0*~-x-x-x-x-|
G#---------------------------------x-x-x-x-----x-x-x-x-----x-x-x-x-|

===================================================================
===================================================================


Verse 1

Guitar 2
A#-----------------------------------------------------------------|
F -----------------------------------------------------------------|
C#-----------------------------------------------------------------|
G#-------------------------------------------------5---7-----------|
D#---------5-------8-8-8-------------------3---5-----------8---7---|
G#-0---0-------0-----------0---2---3---0---------------------------|

===================================================================

Guitar 2
A#-----------------------------------------------------------------|
F -----------------------------------------------------------------|
C#-----------------------------------------------------------------|
G#-----7---7-------7---7---7-7-7-7-7---5---5-------7---5-----------|
D#-0-----------0-----------7-7-7-7-7-----------------------7---8---|
G#-------------------------7-7-7-7-7-----------5-------------------|
Pm                         . . . . .           .

===================================================================

Guitar 2
A#-----------------------------------------------------------------|
F -----------------------------------------------------------------|
C#-----------------------------------------------------------------|
G#-----------------------------------------------------------------|
D#---------5-------8-8-8-------------------3---5-------------------|
G#-0---0-------0-----------0---2---3---0-----------3---2---0---2---|

===================================================================

Guitar 2
A#-----------------------------------------------------------------|
F -----------------------------------------------------------------|
C#-----------------------------------------------------------------|
G#---------------------------------7---7---7---5---5---5---3---3---|
D#-----------------------------------------------------------------|
G#-5---5---5---5---8---8---7---7-----------------------------------|

===================================================================

Guitar 2
A#-----------------------------------------------------------------|
F -----------------------------------------------------------------|
C#-----------------------------------------------------------------|
G#-0-0-0-------0-0-0-------0-0-0-------0-0-0-------0-0---0-0---0-0-|
D#-0-0-0-------0-0-0-------0-0-0-------0-0-0-------0-0---0-0---0-0-|
G#-0-0-0-------0-0-0-------0-0-0-------0-0-0-------0-0---0-0---0-0-|
Pm . . .       . . .       . . .       . . .       . .   . .   . .

===================================================================

Guitar 2
A#-----------------------------------------------------------------|
F -----------------------------------------------------------------|
C#-----------------------------------------------------------------|
G#-8-8-8-------8-8-8-------7-7-7-------7-7-7-------7---5-----------|
D#-8-8-8-------8-8-8-------7-7-7-------7-7-7---------------7---8---|
G#-8-8-8-------8-8-8-------7-7-7-------7-7-7-----------------------|
Pm . . .       . . .       . . .       . . .

===================================================================

Guitar 2
A#-----------------------------------------------------------------|
F -------------------------------------------------11--10--8-------|
C#-----------------------------------------------------------------|
G#-0-0-0-------0-0-0-------0-0-0-------0-0-0-------------------10--|
D#-0-0-0-------0-0-0-------0-0-0-------0-0-0-----------------------|
G#-0-0-0-------0-0-0-------0-0-0-------0-0-0-----------------------|
Pm . . .       . . .       . . .       . . .

===================================================================

Guitar 2
A#-----------------------------------------------------------------|
F ---------------------------------10--10--10----------------------|
C#-----10~~~~~~~~~~~~~~~~~~~~~~~~~-------------10--10--10--9---9---|
G#-12~~~~~~~~~~~~~~~~~~~~~~~~~~~~~---------------------------------|
D#-----------------------------------------------------------------|
G#-----------------------------------------------------------------|

===================================================================
===================================================================


Pre Chorus 1

Guitar 2
A#-----------------------------------------------------------------|
F -----------------------------------------------------------------|
C#-----------------------------------------------------------------|
G#-7-----------------------5h7p5---5-------2h3p2---2---0-----------|
D#-----8-------------------------7---------------3-----------------|
G#---------0-0-0---0-0-0---------------0-------------------0-0-0---|
Pm         . . .   . . .               .                   . . .

===================================================================

Guitar 2
A#-----------------------------------------------------------------|
F -----------------------------------------------------------------|
C#-----------------------------------------9h10p9----12-10---------|
G#-7-----------------------8h10p8----8------------10---------------|
D#-----8--------------------------10-------------------------------|
G#---------0-0-0---0-0-0---------------0-------------------0-0-0---|
Pm         . . .   . . .               .                   . . .

===================================================================

Guitar 2
A#-----------------------------------------------------------------|
F -----------------------------------------------------------------|
C#-----------------------------------------------------------------|
G#-7-----------------------5h7p5---5-------2h3p2---2---0-----------|
D#-----8-------------------------7---------------3-----------------|
G#---------0-0-0---0-0-0---------------0-------------------0-0-0---|
Pm         . . .   . . .               .                   . . .

===================================================================

Guitar 2
A#-----------------------------------------------------------------|
F -----------------------------------------------------------------|
C#-----------------------------------------------------------------|
G#-7---------------------------------------------------------------|
D#-----8-----------------------------------------------------------|
G#---------0-0-0---0-0-0---0---5---7---7---7---7---7---8---7-------|
Pm         . . .   . . .

===================================================================
===================================================================


Chorus

Guitar 2
A#-----------------------------------------------------------------|
F -10--10--10------------------------------------------------------|
C#-------------12--12--12--10--10--10------10------10----------10--|
G#-------------------------------------12------12------12--12------|
D#-----------------------------------------------------------------|
G#-----------------------------------------------------------------|

===================================================================

Guitar 2
A#---------------------10------------------------------------------|
F -11--11--11--10--10----------------------------------------------|
C#-------------------------12--12--12--12--12--12--12--12--12--12--|
G#-----------------------------------------------------------------|
D#-----------------------------------------------------------------|
G#-----------------------------------------------------------------|

===================================================================

Guitar 2
A#-----------------------------------------------------------------|
F -10--10--10------------------------------------------------------|
C#-------------12--12--12--10--10--10------10------10----------10--|
G#-------------------------------------12------12------12--12------|
D#-----------------------------------------------------------------|
G#-----------------------------------------------------------------|

===================================================================

Guitar 2
A#---------------------10--------------------------9---9---9---9---|
F -11--11--11--10--10----------------------------------------------|
C#-------------------------12--12--12--12--12--12------------------|
G#-----------------------------------------------------------------|
D#-----------------------------------------------------------------|
G#-----------------------------------------------------------------|

===================================================================

Guitar 2
A#-----------------------------------------------------------------|
F -10--10--10------------------------------------------------------|
C#-------------12--12--12--10--10--10------10------10----------10--|
G#-------------------------------------12------12------12--12------|
D#-----------------------------------------------------------------|
G#-----------------------------------------------------------------|

===================================================================

Guitar 2
A#---------------------10--------------------------12--13--12--13--|
F -11--11--11--10--10----------------------------------------------|
C#-------------------------12--12--12--12--12--12------------------|
G#-----------------------------------------------------------------|
D#-----------------------------------------------------------------|
G#-----------------------------------------------------------------|

===================================================================

Guitar 2
A#-----------------------------------------------------------------|
F -10--10--10------------------------------------------------------|
C#-------------12--12--12--10--10--10------10------10----------10--|
G#-------------------------------------12------12------12--12------|
D#-----------------------------------------------------------------|
G#-----------------------------------------------------------------|

===================================================================

Guitar 2
A#---------------------10--------------------------9---9---9---9---|
F -11--11--11--10--10----------------------------------------------|
C#-------------------------12--12--12--12--12--12------------------|
G#-----------------------------------------------------------------|
D#-----------------------------------------------------------------|
G#-----------------------------------------------------------------|

===================================================================
===================================================================


Bridge 1

Guitar 2
A#-10~~~~~~~~~~~~~~~~~~~~~~~~~~~~~~~~~~~~~~~~~~~~~~~~~~~~~~~~~~~~~-
F -----------------------------------------------------------------|
C#-----------------------------------------------------------------|
G#-----------------------------------------------------------------|
D#-----------------------------------------------------------------|
G#-----------------------------------------------------------------|

===================================================================

Guitar 2
A#-----------------------------------------------------------------|
F -----------------------------------------------------------------|
C#-----------------------------------------------------------------|
G#-----------------------------------------------------------------|
D#-----------------------------------------5---1---4-------5---8---|
G#-5*b~~~~-0---5*b~~~~-0---5---3---0---0---------------0-----------|
Pm         .           .               .               .

===================================================================

Guitar 2
A#-----------------------------------------------------------------|
F -----------------------------------------------------------------|
C#-----------------------------------------------------------------|
G#-----------------------------------------------------------------|
D#-----------------------------------------5---1---4---------------|
G#-5*b~~~~-0---5*b~~~~-0---5---3---0---0---------------0---5---3---|
Pm         .           .               .               .

===================================================================

Guitar 2
A#-----------------------------------------------------------------|
F -----------------------------------------------------------------|
C#-----------------------------------------------------------------|
G#-------------------------------------------------x-x-x-x-x---x---|
D#-----------------------------------------5---1---x-x-x-x-x---x---|
G#-5*b~~~~-0---5*b~~~~-0---5---3---0---0-----------x-x-x-x-x---x---|
Pm         .           .               .

===================================================================


Breakdown 1

Guitar 2
A#-----------------------------------------------------------------|
F -----------------------------------------------------------------|
C#-----------------------------------------------------------------|
G#-0-0-0---0---0-0-0---0---0-0-0---0---0-0-0---0---0-0-0---3---6---|
D#-0-0-0---0---0-0-0---0---0-0-0---0---0-0-0---0---0-0-0---3---6---|
G#-0-0-0---0---0-0-0---0---0-0-0---0---0-0-0---0---0-0-0---3---6---|
Pm . . .   .   . . .   .   . . .   .   . . .   .   . . .

===================================================================

Guitar 2
A#-----------------------------------------------------------------|
F -----------------------------------------------------------------|
C#-----------------------------------------------------------------|
G#-0-0-0---0---0-0-0---0---0-0-0---0-------------------------------|
D#-0-0-0---0---0-0-0---0---0-0-0---0-------------------------------|
G#-0-0-0---0---0-0-0---0---0-0-0---0---8---8---8---8b--7---7---7---|
Pm . . .   .   . . .   .   . . .   .

===================================================================

Guitar 2
A#-----------------------------------------------------------------|
F -----------------------------------------------------------------|
C#-----------------------------------------------------------------|
G#-0-0-0---0---0-0-0---0---0-0-0---0---0-0-0---0---3---6---6---3---|
D#-0-0-0---0---0-0-0---0---0-0-0---0---0-0-0---0---3---6---6---3---|
G#-0-0-0---0---0-0-0---0---0-0-0---0---0-0-0---0---3---6---6---3---|
Pm . . .   .   . . .   .   . . .   .   . . .   .

===================================================================

Guitar 2
A#-----------------------------------------------------------------|
F -----------------------------------------------------------------|
C#-----------------------------------------------------------------|
G#-0-0-0---0---0-0-0---0---0-0-0---0-------------------------------|
D#-0-0-0---0---0-0-0---0---0-0-0---0-------------------------------|
G#-0-0-0---0---0-0-0---0---0-0-0---0---8---8---8---8b--7---7---7---|
Pm . . .   .   . . .   .   . . .   .

===================================================================

Guitar 2
A#-----------------------------------------------------------------|
F -----------------------------------------------------------------|
C#-----------------------------------------------------------------|
G#-0-0-0---0---0-0-0---0---0-0-0---0---0-0-0---0---0-0-0---3---6---|
D#-0-0-0---0---0-0-0---0---0-0-0---0---0-0-0---0---0-0-0---3---6---|
G#-0-0-0---0---0-0-0---0---0-0-0---0---0-0-0---0---0-0-0---3---6---|
Pm . . .   .   . . .   .   . . .   .   . . .   .   . . .

===================================================================

Guitar 2
A#-----------------------------------------------------------------|
F -----------------------------------------------------------------|
C#-------------------------------------11--11--11--11b-10--10--10--|
G#-0-0-0---0---0-0-0---0---0-0-0---0-------------------------------|
D#-0-0-0---0---0-0-0---0---0-0-0---0-------------------------------|
G#-0-0-0---0---0-0-0---0---0-0-0---0-------------------------------|
Pm . . .   .   . . .   .   . . .   .

===================================================================

Guitar 2
A#-----------------------------------------------------------------|
F -----------------------------------------------------------------|
C#-----------------------------------------------------------------|
G#-0-0-0---0---0-0-0---0---0-0-0---0---0-0-0---0---3---6---6---3---|
D#-0-0-0---0---0-0-0---0---0-0-0---0---0-0-0---0---3---6---6---3---|
G#-0-0-0---0---0-0-0---0---0-0-0---0---0-0-0---0---3---6---6---3---|
Pm . . .   .   . . .   .   . . .   .   . . .   .

===================================================================

Guitar 2
A#-----------------------------------------------------------------|
F -----------------------------------------------------------------|
C#-------------------------------------11--11--11--11b-10--10--10--|
G#-0-0-0---0---0-0-0---0---0-0-0---0-------------------------------|
D#-0-0-0---0---0-0-0---0---0-0-0---0-------------------------------|
G#-0-0-0---0---0-0-0---0---0-0-0---0-------------------------------|
Pm . . .   .   . . .   .   . . .   .

===================================================================
===================================================================


Break Off


===================================================================
Rest
===================================================================


===================================================================
===================================================================


Verse 2

Guitar 2
A#-----------------------------------------------------------------|
F -----------------------------------------------------------------|
C#-----------------------------------------------------------------|
G#-------------------------------------------------5---7-----------|
D#---------5-------8-8-8-------------------3---5-----------8---7---|
G#-0---0-------0-----------0---2---3---0---------------------------|

===================================================================

Guitar 2
A#-----------------------------------------------------------------|
F -----------------------------------------------------------------|
C#-----------------------------------------------------------------|
G#-----7---7-------7---7---7-7-7-7-7---5---5-------7---5-----------|
D#-0-----------0-----------7-7-7-7-7-----------------------7---8---|
G#-------------------------7-7-7-7-7-----------5-------------------|
Pm                         . . . . .           .

===================================================================

Guitar 2
A#-----------------------------------------------------------------|
F -----------------------------------------------------------------|
C#-----------------------------------------------------------------|
G#-----------------------------------------------------------------|
D#---------5-------8-8-8-------------------3---5-------------------|
G#-0---0-------0-----------0---2---3---0-----------3---2---0---2---|

===================================================================

Guitar 2
A#-----------------------------------------------------------------|
F -----------------------------------------------------------------|
C#-----------------------------------------------------------------|
G#---------------------------------7-7-7-7-5-5-5-5-3-3-3-3-2-2-2-2-|
D#-5-5-5-5-5-5-7-7-7-7-7-7-8-8-8-8---------------------------------|
G#-----------------------------------------------------------------|

===================================================================
===================================================================


Chorus

Guitar 2
A#-----------------------------------------------------------------|
F -10--10--10------------------------------------------------------|
C#-------------12--12--12--10--10--10------10------10----------10--|
G#-------------------------------------12------12------12--12------|
D#-----------------------------------------------------------------|
G#-----------------------------------------------------------------|

===================================================================

Guitar 2
A#---------------------10------------------------------------------|
F -11--11--11--10--10----------------------------------------------|
C#-------------------------12--12--12--12--12--12--12--12--12--12--|
G#-----------------------------------------------------------------|
D#-----------------------------------------------------------------|
G#-----------------------------------------------------------------|

===================================================================

Guitar 2
A#-----------------------------------------------------------------|
F -10--10--10------------------------------------------------------|
C#-------------12--12--12--10--10--10------10------10----------10--|
G#-------------------------------------12------12------12--12------|
D#-----------------------------------------------------------------|
G#-----------------------------------------------------------------|

===================================================================

Guitar 2
A#---------------------10--------------------------9---9---9---9---|
F -11--11--11--10--10----------------------------------------------|
C#-------------------------12--12--12--12--12--12------------------|
G#-----------------------------------------------------------------|
D#-----------------------------------------------------------------|
G#-----------------------------------------------------------------|

===================================================================

Guitar 2
A#-----------------------------------------------------------------|
F -10--10--10------------------------------------------------------|
C#-------------12--12--12--10--10--10------10------10----------10--|
G#-------------------------------------12------12------12--12------|
D#-----------------------------------------------------------------|
G#-----------------------------------------------------------------|

===================================================================

Guitar 2
A#---------------------10--------------------------12--13--12--13--|
F -11--11--11--10--10----------------------------------------------|
C#-------------------------12--12--12--12--12--12------------------|
G#-----------------------------------------------------------------|
D#-----------------------------------------------------------------|
G#-----------------------------------------------------------------|

===================================================================

Guitar 2
A#-----------------------------------------------------------------|
F -10--10--10------------------------------------------------------|
C#-------------12--12--12--10--10--10------10------10----------10--|
G#-------------------------------------12------12------12--12------|
D#-----------------------------------------------------------------|
G#-----------------------------------------------------------------|

===================================================================

Guitar 2
A#---------------------10--------------------------9---9---9---9---|
F -11--11--11--10--10----------------------------------------------|
C#-------------------------12--12--12--12--12--12------------------|
G#-----------------------------------------------------------------|
D#-----------------------------------------------------------------|
G#-----------------------------------------------------------------|

===================================================================
===================================================================


Bridge 2

Guitar 2
A#-10~~~~~~~~~~~~~~~~~~~~~~~~~~~~~~~~~~~~~~~~~~~~~~~~~~~~~~~~~~~~~-
F -----------------------------------------------------------------|
C#-----------------------------------------------------------------|
G#-----------------------------------------------------------------|
D#-----------------------------------------------------------------|
G#-----------------------------------------------------------------|

===================================================================

Guitar 2
A#-----------------------------------------------------------------|
F -11----------8-------5-------6-----------------------------------|
C#-----------------------------------------------------------------|
G#--h12---------h8------h5------h8-----------------3h5p3p0---------|
D#---------------------------------------------------------3h5p3p0-|
G#-----0---0-------0-------0-------0---0---0---0-------------------|
Pm     .   .       .       .       .   .   .   .

===================================================================

Guitar 2
A#-----------------------------------------------------------------|
F -11----------8-----------10-----------5-----------6-------3------|
C#-----------------------------------------------------------------|
G#--h12---------h8----------h10----------h5----------h8------h5----|
D#-----------------------------------------------------------------|
G#-----0---0-------0---0--------0---0-------0---0-------0------0---|
Pm     .   .       .   .        .   .       .   .       .      .

===================================================================

Guitar 2
A#-----------------------------------------------------------------|
F -11----------8-------5-------3-----------------------------------|
C#-----------------------------------------------------------------|
G#--h12---------h8-------------------------------------------------|
D#-----------------------------------------------------------------|
G#-----0---0-------0-------0---------------------------------------|
Pm     .   .       .       .

===================================================================
===================================================================


Breakdown 2

Guitar 2
A#-----------------------------------------------------------------|
F -----------------------------------------------------------------|
C#-7-------7-------7-------7-------7-------7-----------------------|
G#-7---0---7---0---7---0---7---0---7---0---7---0---0-0-0-0-0-0-0-0-|
D#-5---0---5---0---5---0---5---0---5---0---5---0---0-0-0-0-0-0-0-0-|
G#-----0-------0-------0-------0-------0-------0---0-0-0-0-0-0-0-0-|
Pm     .       .       .       .       .       .   . . . . . . . .

===================================================================

Guitar 2
A#-----------------------------------------------------------------|
F -----------------------------------------------------------------|
C#-7-------7-------7-------7---------------------------------------|
G#-7---0---7---0---7---0---7---0-----------------------------------|
D#-5---0---5---0---5---0---5---0-----------------------------------|
G#-----0-------0-------0-------0---8---8---8---7---7---7---3---3---|
Pm     .       .       .       .

===================================================================

Guitar 2
A#-----------------------------------------------------------------|
F -----------------------------------------------------------------|
C#-7-------7-------7-------7-------7-------7-----------------------|
G#-7---0---7---0---7---0---7---0---7---0---7---0---0-0-0-0-0-0-0-0-|
D#-5---0---5---0---5---0---5---0---5---0---5---0---0-0-0-0-0-0-0-0-|
G#-----0-------0-------0-------0-------0-------0---0-0-0-0-0-0-0-0-|
Pm     .       .       .       .       .       .   . . . . . . . .

===================================================================

Guitar 2
A#-----------------------------------------------------------------|
F -----------------------------------------------------------------|
C#-7-------7-------7-------7---------------------------------------|
G#-7---0---7---0---7---0---7---0-----------------------------------|
D#-5---0---5---0---5---0---5---0-----------------------------------|
G#-----0-------0-------0-------0---7---7---7---3---3---3---5---5---|
Pm     .       .       .       .

===================================================================

Guitar 2
A#-----------------------------------------------------------------|
F -----------------------------------------------------------------|
C#-7-------7-------7-------7-------7-------7-----------------------|
G#-7---0---7---0---7---0---7---0---7---0---7---0---0-0-0-0-0-0-0-0-|
D#-5---0---5---0---5---0---5---0---5---0---5---0---0-0-0-0-0-0-0-0-|
G#-----0-------0-------0-------0-------0-------0---0-0-0-0-0-0-0-0-|
Pm     .       .       .       .       .       .   . . . . . . . .

===================================================================

Guitar 2
A#-----------------------------------------------------------------|
F -----------------------------------------------------------------|
C#-7-------7-------7-------7---------------------------------------|
G#-7---0---7---0---7---0---7---0-----------------------------------|
D#-5---0---5---0---5---0---5---0-----------------------------------|
G#-----0-------0-------0-------0---8---8---8---7---7---7---3---3---|
Pm     .       .       .       .

===================================================================

Guitar 2
A#-----------------------------------------------------------------|
F -----------------------------------------------------------------|
C#-7-------7-------7-------7-------7-------7-----------------------|
G#-7---0---7---0---7---0---7---0---7---0---7---0---0-0-0-0-0-0-0-0-|
D#-5---0---5---0---5---0---5---0---5---0---5---0---0-0-0-0-0-0-0-0-|
G#-----0-------0-------0-------0-------0-------0---0-0-0-0-0-0-0-0-|
Pm     .       .       .       .       .       .   . . . . . . . .

===================================================================

Guitar 2
A#----------------------------------------------------------------------|
F ----------------------------------------------------------------------|
C#-7-------7-------7----------------------------------------------------|
G#-7---0---7---0---7---0---0--3--5--5--3--0--7--5--0--8--7--0--5--3--0--|
D#-5---0---5---0---5---0---0--3--5--5--3--0--7--5--0--8--7--0--5--3--0--|
G#-----0-------0-------0---0--3--5--5--3--0--7--5--0--8--7--0--5--3--0--|
Pm     .       .       .   .  .  .  .  .  .  .  .  .  .  .  .  .  .  .

===================================================================
===================================================================


Bridge 3

Guitar 2
A#-----------------------------------------------------------------|
F -10--10--11------10--10--10--10--11------10--10--10--10--10--10--|
C#-------------12----------------------12--------------------------|
G#-----------------------------------------------------------------|
D#-----------------------------------------------------------------|
G#-----------------------------------------------------------------|

===================================================================

Guitar 2
A#-----------------------------------------------------------------|
F -10--10--11------10--10--10--10----------------------------------|
C#-------------12--------------------------------------------------|
G#---------------------------------ps\~~~~~~~~~~~~~~~~~~~~~~~~~~~~-|
D#---------------------------------ps\~~~~~~~~~~~~~~~~~~~~~~~~~~~~-|
G#---------------------------------ps\~~~~~~~~~~~~~~~~~~~~~~~~~~~~-|

===================================================================
===================================================================


Chorus

Guitar 2
A#-----------------------------------------------------------------|
F -10--10--10------------------------------------------------------|
C#-------------12--12--12--10--10--10------10------10----------10--|
G#-------------------------------------12------12------12--12------|
D#-----------------------------------------------------------------|
G#-----------------------------------------------------------------|

===================================================================

Guitar 2
A#---------------------10------------------------------------------|
F -11--11--11--10--10----------------------------------------------|
C#-------------------------12--12--12--12--12--12--12--12--12--12--|
G#-----------------------------------------------------------------|
D#-----------------------------------------------------------------|
G#-----------------------------------------------------------------|

===================================================================

Guitar 2
A#-----------------------------------------------------------------|
F -10--10--10------------------------------------------------------|
C#-------------12--12--12--10--10--10------10------10----------10--|
G#-------------------------------------12------12------12--12------|
D#-----------------------------------------------------------------|
G#-----------------------------------------------------------------|

===================================================================

Guitar 2
A#---------------------10--------------------------9---9---9---9---|
F -11--11--11--10--10----------------------------------------------|
C#-------------------------12--12--12--12--12--12------------------|
G#-----------------------------------------------------------------|
D#-----------------------------------------------------------------|
G#-----------------------------------------------------------------|

===================================================================

Guitar 2
A#-----------------------------------------------------------------|
F -10--10--10------------------------------------------------------|
C#-------------12--12--12--10--10--10------10------10----------10--|
G#-------------------------------------12------12------12--12------|
D#-----------------------------------------------------------------|
G#-----------------------------------------------------------------|

===================================================================

Guitar 2
A#---------------------10--------------------------12--13--12--13--|
F -11--11--11--10--10----------------------------------------------|
C#-------------------------12--12--12--12--12--12------------------|
G#-----------------------------------------------------------------|
D#-----------------------------------------------------------------|
G#-----------------------------------------------------------------|

===================================================================

Guitar 2
A#-----------------------------------------------------------------|
F -10--10--10------------------------------------------------------|
C#-------------12--12--12--10--10--10------10------10----------10--|
G#-------------------------------------12------12------12--12------|
D#-----------------------------------------------------------------|
G#-----------------------------------------------------------------|

===================================================================

Guitar 2
A#---------------------10--------------------------9---9---9---9---|
F -11--11--11--10--10----------------------------------------------|
C#-------------------------12--12--12--12--12--12------------------|
G#-----------------------------------------------------------------|
D#-----------------------------------------------------------------|
G#-----------------------------------------------------------------|

===================================================================
===================================================================


Bridge 1

Guitar 2
A#-10~~~~~~~~~~~~~~~~~~~~~~~~~~~~~~~~~~~~~~~~~~~~~~~~~~~~~~~~~~~~~-
F -----------------------------------------------------------------|
C#-----------------------------------------------------------------|
G#-----------------------------------------------------------------|
D#-----------------------------------------------------------------|
G#-----------------------------------------------------------------|

===================================================================

Guitar 2
A#-----------------------------------------------------------------|
F -----------------------------------------------------------------|
C#-----------------------------------------------------------------|
G#-----------------------------------------------------------------|
D#-----------------------------------------5---1---4---4---4-4-4-4-|
G#-5*b~~~~-0---5*b~~~~-0---5---3---0---0---------------------------|
Pm         .           .               .

===================================================================

Guitar 2
A#-----------------------------------------------------------------|
F -----------------------------------------------------------------|
C#-----------------------------------------------------------------|
G#-----------------------------------------------------------------|
D#-----------------------------------------5---1---4---4---4-4-4-4-|
G#-5*b~~~~-0---5*b~~~~-0---5---3---0---0---------------------------|
Pm         .           .               .

===================================================================
===================================================================


Outro

Guitar 2 (x3)
A#-----------------------------------------------------------------|
F -----------------------------------------------------------------|
C#-----------------------------------------------------------------|
G#-0-0-0-------0-0-0-------0-0-0-------0-0-0-------0-0---0-0---0-0-|
D#-0-0-0-------0-0-0-------0-0-0-------0-0-0-------0-0---0-0---0-0-|
G#-0-0-0-------0-0-0-------0-0-0-------0-0-0-------0-0---0-0---0-0-|
Pm . . .       . . .       . . .       . . .       . .   . .   . .

===================================================================

Guitar 2
A#-----------------------------------------------------------------|
F -----------------------------------------------------------------|
C#-----------------------------------------------------------------|
G#-0-0-0-------0-0-0-------0-0-0-------0-0-0-------0-0-0---0-0-0-0-|
D#-0-0-0-------0-0-0-------0-0-0-------0-0-0-------0-0-0---0-0-0-0-|
G#-0-0-0-------0-0-0-------0-0-0-------0-0-0-------0-0-0---0-0-0-0-|
Pm . . .       . . .       . . .       . . .       . . .   . . . .

===================================================================

Guitar 2
A#-----------------------------------------------------------------|
F -----------------------------------------------------------------|
C#-----------------------------------------------------------------|
G#-0---------------------------------------------------------------|
D#-0---------------------------------------------------------------|
G#-0---------------------------------------------------------------|
Pm .

===================================================================
===================================================================
===================================================================


----------------------------------------------------------------------------
                          Red in Tooth & Claw
                           Memphis May Fire
----------------------------------------------------------------------------

Memphis May Fire’s “Challenger” has got to be one of the best, if not the best, album of
2012. Songs like Red in Tooth & Claw are so sophisticated in its musical stanza that it
makes it appear like it is a different genre of rock/metal. With such heart pumping 
lyrics, creative guitar riffs, and impeccable beats offered by the drums and bass, it is hard
not to fall in love with it. Enjoy!

Guitar 1 Rhythmic (G# D# G# C# F  A#)
Guitar 2 Lead     (G# D# G# C# F  A#)


===================================================================
Guitar 1
===================================================================


Intro

(x2)

Guitar 1
A#-----------------------------------------------------------------|
F -------------------------------10-10-10-------8-8-8--------------|
C#-----------------------------------------------------------------|
G#-----------------------------0----------0-0-0--------0---5~~~~~~-|
D#---------------------3-5-3---0----------0-0-0--------0-----------|
G#-0~~~~~~-5-7-5---3-----------0----------0-0-0--------0-----------|
Pm                             .          . . .        .

===================================================================

Guitar 1
A#-----------------------------------------------------------------|
F -------------------------------10-10-10-------8-8-8--------------|
C#-----------------------------------------------------------------|
G#-----------------------------0----------0-0-0--------------------|
D#---------------------3~b~r~~-0----------0-0-0--------8---7-------|
G#-0~~~~~~-5-7-5---3-----------0----------0-0-0----------------10--|
Pm                             .          . . .

===================================================================

Guitar 1
A#-----------------------------------------------------------------|
F -----------------------------------------------------------------|
C#-----------------------------------------------------------------|
G#-8~~~~-8~~~~-8~~~~-8-7---8~~~~-8~~~~-8-8-8---8-8-10--10-10-12~~~-|
D#-8~~~~-8~~~~-8~~~~-8-7---8~~~~-8~~~~-8-8-8---8-8-10--10-10-12~~~-|
G#-8~~~~-8~~~~-8~~~~-8-7---8~~~~-8~~~~-8-8-8---8-8-10--10-10-12~~~-|
Pm                   .                 . .     . .     .  .

===================================================================

Guitar 1
A#-----------------------------------------------------------------|
F -----------------------------------------------------------------|
C#-----------------------------------------------------------------|
G#-8~~~~-8~~~~-8~~~~-8-7---8---8-8---------------------------------|
D#-8~~~~-8~~~~-8~~~~-8-7---8---8-8---------------------------------|
G#-8~~~~-8~~~~-8~~~~-8-7---8---8-8-7---7---7---7---7---5---2---3---|
Pm                   .         . .

===================================================================
===================================================================


Verse 1

Guitar 1
A#-----------------------------------------------------------------|
F -----------------------------------------------------------------|
C#-----------------------------------------------------------------|
G#-0-------------------0---------------0---------------------------|
D#-0-------------------0---------------0---------------------------|
G#-0-------------------0---------------0-----------3-3-3-3-3---5---|

===================================================================

Guitar 1
A#-----------------------------------------------------------------|
F -----------------------------------------------------------------|
C#-----------------------------------------------------------------|
G#-0-------------------0---------------0---------------------------|
D#-0-------------------0---------------0---------------------------|
G#-0-------------------0---------------0-------10-10-10-10-10--12--|

===================================================================

Guitar 1
A#-----------------------------------------------------------------|
F -----------------------------------------------------------------|
C#-----------------------------------------------------------------|
G#-0-------------------0---------------0---------------------------|
D#-0-------------------0---------------0---------------------------|
G#-0-------------------0---------------0-----------3-3-3-3-3---5---|

===================================================================

Guitar 1
A#-----------------------------------------------------------------|
F -----------------------------------------------------------------|
C#-----------------------------------------------------------------|
G#-0-------------------0---------------0---------------------------|
D#-0-------------------0---------------0---------------------------|
G#-0-------------------0---------------0-----------8-8-8-8-8---5---|

===================================================================

Guitar 1
A#-----------------------------------------------------------------|
F -----------------------------------------------------------------|
C#-----------------------------------------------------------------|
G#-0-------------------0---------------0---------------------------|
D#-0-------------------0---------------0---------------------------|
G#-0-------------------0---------------0-----------3-3-3-3-3---5---|

===================================================================

Guitar 1
A#-----------------------------------------------------------------|
F -----------------------------------------------------------------|
C#-----------------------------------------------------------------|
G#-0-------------------0---------------0---------------------------|
D#-0-------------------0---------------0---------------------------|
G#-0-------------------0---------------0-------10-10-10-10-10--12--|

===================================================================

Guitar 1
A#-----------------------------------------------------------------|
F -----------------------------------------------------------------|
C#-----------------------------------------------------------------|
G#-0-------------------0---------------0---------------------------|
D#-0-------------------0---------------0---------------------------|
G#-0-------------------0---------------0-----------3-3-3-3-3---5---|

===================================================================

Guitar 1
A#-----------------------------------------------------------------|
F -----------------------------------------------------------------|
C#-----------------------------------------------------------------|
G#-0-------------------0---------------0---------------------------|
D#-0-------------------0---------------0---------------------------|
G#-0-------------------0---------------0-------10-10-10-10-10--12--|

===================================================================
===================================================================


Pre Chorus 1

Guitar 1
A#-----------------------------------------------------------------|
F -----------------------------------------------------------------|
C#-----------------------------------------------------------------|
G#-8~~~~-8~~~~-8~~~~-8-8---8~~~~-8~~~~-8~~~~-8~~~~-8---8-8-10~~~~~-|
D#-8~~~~-8~~~~-8~~~~-8-8---8~~~~-8~~~~-8~~~~-8~~~~-8---8-8-10~~~~~-|
G#-8~~~~-8~~~~-8~~~~-8-8---8~~~~-8~~~~-8~~~~-8~~~~-8---8-8-10~~~~~-|
Pm                   .                                 . .

===================================================================

Guitar 1
A#-----------------------------------------------------------------|
F -----------------------------------------------------------------|
C#-----------------------------------------------------------------|
G#-8~~~~-8~~~~-8~~~~-8-3~~~~-5---7---7\----------------------------|
D#-8~~~~-8~~~~-8~~~~-8-3~~~~-5---7---7\----------------------------|
G#-8~~~~-8~~~~-8~~~~-8-3~~~~-5---7---7\----------------------------|
Pm                   .

===================================================================
===================================================================


Chorus 1

Guitar 1
A#-----------------------------------------------------------------|
F -----------------------------------------------------------------|
C#-----------------------------------------------------------------|
G#-0---0---0---0---0---0---0---0---3---3---3---3---3---3---3---3---|
D#-0---0---0---0---0---0---0---0---3---3---3---3---3---3---3---3---|
G#-0---0---0---0---0---0---0---0---3---3---3---3---3---3---3---3---|

===================================================================

Guitar 1
A#-----------------------------------------------------------------|
F -----------------------------------------------------------------|
C#-5---5---5---5---5---5---5---5---5---5---5---5---5---5-----------|
G#-5---5---5---5---5---5---5---5---5---5---5---5---5---5---3-5-3-0-|
D#-3---3---3---3---3---3---3---3---3---3---3---3---3---3-----------|
G#-----------------------------------------------------------------|

===================================================================

Guitar 1
A#-----------------------------------------------------------------|
F -----------------------------------------------------------------|
C#-----------------------------------------------------------------|
G#-0---0---0---0---0---0---0---0---3---3---3---3---3---3---3---3---|
D#-0---0---0---0---0---0---0---0---3---3---3---3---3---3---3---3---|
G#-0---0---0---0---0---0---0---0---3---3---3---3---3---3---3---3---|

===================================================================

Guitar 1
A#-----------------------------------------------------------------|
F -----------------------------------------------------------------|
C#-5---5---5---5---5---5---5---5---5---5---5---5---5---5-----------|
G#-5---5---5---5---5---5---5---5---5---5---5---5---5---5---3-5-3-0-|
D#-3---3---3---3---3---3---3---3---3---3---3---3---3---3-----------|
G#-----------------------------------------------------------------|

===================================================================

Guitar 1
A#-----------------------------------------------------------------|
F -----------------------------------------------------------------|
C#-----------------------------------------------------------------|
G#-5---5---5---5---5---5---5---5---0---0---0---0---0---0---0---0---|
D#-5---5---5---5---5---5---5---5---0---0---0---0---0---0---0---0---|
G#-5---5---5---5---5---5---5---5---0---0---0---0---0---0---0---0---|

===================================================================

Guitar 1
A#-----------------------------------------------------------------|
F -----------------------------------------------------------------|
C#---------------------------------5---5---5---5---5---5---5---5---|
G#-3---3---3---3---3---3---3---3---5---5---5---5---5---5---5---5---|
D#-3---3---3---3---3---3---3---3---3---3---3---3---3---3---3---3---|
G#-3---3---3---3---3---3---3---3-----------------------------------|

===================================================================

Guitar 1
A#-----------------------------------------------------------------|
F -----------------------------------------------------------------|
C#-----------------------------------------------------------------|
G#-7~~~~-7-7~~~~-7-7-7-7~~~~-7-7-7-7~~~~-7-7~~~~-7-7\~~~-----------|
D#-7~~~~-7-7~~~~-7-7-7-7~~~~-7-7-7-7~~~~-7-7~~~~-7-7\~~~-----------|
G#-7~~~~-7-7~~~~-7-7-7-7~~~~-7-7-7-7~~~~-7-7~~~~-7-7\~~~-----------|

===================================================================
===================================================================


Guitar Solo

Guitar 1
A#-----------------------------------------------------------------|
F -------------------------------10-10-10-------8-8-8--------------|
C#-----------------------------------------------------------------|
G#-----------------------------0----------0-0-0--------0---5~~~~~~-|
D#---------------------3-5-3---0----------0-0-0--------0-----------|
G#-0~~~~~~-5-7-5---3-----------0----------0-0-0--------0-----------|
Pm                             .          . . .        .

===================================================================

Guitar 1
A#-----------------------------------------------------------------|
F -------------------------------10-10-10-------8-8-8--------------|
C#-----------------------------------------------------------------|
G#-----------------------------0----------0-0-0--------------------|
D#---------------------3~b~r~~-0----------0-0-0--------8---7-------|
G#-0~~~~~~-5-7-5---3-----------0----------0-0-0----------------10--|
Pm                             .          . . .

===================================================================

Guitar 1
A#-----------------------------------------------------------------|
F -----------------------------------------------------------------|
C#-----------------------------------------------------------------|
G#-8~~~~-8~~~~-8~~~~-8-7---8~~~~-8~~~~-8-8-8---8-8-10--10-10-12~~~-|
D#-8~~~~-8~~~~-8~~~~-8-7---8~~~~-8~~~~-8-8-8---8-8-10--10-10-12~~~-|
G#-8~~~~-8~~~~-8~~~~-8-7---8~~~~-8~~~~-8-8-8---8-8-10--10-10-12~~~-|
Pm                   .                 . .     . .     .  .

===================================================================

Guitar 1
A#-----------------------------------------------------------------|
F -----------------------------------------------------------------|
C#-----------------------------------------------------------------|
G#-8~~~~-8~~~~-8~~~~-8-7---8---8-8---------------------------------|
D#-8~~~~-8~~~~-8~~~~-8-7---8---8-8---------------------------------|
G#-8~~~~-8~~~~-8~~~~-8-7---8---8-8-7---7---7---7---7---5---2---3---|
Pm                   .         . .

===================================================================
===================================================================


Verse 2

(x2)

Guitar 1
A#-----------------------------------------------------------------|
F -----------------------------------------------------------------|
C#-----------------------------------------------------------------|
G#-0-------------------0---------------0---------------------------|
D#-0-------------------0---------------0---------------------------|
G#-0-------------------0---------------0-----------3-3-3-3-3---5---|

===================================================================

Guitar 1
A#-----------------------------------------------------------------|
F -----------------------------------------------------------------|
C#-----------------------------------------------------------------|
G#-0-------------------0---------------0---------------------------|
D#-0-------------------0---------------0---------------------------|
G#-0-------------------0---------------0-------10-10-10-10-10--12--|

===================================================================
===================================================================


Bridge

Guitar 1 (x3)
A#-----------------------------------------------------------------|
F -----------------------------------------------------------------|
C#-----------------------------------------------------------------|
G#-----------------------------------------------------------------|
D#-------------------------------------9b~~~-----------------------|
G#-3~b~r-0~~~~-7~~~~-6~~~~-3~b~r-0~~~~-------10~~~-8-8-8-8-8---7---|
Pm                                                 . . . .

===================================================================

Guitar 1
A#-----------------------------------------------------------------|
F -----------------------------------------------------------------|
C#-----------------------------------------------------------------|
G#-------------------------------------------------x-x-x-x-x-------|
D#-------------------------------------9b~~~-------x-x-x-x-x-------|
G#-3~b~r-0~~~~-7~~~~-6~~~~-3~b~r-0~~~~-------10~~~-x-x-x-x-x-------|
Pm

===================================================================
===================================================================


Breakdown 1

Guitar 1
A#-----------------------------------------------------------------|
F -----------------------------------------------------------------|
C#-----------------------------------------------------------------|
G#-0-----0-----0-----0---------------0---0-0-------0-0---0-0-------|
D#-0-----0-----0-----0---------------0---0-0-------0-0---0-0-------|
G#-0-----0-----0-----0---------------0---0-0-------0-0---0-0-------|
Pm                                   .   . .       . .   . .

===================================================================

Guitar 1
A#-----------------------------------------------------------------|
F -----------------------------------------------------------------|
C#-----------------------------------------------------------------|
G#-3~~~~-5~~~~-0-0-0-0---------------0---0-0-----------------------|
D#-3~~~~-5~~~~-0-0-0-0---------------0---0-0-------1---1---0-1-0---|
G#-3~~~~-5~~~~-0-0-0-0---------------0---0-0---------------------3-|
Pm             . .                   .   . .

===================================================================

Guitar 1
A#-----------------------------------------------------------------|
F -----------------------------------------------------------------|
C#-----------------------------------------------------------------|
G#-0-----0-----0-----0---------------0---0-0-------0-0---0-0-------|
D#-0-----0-----0-----0---------------0---0-0-------0-0---0-0-------|
G#-0-----0-----0-----0---------------0---0-0-------0-0---0-0-------|
Pm                                   .   . .       . .   . .

===================================================================

Guitar 1
A#-----------------------------------------------------------------|
F -----------------------------------------------------------------|
C#-----------------------------------------------------------------|
G#-5~~~----------3---5---7---7\------------------------------------|
D#-5~~~----------3---5---7---7\------------------------------------|
G#-5~~~----------3---5---7---7\------------------------------------|

===================================================================
===================================================================


Chorus 2

Guitar 1
A#-----------------------------------------------------------------|
F -----------------------------------------------------------------|
C#-----------------------------------------------------------------|
G#-0---0---0---0---0---0---0---0---3---3---3---3---3---3---3---3---|
D#-0---0---0---0---0---0---0---0---3---3---3---3---3---3---3---3---|
G#-0---0---0---0---0---0---0---0---3---3---3---3---3---3---3---3---|

===================================================================

Guitar 1
A#-----------------------------------------------------------------|
F -----------------------------------------------------------------|
C#-5---5---5---5---5---5---5---5---5---5---5---5---5---5-----------|
G#-5---5---5---5---5---5---5---5---5---5---5---5---5---5---3-5-3-0-|
D#-3---3---3---3---3---3---3---3---3---3---3---3---3---3-----------|
G#-----------------------------------------------------------------|

===================================================================

Guitar 1
A#-----------------------------------------------------------------|
F -----------------------------------------------------------------|
C#-----------------------------------------------------------------|
G#-0---0---0---0---0---0---0---0---3---3---3---3---3---3---3---3---|
D#-0---0---0---0---0---0---0---0---3---3---3---3---3---3---3---3---|
G#-0---0---0---0---0---0---0---0---3---3---3---3---3---3---3---3---|

===================================================================

Guitar 1
A#-----------------------------------------------------------------|
F -----------------------------------------------------------------|
C#-5---5---5---5---5---5---5---5---5---5---5---5---5---5-----------|
G#-5---5---5---5---5---5---5---5---5---5---5---5---5---5---3-5-3-0-|
D#-3---3---3---3---3---3---3---3---3---3---3---3---3---3-----------|
G#-----------------------------------------------------------------|

===================================================================

Guitar 1
A#-----------------------------------------------------------------|
F -----------------------------------------------------------------|
C#-----------------------------------------------------------------|
G#-5---5---5---5---5---5---5---5---0---0---0---0---0---0---0---0---|
D#-5---5---5---5---5---5---5---5---0---0---0---0---0---0---0---0---|
G#-5---5---5---5---5---5---5---5---0---0---0---0---0---0---0---0---|

===================================================================

Guitar 1
A#-----------------------------------------------------------------|
F -----------------------------------------------------------------|
C#---------------------------------5---5---5---5---5---5---5---5---|
G#-3---3---3---3---3---3---3---3---5---5---5---5---5---5---5---5---|
D#-3---3---3---3---3---3---3---3---3---3---3---3---3---3---3---3---|
G#-3---3---3---3---3---3---3---3-----------------------------------|

===================================================================

Guitar 1
A#-----------------------------------------------------------------|
F -----------------------------------------------------------------|
C#-----------------------------------------------------------------|
G#-7~~~~-7-7~~~~-7-7-7-7~~~~-7-7-7-7~~~~-7-7~~~~-7-7-7-7~~-7-7-7-7-|
D#-7~~~~-7-7~~~~-7-7-7-7~~~~-7-7-7-7~~~~-7-7~~~~-7-7-7-7~~-7-7-7-7-|
G#-7~~~~-7-7~~~~-7-7-7-7~~~~-7-7-7-7~~~~-7-7~~~~-7-7-7-7~~-7-7-7-7-|

===================================================================

Guitar 1
A#-----------------------------------------------------------------|
F -10~~~-10-10~~-10-10-10-10~~-10-10~-10~~-------------------------|
C#-9~~~~-9--9~~~-9--9--9--9~~~-9--9~~-9~~~-------------------------|
G#-7~~~~-7--7~~~-7--7--7--7~~~-7--7~~-7~~~-------------------------|
D#-7~~~~-7--7~~~-7--7--7--7~~~-7--7~~-7~~~-------------------------|
G#-7~~~~-7--7~~~-7--7--7--7~~~-7--7~~-7~~~-11-11-11-11-11-11-11-11-|

===================================================================
===================================================================


Interlude

Guitar 1
A#--------------------------------------------------------------------|
F --------------------------------------------------------------------|
C#--------------------------------------------------------------------|
G#--------------------------------------------------------------------|
D#--------------------------------------------------------------------|
G#-3p0---7p0---3p0-8p0---7p0---3p0-10p0--8p0---3p0-12p0-10p0-8-10-8-7-|

===================================================================

Guitar 1
A#-----------------------------------------------------------------------|
F -----------------------------------------------------------------------|
C#-----------------------------------------------------------------------|
G#-----------------------------------------------------------------------|
D#-----------------------------------------------------------------------|
G#-3p0---7p0---3p0-8p0---7p0---3p0-10p0--8p0---3p0-12p0-10p0-11-11-11-11-|

===================================================================

Guitar 1
A#--------------------------------------------------------------------|
F --------------------------------------------------------------------|
C#--------------------------------------------------------------------|
G#--------------------------------------------------------------------|
D#--------------------------------------------------------------------|
G#-3p0---7p0---3p0-8p0---7p0---3p0-10p0--8p0---3p0-12p0-10p0-8-10-8-7-|

===================================================================

Guitar 1
A#-------------------------------------------------------------------|
F -------------------------------------------------------------------|
C#-------------------------------------------------------------------|
G#-----------------------------------------------------------x-x-x-x-|
D#-----------------------------------------------------------x-x-x-x-|
G#-3p0---7p0---3p0-8p0---7p0---3p0-10p0--8p0---3p0-12p0-10p0-x-x-x-x-|

===================================================================
===================================================================


Breakdown 2

Guitar 1
A#-----------------------------------------------------------------|
F -----------------------------------------------------------------|
C#-----------------------------------------------------------------|
G#-0---0-------0---0-------0-0-0-0-0---0-------0-------0---0-------|
D#-0---0-------0---0-------0-0-0-0-0---0-------0-------0---0-------|
G#-0---0-------0---0-------0-0-0-0-0---0-------0-------0---0-------|
Pm .   .       .   .       . . . . .   .       .       .   .

===================================================================

Guitar 1
A#-----------------------------------------------------------------|
F -----------------------------------------------------------------|
C#-----------------------------------------------------------------|
G#-----0-------0-------0---0-------0---0---0-------0-0-0-0-0-------|
D#-----0-------0-------0---0-------0---0---0-------0-0-0-0-0-------|
G#-----0-------0-------0---0-------0---0---0-------0-0-0-0-0-------|
Pm     .       .       .   .       .   .   .       . . . . .

===================================================================

Guitar 1
A#-----------------------------------------------------------------|
F -----------------------------------------------------------------|
C#-----------------------------------------------------------------|
G#-0-0-0---0---0-0-0---0---0---0---0---0-----------0-0-0-0-0-------|
D#-0-0-0---0---0-0-0---0---0---0---0---0-----------0-0-0-0-0-------|
G#-0-0-0---0---0-0-0---0---0---0---0---0-----------0-0-0-0-0-------|
Pm . . .   .   . . .   .   .   .   .   .           . . . . .

===================================================================

Guitar 1
A#-----------------------------------------------------------------|
F -----------------15~~~~~-----------------------------------------|
C#-----------------------------------------------------------------|
G#-------------0---------------------------------------------------|
D#-------------0---------------------------------------------------|
G#-------------0-----------0~~~~~~-5---5---7---7---5---5---3---3---|
Pm             .                   .   .   .   .   .   .   .   .

===================================================================

Guitar 1
A#-----------------------------------------------------------------|
F -----------------------------------------------------------------|
C#-----------------------------------------------------------------|
G#-0---0-------0---0-------0-0-0-0-0---0-------0-------0---0-------|
D#-0---0-------0---0-------0-0-0-0-0---0-------0-------0---0-------|
G#-0---0-------0---0-------0-0-0-0-0---0-------0-------0---0-------|
Pm .   .       .   .       . . . . .   .       .       .   .

===================================================================

Guitar 1
A#-----------------------------------------------------------------|
F -----------------------------------------------------------------|
C#-----------------------------------------------------------------|
G#-----0---------------0---0-------0---0---0-------0-0-0-0-0-------|
D#-----0---------------0---0-------0---0---0-------0-0-0-0-0-------|
G#-----0---------------0---0-------0---0---0-------0-0-0-0-0-------|
Pm     .               .   .       .   .   .       . . . . .

===================================================================

Guitar 1
A#-----------------------------------------------------------------|
F -----------------------------------------------------------------|
C#-----------------------------------------------------------------|
G#-0---0---0---0---0---0---0---0---0---0-----------x---x---x---x---|
D#-0---0---0---0---0---0---0---0---0---0-----------x---x---x---x---|
G#-0---0---0---0---0---0---0---0---0---0-----------x---x---x---x---|
Pm .   .   .   .   .   .   .   .   .   .

===================================================================

Guitar 1
A#-----------------------------------------------------------------|
F -----------------------------------------------------------------|
C#-----------------------------------------------------------------|
G#-5---7~~~~~~-7---5~~~~~~-3~~~~~~-5~~~~~~-5~~~~~~-3~~~~~~-2~~~~~~-|
D#-5---7~~~~~~-7---5~~~~~~-3~~~~~~-5~~~~~~-5~~~~~~-3~~~~~~-2~~~~~~-|
G#-5---7~~~~~~-7---5~~~~~~-3~~~~~~-5~~~~~~-5~~~~~~-3~~~~~~-2~~~~~~-|

===================================================================
===================================================================


Pre Chorus 2

Guitar 1
A#-----------------------------------------------------------------|
F -----------------------------------------------------------------|
C#-----------------------------------------------------------------|
G#-0~~~~~~~~~~~~~~~~~~~~~~~~~~~~~~~~~~~~~~~~~~~~~~~~~~~~~~~~~~~~~~-
D#-0~~~~~~~~~~~~~~~~~~~~~~~~~~~~~~~~~~~~~~~~~~~~~~~~~~~~~~~~~~~~~~-
G#-0~~~~~~~~~~~~~~~~~~~~~~~~~~~~~~~~~~~~~~~~~~~~~~~~~~~~~~~~~~~~~~-

===================================================================

Guitar 1 (Fade In)
A#-----------------------------------------------------------------|
F -----------------------------------------------------------------|
C#-5~~~~~~~~~~~~~~~~~~~~~~~~~~~~~~~~~~~~~~~~~~~~~~~~~~~~~~~~~~~~~~-
G#-5~~~~~~~~~~~~~~~~~~~~~~~~~~~~~~~~~~~~~~~~~~~~~~~~~~~~~~~~~~~~~~-
D#-3~~~~~~~~~~~~~~~~~~~~~~~~~~~~~~~~~~~~~~~~~~~~~~~~~~~~~~~~~~~~~~-
G#-----------------------------------------------------------------

===================================================================
===================================================================

Guitar 1
A#-----------------------------------------------------------------|
F -----------------------------------------------------------------|
C#-----------------------------------------------------------------|
G#-0---0---0---0---0---0---0---0---3---3---3---3---3---3---3---3---|
D#-0---0---0---0---0---0---0---0---3---3---3---3---3---3---3---3---|
G#-0---0---0---0---0---0---0---0---3---3---3---3---3---3---3---3---|

===================================================================

Guitar 1
A#-----------------------------------------------------------------|
F -----------------------------------------------------------------|
C#-5---5---5---5---5---5---5---5---5---5---5---5---5---5-----------|
G#-5---5---5---5---5---5---5---5---5---5---5---5---5---5---3-5-3-0-|
D#-3---3---3---3---3---3---3---3---3---3---3---3---3---3-----------|
G#-----------------------------------------------------------------|

===================================================================

Guitar 1
A#-----------------------------------------------------------------|
F -----------------------------------------------------------------|
C#-----------------------------------------------------------------|
G#-0---0---0---0---0---0---0---0---3---3---3---3---3---3---3---3---|
D#-0---0---0---0---0---0---0---0---3---3---3---3---3---3---3---3---|
G#-0---0---0---0---0---0---0---0---3---3---3---3---3---3---3---3---|

===================================================================

Guitar 1
A#-----------------------------------------------------------------|
F -----------------------------------------------------------------|
C#-5---5---5---5---5---5---5---5---5---5---5---5---5---5-----------|
G#-5---5---5---5---5---5---5---5---5---5---5---5---5---5---3-5-3-0-|
D#-3---3---3---3---3---3---3---3---3---3---3---3---3---3-----------|
G#-----------------------------------------------------------------|

===================================================================

Guitar 1
A#-----------------------------------------------------------------|
F -----------------------------------------------------------------|
C#-----------------------------------------------------------------|
G#-5---5---5---5---5---5---5---5---0---0---0---0---0---0---0---0---|
D#-5---5---5---5---5---5---5---5---0---0---0---0---0---0---0---0---|
G#-5---5---5---5---5---5---5---5---0---0---0---0---0---0---0---0---|

===================================================================

Guitar 1
A#-----------------------------------------------------------------|
F -----------------------------------------------------------------|
C#---------------------------------5---5---5---5---5---5---5---5---|
G#-3---3---3---3---3---3---3---3---5---5---5---5---5---5---5---5---|
D#-3---3---3---3---3---3---3---3---3---3---3---3---3---3---3---3---|
G#-3---3---3---3---3---3---3---3-----------------------------------|

===================================================================
===================================================================


Outro

Guitar 1
A#-----------------------------------------------------------------|
F -----------------------------------------------------------------|
C#-----------------------------------------------------------------|
G#-7~~~~-7-7~~~~-7-7-7-7~~~~-7-7-7-7~~~~-7-7~~~~-7-7-7-7~~-7-7-7-7-|
D#-7~~~~-7-7~~~~-7-7-7-7~~~~-7-7-7-7~~~~-7-7~~~~-7-7-7-7~~-7-7-7-7-|
G#-7~~~~-7-7~~~~-7-7-7-7~~~~-7-7-7-7~~~~-7-7~~~~-7-7-7-7~~-7-7-7-7-|

===================================================================

Guitar 1
A#--------------------------------------------------------------------|
F -----------------------------------------------10-10-10-10~---------|
C#-----------------------------------------------9--9--9--9~~---------|
G#-7~~~~-7-7~~~~-7-7-7-7~~~~-7-7-7-7~~~~-7-7~~~~-7--7--7--7~~-2-3-2-0-|
D#-7~~~~-7-7~~~~-7-7-7-7~~~~-7-7-7-7~~~~-7-7~~~~-7--7--7--7~~---------|
G#-7~~~~-7-7~~~~-7-7-7-7~~~~-7-7-7-7~~~~-7-7~~~~-7--7--7--7~~---------|

===================================================================

Guitar 1
A#---------------------------------------------------------------15-13-12-|
F -10~~~-10-10~~-10-10-10-10~~-10-10-10-10~~-10-10~~-10-10-10-10----------|
C#-9~~~~-9--9~~~-9--9--9--9~~~-9--9--9--9~~~-9--9~~~-9--9--9--------------|
G#-7~~~~-7--7~~~-7--7--7--7~~~-7--7--7--7~~~-7--7~~~-7--7--7--------------|
D#-7~~~~-7--7~~~-7--7--7--7~~~-7--7--7--7~~~-7--7~~~-7--7--7--------------|
G#-7~~~~-7--7~~~-7--7--7--7~~~-7--7--7--7~~~-7--7~~~-7--7--7--------------|

===================================================================

Guitar 1
A#---------------------------------------------------------------------|
F -10~~~-10-10~~-10-10-10-10~~-10-10-10-10~~-10-10~~-------------------|
C#-9~~~~-9--9~~~-9--9--9--9~~~-9--9--9--9~~~-9--9~~~-------------------|
G#-7~~~~-7--7~~~-7--7--7--7~~~-7--7--7--7~~~-7--7~~~-------------------|
D#-7~~~~-7--7~~~-7--7--7--7~~~-7--7--7--7~~~-7--7~~~-------------------|
G#-7~~~~-7--7~~~-7--7--7--7~~~-7--7--7--7~~~-7--7~~~-0-7---5---3---2---|

===================================================================

Guitar 1
A#-----------------------------------------------------------------|
F -----------------------------------------------------------------|
C#-----------------------------------------------------------------|
G#-0~~~~~~~~~~~~~~~~~~~~~~~~~~~~~~~~~~~~~~~~~~~~~~~~~~~~~~~~~~~~~~-
D#-0~~~~~~~~~~~~~~~~~~~~~~~~~~~~~~~~~~~~~~~~~~~~~~~~~~~~~~~~~~~~~~-
G#-0~~~~~~~~~~~~~~~~~~~~~~~~~~~~~~~~~~~~~~~~~~~~~~~~~~~~~~~~~~~~~~-

===================================================================
===================================================================
===================================================================


===================================================================
Guitar 2
===================================================================


Intro

Guitar 2 (x2)
A#-----------------------------------------------------------------|
F -15--13-15-13------13--------------------------------------------|
C#---------------15------15--12--14~~~~~---------------------------|
G#---------------------------------------12~~~~~~~~~~~~~~~~~~~~~~~-|
D#-----------------------------------------------------------------|
G#-----------------------------------------------------------------|

===================================================================

Guitar 2 (x2)
A#-17~~~b~r~~-15------15--17~~~b~r~~-15------15--------------------|
F ----------------18---------------------18------17~~~~~~~~~~~-13--|
C#-----------------------------------------------------------------|
G#-----------------------------------------------------------------|
D#-----------------------------------------------------------------|
G#-----------------------------------------------------------------|

===================================================================
===================================================================


Verse 1

Guitar 2
A#-----------------------------------------------------------------
F -15~~~~~~~~~~~~~~~~~~~~~~~~~~~~~~~~~~~~~~~~~~~~~~~~~~~~~~~~~~~~~-
C#-----------------------------------------------------------------|
G#-----------------------------------------------------------------|
D#-----------------------------------------------------------------|
G#-----------------------------------------------------------------|

===================================================================

Rest

===================================================================

Guitar 2 (x2)
A#---------------------h18p17--17~~---------------------h18p17--17~~-|
F h20p18--h17h18--h20--------------h20p18--h17h18--h20---------------|
C#------t7------t7---t7------t7----------t7------t7---t7------t7-----|
G#-------------------------------------------------------------------|
D#-------------------------------------------------------------------|
G#-------------------------------------------------------------------|

===================================================================

Guitar 2
A#---------------------h18p17--17~~---------------------h18p17--17~~-|
F h20p18--h17h18--h20--------------h20p18--h17h18--h20---------------|
C#-------------------------------------------------------------------|
G#------t7------t7---t7------t7----------t7------t7---t7------t7-----|
D#-------------------------------------------------------------------|
G#-------------------------------------------------------------------|

===================================================================

Guitar 2
A#---------------------h18p17--17~~---------------------h18p17--17-18-|
F h20p18--h17h18--h20--------------h20p18--h17h18--h20----------------|
C#--------------------------------------------------------------------|
G#------t7------t7---t7------t7----------t7------t7---t7------t7------|
D#--------------------------------------------------------------------|
G#--------------------------------------------------------------------|

===================================================================
===================================================================


Pre Chorus 1

Guitar 2
A#-20~~~~~~~~~~~~~~~~~~~~~~~~~~~~~~~~~~~~~~~~~~~~~~~~~~~~~~~~~~~~~-
F -----------------------------------------------------------------|
C#-----------------------------------------------------------------|
G#-----------------------------------------------------------------|
D#-----------------------------------------------------------------|
G#-----------------------------------------------------------------|

===================================================================

Guitar 2
A#-----------------------------------------------------------------|
F -----------------------------------------------------------------|
C#-----------------------------------------------------------------|
G#-8~~~~-8~~~~-8~~~~-8-3~~~~-5---7---7\----------------------------|
D#-8~~~~-8~~~~-8~~~~-8-3~~~~-5---7---7\----------------------------|
G#-8~~~~-8~~~~-8~~~~-8-3~~~~-5---7---7\----------------------------|
Pm                   .

===================================================================
===================================================================


Chorus 1

Guitar 2
A#-----------------------------------------------------------------|
F ---------------------------------10--10--10--8---8---8---8---8---|
C#-9---9---9---10--10--10--10--10----------------------------------|
G#-----------------------------------------------------------------|
D#-----------------------------------------------------------------|
G#-----------------------------------------------------------------|

===================================================================

Guitar 2
A#-----------------------------------------------------------------|
F ---------------------------------10--10--10--8---8---10--10--10--|
C#-9---9---9---10--10--10--10--10----------------------------------|
G#-----------------------------------------------------------------|
D#-----------------------------------------------------------------|
G#-----------------------------------------------------------------|

===================================================================

Guitar 2
A#-----------------------------------------------------------------|
F ---------------------------------10--10--10--8---8---8---8---8---|
C#-9---9---9---10--10--10--10--10----------------------------------|
G#-----------------------------------------------------------------|
D#-----------------------------------------------------------------|
G#-----------------------------------------------------------------|

===================================================================

Guitar 2
A#-----------------------------------------------------------------|
F ---------------------------------10--10--10--8---8---8---8---8---|
C#-9---9---9---10--10--10--10--10----------------------------------|
G#-----------------------------------------------------------------|
D#-----------------------------------------------------------------|
G#-----------------------------------------------------------------|

===================================================================

Guitar 2
A#-----------------------------------------------------------------|
F -11--11--11--11--11--10--8---10--10------------------------------|
C#-------------------------------------10--9---10--7---7---7---7---|
G#-----------------------------------------------------------------|
D#-----------------------------------------------------------------|
G#-----------------------------------------------------------------|

===================================================================

Guitar 2
A#-----------------------------------------------------------------|
F -10--10--10--10--10--8-------8-----------------------------------|
C#-------------------------10------10--9---9---9---9---9---9---9---|
G#-----------------------------------------------------------------|
D#-----------------------------------------------------------------|
G#-----------------------------------------------------------------|

===================================================================

Guitar 2
A#--------------------------------------------------------------------|
F --------------------------------------------------------------------|
C#-9~~~b~r~~~~~b~r~~~~~b~r~b~r~b~r-9~~~b~r~~~~~b~r-14~---12---10-9----|
G#-----------------------------------------------------0----0------10-|
D#--------------------------------------------------------------------|
G#--------------------------------------------------------------------|

===================================================================
===================================================================


Guitar Solo

Guitar 2
A#-----------------------------------------------------------------|
F -------------------------------12~~b~~~~~~~~~~~~-----------------|
C#---------------------------12--12~~b~~~~~~~~~~~~-----------------|
G#-12~~~~~~~~~~~~~~~~~-12-15-----------------------15-12~~~~~~~~~~-|
D#-----------------------------------------------------------------|
G#-----------------------------------------------------------------|

===================================================================

Guitar 2
A#--------------------13-10~~~-15-16-15-17-16-15-----------------------|
F -----------------------------------------------18-15~~-------12--14--|
C#-10-7-10-12-9-12-14------------------------------------12-14---------|
G#---------------------------------------------------------------------|
D#---------------------------------------------------------------------|
G#---------------------------------------------------------------------|

===================================================================

Guitar 2
A#-----------------------------------------------16-15-------------|
F -17~~~b~r~~-15--17--15--17~~~b~r~~-15--17--15--------17-15~~~~~~-|
C#-----------------------------------------------------------------|
G#-----------------------------------------------------------------|
D#-----------------------------------------------------------------|
G#-----------------------------------------------------------------|

===================================================================

Guitar 2
A#-----------------------------------------------------------------|
F -17~~~b~r~~-15--17--15--13--13--14~~-----------------------------|
C#------------------------------------------------9-10-9-7-9-7-----|
G#-------------------------------------------------------------10--|
D#-----------------------------------------------------------------|
G#-----------------------------------------------------------------|

===================================================================
===================================================================


Verse 2

(x2)

Guitar 2
A#-----------------------------------------------------------------|
F -----------------------------------------------------------------|
C#-----------------------------------------------------------------|
G#-12~~~~~~\~~~--------0---------------0---------------------------|
D#-0-------------------0---------------0---------------------------|
G#-0-------------------0---------------0-----------3-3-3-3-3---5---|

===================================================================

Guitar 2
A#-----------------------------------------------------------------|
F -----------------------------------------------------------------|
C#-----------------------------------------------------------------|
G#-0-------------------0---------------0---------------------------|
D#-0-------------------0---------------0---------------------------|
G#-0-------------------0---------------0-------10-10-10-10-10--12--|

===================================================================

Guitar 2
A#-----------------------------------------------------------------|
F -----------------------------------------------------------------|
C#-----------------------------------------------------------------|
G#-0-------------------0---------------0---------------------------|
D#-0-------------------0---------------0---------------------------|
G#-0-------------------0---------------0-----------3-3-3-3-3---5---|

===================================================================

Guitar 2
A#-----------------------------------------------------------------|
F -----------------------------------------------------------------|
C#-----------------------------------------------------------------|
G#-0-------------------0---------------0---------------------------|
D#-0-------------------0---------------0---------------------------|
G#-0-------------------0---------------0-------10-10-10-10-10--12--|

===================================================================
===================================================================


Bridge

Guitar 2 (x3)
A#-----------------------------------------------------------------|
F -----------------------------------------------------------------|
C#-----------------------------------------------------------------|
G#-----------------------------------------------------------------|
D#-------------------------------------------------5-5-5-5-5---3---|
G#-3~b~r-0~~~~-7~~~~-6~~~~-3~b~r-0~~~~-5~~~~-7~~~~-----------------|
Pm                                                 . . . .

===================================================================

Guitar 2
A#-----------------------------------------------------------------|
F ---------------------------------------------------------17--18--|
C#-----------------------------------------------------------------|
G#-------------------------------------------------x-x-x-x---------|
D#-------------------------------------9b~~~-------x-x-x-x---------|
G#-3~b~r-0~~~~-7~~~~-6~~~~-3~b~r-0~~~~-------10~~~-x-x-x-x---------|
Pm

===================================================================
===================================================================


Breakdown 1

Guitar 2 (Fade Out)
A#-19---19-19--19--19--19--19--19--19--19--19--19--19--19--19--19-|
F ----------------------------------------------------------------|
C#----------------------------------------------------------------|
G#----------------------------------------------------------------|
D#----------------------------------------------------------------|
G#----------------------------------------------------------------|

==================================================================

Rest

==================================================================

Guitar 2 (Fade Out)
A#t17p5t17p15t16p4t15p3t14p2t13p1t12p0t12p0-----------------------|
F ----------------------------------------------------------------|
C#----------------------------------------------------------------|
G#----------------------------------------------------------------|
D#----------------------------------------------------------------|
G#----------------------------------------------------------------|

==================================================================

Guitar 2 (Fade In)
A#----------------------------19-19-19-19-19-19-19-19-19-19-19-19-|
F ----------------------------------------------------------------|
C#----------------------------------------------------------------|
G#----------------------------------------------------------------|
D#----------------------------------------------------------------|
G#----------------------------------------------------------------|

==================================================================
==================================================================


Chorus 2

Guitar 2
A#-----------------------------------------------------------------|
F ---------------------------------10--10--10--8---8---8---8---8---|
C#-9---9---9---10--10--10--10--10----------------------------------|
G#-----------------------------------------------------------------|
D#-----------------------------------------------------------------|
G#-----------------------------------------------------------------|

===================================================================

Guitar 2
A#-----------------------------------------------------------------|
F ---------------------------------10--10--10--8---8---10--10--10--|
C#-9---9---9---10--10--10--10--10----------------------------------|
G#-----------------------------------------------------------------|
D#-----------------------------------------------------------------|
G#-----------------------------------------------------------------|

===================================================================

Guitar 2
A#-----------------------------------------------------------------|
F ---------------------------------10--10--10--8---8---8---8---8---|
C#-9---9---9---10--10--10--10--10----------------------------------|
G#-----------------------------------------------------------------|
D#-----------------------------------------------------------------|
G#-----------------------------------------------------------------|

===================================================================

Guitar 2
A#-----------------------------------------------------------------|
F ---------------------------------10--10--10--8---8---8---8---8---|
C#-9---9---9---10--10--10--10--10----------------------------------|
G#-----------------------------------------------------------------|
D#-----------------------------------------------------------------|
G#-----------------------------------------------------------------|

===================================================================

Guitar 2
A#-----------------------------------------------------------------|
F -11--11--11--11--11--10--8---10--10------------------------------|
C#-------------------------------------10--9---10--7---7---7---7---|
G#-----------------------------------------------------------------|
D#-----------------------------------------------------------------|
G#-----------------------------------------------------------------|

===================================================================

Guitar 2
A#-----------------------------------------------------------------|
F -10--10--10--10--10--8-------8-----------------------------------|
C#-------------------------10------10--9---9---9---9---9---9---9---|
G#-----------------------------------------------------------------|
D#-----------------------------------------------------------------|
G#-----------------------------------------------------------------|

===================================================================

Guitar 2
A#-----------------------------------------------------------------|
F -----------------------------------------------------------------|
C#-9~~~b~r~~~~~b~r~~~~~b~r~b~r~b~r-9~~~b~r~~~~~b~r~~~~~b~r~b~r~b~r-
G#-----------------------------------------------------------------|
D#-----------------------------------------------------------------|
G#-----------------------------------------------------------------|

===================================================================

Guitar 2
A#-----------------------------------------------------------------|
F -------------------------------------------------11~~~~~~~~~~~~~-|
C#-9~~~b~r~~~~~b~r~~~~~b~r~b~r~b~r-9~~~b~r~~~~~b~r-----------------|
G#-----------------------------------------------------------------|
D#-----------------------------------------------------------------|
G#-----------------------------------------------------------------|

===================================================================
===================================================================


Interlude

Guitar 2
A#-----------------------------------------------------------------
F -10~~~~~~~~~~~~~~~~~~~~~~~~~~~~~~~~~~~~~~~~~~~~~~~~~~~~~~~~~~~~~-
C#-----------------------------------------------------------------|
G#-----------------------------------------------------------------|
D#-----------------------------------------------------------------|
G#-----------------------------------------------------------------|

===================================================================

Guitar 2
A#-----------------------------------------------------------------------|
F -----------------------------------------------------------------------|
C#-----------------------------------------------------------------------|
G#-----------------------------------------------------------------------|
D#-----------------------------------------------------------------------|
G#-3p0---7p0---3p0-8p0---7p0---3p0-10p0--8p0---3p0-12p0-10p0-11-11-11-11-|

===================================================================

Guitar 2
A#--------------------------------------------------------------------|
F --------------------------------------------------------------------|
C#--------------------------------------------------------------------|
G#--------------------------------------------------------------------|
D#--------------------------------------------------------------------|
G#-3p0---7p0---3p0-8p0---7p0---3p0-10p0--8p0---3p0-12p0-10p0-8-10-8-7-|

===================================================================

Guitar 2
A#-------------------------------------------------------------------|
F -------------------------------------------------------------------|
C#-------------------------------------------------------------------|
G#-----------------------------------------------------------x-x-x-x-|
D#-----------------------------------------------------------x-x-x-x-|
G#-3p0---7p0---3p0-8p0---7p0---3p0-10p0--8p0---3p0-12p0-10p0-x-x-x-x-|

===================================================================
===================================================================


Breakdown 2

Guitar 2
A#-----------------------------------------------------------------|
F -----------------------------------------------------------------|
C#-----------------------------------------------------------------|
G#-0---0-------0---0-------0-0-0-0-0---0-------0-------0---0-------|
D#-0---0-------0---0-------0-0-0-0-0---0-------0-------0---0-------|
G#-0---0-------0---0-------0-0-0-0-0---0-------0-------0---0-------|
Pm .   .       .   .       . . . . .   .       .       .   .

===================================================================

Guitar 2
A#-----------------------------------------------------------------|
F -----------------------------------------------------------------|
C#-----------------------------------------------------------------|
G#-----0-------0-------0---0-------0---0---0-------0-0-0-0-0-------|
D#-----0-------0-------0---0-------0---0---0-------0-0-0-0-0-------|
G#-----0-------0-------0---0-------0---0---0-------0-0-0-0-0-------|
Pm     .       .       .   .       .   .   .       . . . . .

===================================================================

Guitar 2
A#-----------------------------------------------------------------|
F -----------------------------------------------------------------|
C#-----------------------------------------------------------------|
G#-0-0-0---0---0-0-0---0---0---0---0---0-----------0-0-0-0-0-------|
D#-0-0-0---0---0-0-0---0---0---0---0---0-----------0-0-0-0-0-------|
G#-0-0-0---0---0-0-0---0---0---0---0---0-----------0-0-0-0-0-------|
Pm . . .   .   . . .   .   .   .   .   .           . . . . .

===================================================================

Guitar 2
A#-----------------------------------------------------------------|
F -----15~~~~~-----------------------------------------------------|
C#-----------------------------------------------------------------|
G#-0---------------------------------------------------------------|
D#-0---------------------------------------------------------------|
G#-0-----------------------0~~~~~~-5---5---7---7---5---5---3---3---|
Pm .                               .   .   .   .   .   .   .   .

===================================================================

Guitar 2
A#-----------------------------------------------------------------|
F -----------------------------------------------------------------|
C#-----------------------------------------------------------------|
G#-0---0-------0---0-------0-0-0-0-0---0-------0-------0---0-------|
D#-0---0-------0---0-------0-0-0-0-0---0-------0-------0---0-------|
G#-0---0-------0---0-------0-0-0-0-0---0-------0-------0---0-------|
Pm .   .       .   .       . . . . .   .       .       .   .

===================================================================

Guitar 2
A#-----------------------------------------------------------------|
F -----------------------------------------------------------------|
C#-----------------------------------------------------------------|
G#-----0-------0-------0---0-------0---0---0-------0-0-0-0-0-------|
D#-----0-------0-------0---0-------0---0---0-------0-0-0-0-0-------|
G#-----0-------0-------0---0-------0---0---0-------0-0-0-0-0-------|
Pm     .       .       .   .       .   .   .       . . . . .

===================================================================

Guitar 2
A#-----------------------------------------------------------------|
F -----------------------------------------------------------------|
C#-----------------------------------------------------------------|
G#-0---0-----------0---0-----------0---0-----------x---x---x---x---|
D#-0---0-----------0---0-----------0---0-----------x---x---x---x---|
G#-0---0-----------0---0-----------0---0-----------x---x---x---x---|
Pm .   .           .   .           .   .

===================================================================

Guitar 2
A#-----------------------------------------------------------------|
F -----------------------------------------------------------------|
C#-----------------------------------------------------------------|
G#-5---7~~~~~~-7---5~~~~~~-3~~~~~~-5~~~~~~-5~~~~~~-3~~~~~~-2~~~~~~-|
D#-5---7~~~~~~-7---5~~~~~~-3~~~~~~-5~~~~~~-5~~~~~~-3~~~~~~-2~~~~~~-|
G#-5---7~~~~~~-7---5~~~~~~-3~~~~~~-5~~~~~~-5~~~~~~-3~~~~~~-2~~~~~~-|

===================================================================
===================================================================


Pre Chorus 2

Guitar 2
A#-----------------17~~~~~~~~~~~~~---------------------------------|
F -17~~~~~-18~~~~~-17~~~~~-20~~~~~-17~~~~~-18~~~~~-----------------|
C#-17~~~~~~~~~~~~~-17~~~~~~~~~~~~~-17~~~~~~~~~~~~~-----------------|
G#-17~~~~~~~~~~~~~-----------------17~~~~~~~~~~~~~-17~~~~~-15~~~~~-|
D#-----------------------------------------------------------------|
G#-----------------------------------------------------------------|

===================================================================
===================================================================


Chorus 3

Guitar 2
A#-----------------------------------------------------------------|
F ---------------------------------10--10--10--8---8---8---8---8---|
C#-9---9---9---10--10--10--10--10----------------------------------|
G#-----------------------------------------------------------------|
D#-----------------------------------------------------------------|
G#-----------------------------------------------------------------|

===================================================================

Guitar 2
A#-----------------------------------------------------------------|
F ---------------------------------10--10--10--8---8---10--10--10--|
C#-9---9---9---10--10--10--10--10----------------------------------|
G#-----------------------------------------------------------------|
D#-----------------------------------------------------------------|
G#-----------------------------------------------------------------|

===================================================================

Guitar 2
A#-----------------------------------------------------------------|
F ---------------------------------10--10--10--8---8---8---8---8---|
C#-9---9---9---10--10--10--10--10----------------------------------|
G#-----------------------------------------------------------------|
D#-----------------------------------------------------------------|
G#-----------------------------------------------------------------|

===================================================================

Guitar 2
A#-----------------------------------------------------------------|
F ---------------------------------10--10--10--8---8---8---8---8---|
C#-9---9---9---10--10--10--10--10----------------------------------|
G#-----------------------------------------------------------------|
D#-----------------------------------------------------------------|
G#-----------------------------------------------------------------|

===================================================================

Guitar 2
A#-----------------------------------------------------------------|
F -11--11--11--11--11--10--8---10--10------------------------------|
C#-------------------------------------10--9---10--7---7---7---7---|
G#-----------------------------------------------------------------|
D#-----------------------------------------------------------------|
G#-----------------------------------------------------------------|

===================================================================

Guitar 2
A#-----------------------------------------------------------------|
F -10--10--10--10--10--8-------8-----------------------------------|
C#-------------------------10------10--9---9---9---9---9---9---9---|
G#-----------------------------------------------------------------|
D#-----------------------------------------------------------------|
G#-----------------------------------------------------------------|

===================================================================
===================================================================


Outro

Guitar 2 (x3)
A#-----------------------------------------------------------------|
F -----------------------------------------------------------------|
C#-9~~~b~r~~~~~b~r~~~~~b~r~b~r~b~r-9~~~b~r~~~~~b~r~~~~~b~r~b~r~b~r-
G#-----------------------------------------------------------------|
D#-----------------------------------------------------------------|
G#-----------------------------------------------------------------|

===================================================================

Guitar 2
A#-------10~~--------10~~~~~~~~~~~~~~~-13~~~~~-10~~~~~-9~~~~~~~~~~-|
F -----------------------------------------------------------------|
C#-9~~~b-----------------------------------------------------------|
G#-----------------------------------------------------------------|
D#-----------------------------------------------------------------|
G#-----------------------------------------------------------------|

===================================================================

Guitar 2
A#-10~~~~~~~~~~~~~~~~~~~~~~~~~~~~~~~~~~~~~~~~~~~~~~~~~~~~~~~~~~~~~-
F -----------------------------------------------------------------|
C#-----------------------------------------------------------------|
G#-----------------------------------------------------------------|
D#-----------------------------------------------------------------|
G#-----------------------------------------------------------------|

===================================================================
===================================================================
===================================================================


===================================================================
Guitar 3
===================================================================

(Harmony for Guitar in Intro and Guitar Solo)

Intro

(x2)

Guitar 3
A#-----------------------------------------------------------------|
F -----------------------------------------------------------------|
C#-------------------------------10-10-10-------9-9-9--------------|
G#---------------------2-3-2---0----------0-0-0--------0-----------|
D#-----------------------------0----------0-0-0--------0---3~~~~~~-|
G#-0~~~~~~-5-7-5---3-----------0----------0-0-0--------0-----------|
Pm                             .          . . .        .

===================================================================

Guitar 3
A#-----------------------------------------------------------------|
F -----------------------------------------------------------------|
C#-------------------------------10-10-10-------9-9-9--------------|
G#-----------------------------0----------0-0-0--------7---5-------|
D#---------------------3~b~r~~-0----------0-0-0----------------7---|
G#-0~~~~~~-5-7-5---3-----------0----------0-0-0--------------------|
Pm                             .          . . .

===================================================================

Guitar 3
A#-----------------------------------------------------------------|
F -----------------------------------------------------------------|
C#-----------------------------------------------------------------|
G#-----------------------------------------------------------------|
D#-5~~~~-5~~~~-5~~~~-5-3---5~~~~-5~~~~-5-5-5---5-5-7---7-7-8~~~~~~-|
G#-----------------------------------------------------------------|
Pm                   .                 . .     . .     .  .

===================================================================

Guitar 3
A#-----------------------------------------------------------------|
F -----------------------------------------------------------------|
C#-----------------------------------------------------------------|
G#-----------------------------------7\~~--------------------------|
D#-5~~~~-5~~~~-5~~~~-5-3---5~~~~-3-3-7\~~--------------------------|
G#-----------------------------------7\~~--------------------------|
Pm                   .           . .

===================================================================
===================================================================


Guitar Solo

Guitar 3
A#-----------------------------------------------------------------|
F -----------------------------------------------------------------|
C#-------------------------------10-10-10-------9-9-9--------------|
G#---------------------2-3-2---0----------0-0-0--------0-----------|
D#-----------------------------0----------0-0-0--------0---3~~~~~~-|
G#-0~~~~~~-5-7-5---3-----------0----------0-0-0--------0-----------|
Pm                             .          . . .        .

===================================================================

Guitar 3
A#-----------------------------------------------------------------|
F -----------------------------------------------------------------|
C#-------------------------------10-10-10-------9-9-9--------------|
G#-----------------------------0----------0-0-0--------7---5-------|
D#---------------------3~b~r~~-0----------0-0-0----------------7---|
G#-0~~~~~~-5-7-5---3-----------0----------0-0-0--------------------|
Pm                             .          . . .

===================================================================

Guitar 3
A#-----------------------------------------------------------------|
F -----------------------------------------------------------------|
C#-----------------------------------------------------------------|
G#-----------------------------------------------------------------|
D#-5~~~~-5~~~~-5~~~~-5-3---5~~~~-5~~~~-5-5-5---5-5-7---7-7-8~~~~~~-|
G#-----------------------------------------------------------------|
Pm                   .                 . .     . .     .  .

===================================================================

Guitar 3
A#-----------------------------------------------------------------|
F -----------------------------------------------------------------|
C#-----------------------------------------------------------------|
G#-----------------------------------7\~~--------------------------|
D#-5~~~~-5~~~~-5~~~~-5-3---5~~~~-3-3-7\~~--------------------------|
G#-----------------------------------7\~~--------------------------|
Pm                   .           . .

===================================================================
===================================================================
===================================================================


----------------------------------------------------------------------------
                                Vices
                           Memphis May Fire
----------------------------------------------------------------------------

Challenger is one of the very few albums I have preordered my whole life. I just can’t
get enough of their beautiful music construction techniques. The lyrics are pitch
perfect, the drums are so hardcore, the bass parts is very interesting and the guitar
riffs are addictive. Enjoy!

Guitar 1 Rhythmic (C# G# C# F# A# D#)
Guitar 2 Lead     (C# G# C# F# A# D#)


===================================================================
Guitar 1
===================================================================


Intro

Guitar 1
D#-----------------------------------------------------------------|
A#-----------------------------------------------------------------|
F#-----------------------------------------------------------------|
C#-----------------------------------------------------------------|
G#-5---------------5---------------5-------------------------------|
C#-----8-8-5---7-------8-8-5---7-------8-8-5---7---7---7---7---7-7-|

===================================================================
===================================================================


Verse 1

(x2)

Guitar 1
D#-----------------------------------------------------------------|
A#-----------------------------------------------------------------|
F#-----------------------------------------------------------------|
C#-----------------5-7---------4-------10--7-------9---------------|
G#-5-------------------7---4---------------------------0---8---7---|
C#-----8-8-5---7-------------------0-----------0-------------------|
Pm                                 .           .

===================================================================

Guitar 1
D#-------------------------------------------------------------------|
A#-------------------------------------------------------------------|
F#-------------------------------------------------------------------|
C#-----------------------------------0---0-0-0---0---0-0-0---0-0-0---|
G#---------------------------10--12--0---0-0-0---0---0-0-0---0-0-0---|
C#-0---12-12-8---0---8-8-7-----------0---0-0-0---0---0-0-0---0-0-0---|
Pm                                   .   . . .   .   . . .   . . .

===================================================================

Guitar 1
D#-----------------------------------------------------------------|
A#-----------------------------------------------------------------|
F#-------------------------------------10--7-------7-9-7---5-7-5---|
C#-----------------5-7---------4-------------------------9-------7-|
G#-5-------------------7---4---------------------------------------|
C#-----8-8-5---7-------------------0-----------0-------------------|
Pm                                 .           .

===================================================================

Guitar 1
D#-----------------------------------------------------------------|
A#-----------------------------------------------------------------|
F#-----------------------------------------------------------------|
C#-----------------------------------------------------------------|
G#-------------------------4-4-4-----------------------------------|
C#-0---8-8-5---7---3-3-3-----------0---0-0-0---0---0-0-0---0-0-0---|

===================================================================

Guitar 1
D#-----------------------------------------------------------------|
A#-----------------------------------------------------------------|
F#-----------------------------------------------------------------|
C#-----------------5-7---------4-------10--7-------9---------------|
G#-5-------------------7---4---------------------------0---8---7---|
C#-----8-8-5---7-------------------0-----------0-------------------|
Pm                                 .           .

===================================================================

Guitar 1
D#-------------------------------------------------------------------|
A#-------------------------------------------------------------------|
F#-------------------------------------------------------------------|
C#-----------------------------------0---0-0-0---0---0-0-0---0-0-0---|
G#---------------------------10--12--0---0-0-0---0---0-0-0---0-0-0---|
C#-0---12-12-8---0---8-8-7-----------0---0-0-0---0---0-0-0---0-0-0---|
Pm                                   .   . . .   .   . . .   . . .

===================================================================

Guitar 1
D#-----------------------------------------------------------------|
A#-----------------------------------------------------------------|
F#-------------------------------------10--7-------7-9-7---5-7-5---|
C#-----------------5-7---------4-------------------------9-------7-|
G#-5-------------------7---4---------------------------------------|
C#-----8-8-5---7-------------------0-----------0-------------------|
Pm                                 .           .

===================================================================

Guitar 1
D#-----------------------------------------------------------------|
A#-----------------------------------------------------------------|
F#-----------------------------------------------------------------|
C#---------------------------------x-x-x---x-x-x---x-x-x---x-x-x-x-|
G#-------------------------4-4-4---x-x-x---x-x-x---x-x-x---x-x-x-x-|
C#-0---8-8-5---7---3-3-3-----------x-x-x---x-x-x---x-x-x---x-x-x-x-|

===================================================================
===================================================================


Breakdown 1

Guitar 1
D#-----------------------------------------------------------------|
A#-----------------------------------------------------------------|
F#-----------------------------------------------------------------|
C#-0-0-----0-0-----0-0-----0---0-0-----0---0-0-----0-0-------------|
G#-0-0-----0-0-----0-0-----0---0-0-----0---0-0-----0-0-------------|
C#-0-0-----0-0-----0-0-----0---0-0-----0---0-0-----0-0-----3-3-3---|
Pm . .     . .     . .     .   . .     .   . .     . .

===================================================================

Guitar 1
D#-----------------------------------------------------------------|
A#-----------------------------------------------------------------|
F#-----------------------------------------------------------------|
C#-0-0-----0-0-----0-0-----0---0-0-----0---0-0-----0-0-------------|
G#-0-0-----0-0-----0-0-----0---0-0-----0---0-0-----0-0-------------|
C#-0-0-----0-0-----0-0-----0---0-0-----0---0-0-----0-0-----3-3-3---|
Pm . .     . .     . .     .   . .     .   . .     . .

===================================================================

Guitar 1
D#-----------------------------------------------------------------|
A#-----------------------------------------------------------------|
F#-----------------------------------------------------------------|
C#-0-0-----0-0-----0-0-----0---0-0-----0---0-0-----0-0-------------|
G#-0-0-----0-0-----0-0-----0---0-0-----0---0-0-----0-0-------------|
C#-0-0-----0-0-----0-0-----0---0-0-----0---0-0-----0-0-----3-3-3---|
Pm . .     . .     . .     .   . .     .   . .     . .

===================================================================

Guitar 1
D#-----------------------------------------------------------------|
A#-----------------------------------------------------------------|
F#-----------------------------------------------------------------|
C#-0-0-----0-0-----0-0-----0---0-0---------------------------------|
G#-0-0-----0-0-----0-0-----0---0-0---------------------------------|
C#-0-0-----0-0-----0-0-----0---0-0-----2---2---2---x-x-2---0---0---|
Pm . .     . .     . .     .   . .

===================================================================
===================================================================


Breakdown 2

Guitar 1 (x2)
D#-----------------------------------------------------------------|
A#-----------------------------------------------------------------|
F#-----------------------------------------------------------------|
C#-0-0~~~~-0-0~~~~-0-0-0~~-0~~-0-0~~~~-0~~-0-0~~~~-0-0-0~~-0-0-0~~-|
G#-0-0~~~~-0-0~~~~-0-0-0~~-0~~-0-0~~~~-0~~-0-0~~~~-0-0-0~~-0-0-0~~-|
C#-0-0~~~~-0-0~~~~-0-0-0~~-0~~-0-0~~~~-0~~-0-0~~~~-0-0-0~~-0-0-0~~-|
Pm . .     . .     . . .   .   . .     .   . .     . . .   . . .

===================================================================

Guitar 1
D#-----------------------------------------------------------------|
A#-----------------------------------------------------------------|
F#-----------------------------------------------------------------|
C#-----------------------------------------------------------------|
G#-----------------------------------------------------------------|
C#-0-0~~~~-0-0~~~~-0-0-0~~-0~~-0-0~~~~-0~~-0-0~~~~-0-0-0~~-0-0-0~~-|

===================================================================

Guitar 1
D#-----------------------------------------------------------------|
A#-----------------------------------------------------------------|
F#-----------------------------------------------------------------|
C#-------------------------------------8---8---8-----7---7---7-----|
G#-------------------------------------10--10--10----7---7---7-----|
C#-0-0~~~~-0-0~~~~-0-0-0~~-0~~-0-0~~~~-----------------------------|

===================================================================
===================================================================


Pre Chorus 1

Guitar 1
D#-----------------------------------------------------------------|
A#-----------------------------------------------------------------|
F#-----------------------------------------------------------------|
C#-5~~~~~~-5~~~~~~-5~~~~~~-5~~~~~~-8~~~~~~-8~~~~~~-8~~~~~~-8~~~~~~-|
G#-5~~~~~~-5~~~~~~-5~~~~~~-5~~~~~~-8~~~~~~-8~~~~~~-8~~~~~~-8~~~~~~-|
C#-5~~~~~~-5~~~~~~-5~~~~~~-5~~~~~~-8~~~~~~-8~~~~~~-8~~~~~~-8~~~~~~-|

===================================================================

Guitar 1
D#-----------------------------------------------------------------|
A#-----------------------------------------------------------------|
F#---------------------------------5---5---5---5-------------------|
C#-0~~~~~~-0~~~~~~-0~~~~~~-0~~~~~~-5---5---5---5---x---x---x---x---|
G#-0~~~~~~-0~~~~~~-0~~~~~~-0~~~~~~-3---3---3---3---x---x---x---x---|
C#-0~~~~~~-0~~~~~~-0~~~~~~-0~~~~~~-----------------x---x---x---x---|

===================================================================
===================================================================


Chorus

Guitar 1
D#-----------------------------------------------------------------|
A#-----------------------------------------------------------------|
F#-----------------------------------------------------------------|
C#-5---5---5---5---5---5---5---5---8---8---8---8---8---8---8---8---|
G#-5---5---5---5---5---5---5---5---8---8---8---8---8---8---8---8---|
C#-5---5---5---5---5---5---5---5---8---8---8---8---8---8---8---8---|

===================================================================

Guitar 1
D#-----------------------------------------------------------------|
A#-----------------------------------------------------------------|
F#---------------------------------5---5---5---5---5---5---5---5---|
C#-0---0---0---0---0---0---0---0---5---5---5---5---5---5---5---5---|
G#-0---0---0---0---0---0---0---0---3---3---3---3---3---3---3---3---|
C#-0---0---0---0---0---0---0---0-----------------------------------|

===================================================================

Guitar 1
D#-----------------------------------------------------------------|
A#-----------------------------------------------------------------|
F#-----------------------------------------------------------------|
C#-5---5---5---5---5---5---5---5---8---8---8---8---8---8---8---8---|
G#-5---5---5---5---5---5---5---5---8---8---8---8---8---8---8---8---|
C#-5---5---5---5---5---5---5---5---8---8---8---8---8---8---8---8---|

===================================================================

Guitar 1
D#-----------------------------------------------------------------|
A#-----------------------------------------------------------------|
F#-----------------------------------------------------------------|
C#-----------------------------------------------------------------|
G#-----------------5---------------8---8---8---7---7---------------|
C#-0---0-0-0---0-------0-0-0---0-----------------------7---7---8---|

===================================================================


Guitar 1
D#-----------------------------------------------------------------|
A#-----------------------------------------------------------------|
F#-----------------------------------------------------------------|
C#-5---5---5---5---5---5---5---5---8---8---8---8---8---8---8---8---|
G#-5---5---5---5---5---5---5---5---8---8---8---8---8---8---8---8---|
C#-5---5---5---5---5---5---5---5---8---8---8---8---8---8---8---8---|

===================================================================

Guitar 1
D#-----------------------------------------------------------------|
A#-----------------------------------------------------------------|
F#---------------------------------5---5---5---5---5---5---5---5---|
C#-0---0---0---0---0---0---0---0---5---5---5---5---5---5---5---5---|
G#-0---0---0---0---0---0---0---0---3---3---3---3---3---3---3---3---|
C#-0---0---0---0---0---0---0---0-----------------------------------|

===================================================================

Guitar 1
D#-----------------------------------------------------------------|
A#-----------------------------------------------------------------|
F#-----------------------------------------------------------------|
C#-5---5---5---5---5---5---5---5---5---5---5---5---5---3---3---3---|
G#-5---5---5---5---5---5---5---5---5---5---5---5---5---3---3---3---|
C#-5---5---5---5---5---5---5---5---5---5---5---5---5---3---3---3---|

===================================================================

Guitar 1
D#-----------------------------------------------------------------|
A#-----------------------------------------------------------------|
F#-----------------------------------------------------------------|
C#-7---7---7---7---7---7---7---7-----------------------------------|
G#-7---7---7---7---7---7---7---7-----------------------------------|
C#-7---7---7---7---7---7---7---7---7b--7b--7b--7b--7b--7r--7r--2---|

===================================================================
===================================================================


Breakdown 3

Guitar 1
D#-----------------------------------------------------------------|
A#-3-------------------3---3-----------3---3-------3---3-------3---|
F#-2-------------------2---2-----------2---2-------2---2-------2---|
C#-0-------------------0---0-----------0---0-------0---0-------0---|
G#-0-------------------0---0-----------0---0-------0---0-------0---|
C#-0-------------------0---0-----------0---0-------0---0-------0---|

===================================================================

Guitar 1
D#-----------------------------------------------------------------|
A#-3---------------3---3---3-----------3---3-------3---3-------3---|
F#-2---------------2---2---2-----------2---2-------2---2-------2---|
C#-0-----------x-x-0---0---0-----------0---0-------0---0-------0---|
G#-0-----------x-x-0---0---0-----------0---0-------0---0-------0---|
C#-0-----------x-x-0---0---0-----------0---0-------0---0-------0---|

===================================================================

Guitar 1
D#-----------------------------------------------------------------|
A#-3---------------------------------------------------------------|
F#-2---------------------------------------------------------------|
C#-0---x---x---x---0---0---0-------0---0---0-------0---0-------0---|
G#-0---x---x---x---0---0---0-------0---0---0-------0---0-------0---|
C#-0---x---x---x---0---0---0-------0---0---0-------0---0-------0---|
Pm                                                             .

===================================================================

Guitar 1
D#-----------------------------------------------------------------|
A#-----------------------------------------------------------------|
F#-----------------------------------------------------------------|
C#-0-----------0---0---0---0-----------0---0-------0---0-------0---|
G#-0-----------0---0---0---0-----------0---0-------0---0-------0---|
C#-0-----------0---0---0---0-----------0---0-------0---0-------0---|
Pm .           .   .   .   .           .   .       .   .       .

===================================================================
===================================================================


Verse 2

Guitar 1
D#-----------------------------------------------------------------|
A#-----------------------------------------------------------------|
F#-----------------------------------------------------------------|
C#-----------------5-7---------4-------10--7-------9---------------|
G#-5-------------------7---4---------------------------0---8---7---|
C#-----8-8-5---7-------------------0-----------0-------------------|
Pm                                 .           .

===================================================================

Guitar 1
D#-------------------------------------------------------------------|
A#-------------------------------------------------------------------|
F#-------------------------------------------------------------------|
C#-----------------------------------0---0-0-0---0---0-0-0---0-0-0---|
G#---------------------------10--12--0---0-0-0---0---0-0-0---0-0-0---|
C#-0---12-12-8---0---8-8-7-----------0---0-0-0---0---0-0-0---0-0-0---|
Pm                                   .   . . .   .   . . .   . . .

===================================================================

Guitar 1
D#-----------------------------------------------------------------|
A#-----------------------------------------------------------------|
F#-------------------------------------10--7-------7-9-7---5-7-5---|
C#-----------------5-7---------4-------------------------9-------7-|
G#-5-------------------7---4---------------------------------------|
C#-----8-8-5---7-------------------0-----------0-------------------|
Pm                                 .           .

===================================================================

Guitar 1
D#-----------------------------------------------------------------|
A#-----------------------------------------------------------------|
F#-----------------------------------------------------------------|
C#-------------------------------------------------7---7---7---7---|
G#-------------------------4-4-4-------5~/~12\~5~~-----------------|
C#-0---8-8-5---7---3-3-3-------------------------------------------|

===================================================================


Pre Chorus 2

Guitar 1
D#-----------------------------------------------------------------|
A#-----------------------------------------------------------------|
F#-----------------------------------------------------------------|
C#-0---0-0---0-0---0---0-0-0---0-0-0---0-0---0-0---0---0-0-0-----5-|
G#-0---0-0---0-0---0---0-0-0---0-0-0---0-0---0-0---0---0-0-0-------|
C#-0---0-0---0-0---0---0-0-0---0-0-0---0-0---0-0---0---0-0-0---0---|
Pm .   . .   . .   .   . . .   . . .   . .   . .   .   . . .

===================================================================

Guitar 1
D#-----------------------------------------------------------------|
A#-----------------------------------------------------------------|
F#-----------------------------------------------------------------|
C#-7~~-0-0---0-0---0---0-0-0---0-0-0---0-0---0-0---0---0-0-0-------|
G#-----0-0---0-0---0---0-0-0---0-0-0---0-0---0-0---0---0-0-0-------|
C#-----0-0---0-0---0---0-0-0---0-0-0---0-0---0-0---0---0-0-0---0-5-|
Pm     . .   . .   .   . . .   . . .   . .   . .   .   . . .

===================================================================

Guitar 1
D#-----------------------------------------------------------------|
A#-----------------------------------------------------------------|
F#-----------------------------------------------------------------|
C#-0---0-0---0-0---0---0-0-0---0-0-0---0-0---0-0---0---0-0-0---0-0-|
G#-0---0-0---0-0---0---0-0-0---0-0-0---0-0---0-0---0---0-0-0---0-0-|
C#-0---0-0---0-0---0---0-0-0---0-0-0---0-0---0-0---0---0-0-0---0-0-|

===================================================================

Guitar 1
D#-----------------------------------------------------------------|
A#-----------------------------------------------------------------|
F#-----------------2-------2---------------------------------------|
C#-----------------x-------x-------8\-------------/3---3---3---3---|
G#-0---0-0---------0---0-0-0---0-0-8\-------------/3---3---3---3---|
C#-1---1-1---------1---1-1-1---1-1-8\-------------/3---3---3---3---|
Pm     . .             . .     . .

===================================================================
===================================================================


Chorus

Guitar 1
D#-----------------------------------------------------------------|
A#-----------------------------------------------------------------|
F#-----------------------------------------------------------------|
C#-5---5---5---5---5---5---5---5---8---8---8---8---8---8---8---8---|
G#-5---5---5---5---5---5---5---5---8---8---8---8---8---8---8---8---|
C#-5---5---5---5---5---5---5---5---8---8---8---8---8---8---8---8---|

===================================================================

Guitar 1
D#-----------------------------------------------------------------|
A#-----------------------------------------------------------------|
F#---------------------------------5---5---5---5---5---5---5---5---|
C#-0---0---0---0---0---0---0---0---5---5---5---5---5---5---5---5---|
G#-0---0---0---0---0---0---0---0---3---3---3---3---3---3---3---3---|
C#-0---0---0---0---0---0---0---0-----------------------------------|

===================================================================

Guitar 1
D#-----------------------------------------------------------------|
A#-----------------------------------------------------------------|
F#-----------------------------------------------------------------|
C#-5---5---5---5---5---5---5---5---8---8---8---8---8---8---8---8---|
G#-5---5---5---5---5---5---5---5---8---8---8---8---8---8---8---8---|
C#-5---5---5---5---5---5---5---5---8---8---8---8---8---8---8---8---|

===================================================================

Guitar 1
D#-----------------------------------------------------------------|
A#-----------------------------------------------------------------|
F#-----------------------------------------------------------------|
C#-----------------------------------------------------------------|
G#-----------------5---------------8---8---8---7---7---------------|
C#-0---0-0-0---0-------0-0-0---0-----------------------7---7---8---|

===================================================================


Guitar 1
D#-----------------------------------------------------------------|
A#-----------------------------------------------------------------|
F#-----------------------------------------------------------------|
C#-5---5---5---5---5---5---5---5---8---8---8---8---8---8---8---8---|
G#-5---5---5---5---5---5---5---5---8---8---8---8---8---8---8---8---|
C#-5---5---5---5---5---5---5---5---8---8---8---8---8---8---8---8---|

===================================================================

Guitar 1
D#-----------------------------------------------------------------|
A#-----------------------------------------------------------------|
F#---------------------------------5---5---5---5---5---5---5---5---|
C#-0---0---0---0---0---0---0---0---5---5---5---5---5---5---5---5---|
G#-0---0---0---0---0---0---0---0---3---3---3---3---3---3---3---3---|
C#-0---0---0---0---0---0---0---0-----------------------------------|

===================================================================

Guitar 1
D#-----------------------------------------------------------------|
A#-----------------------------------------------------------------|
F#-----------------------------------------------------------------|
C#-5---5---5---5---5---5---5---5---5---5---5---5---5---3---3---3---|
G#-5---5---5---5---5---5---5---5---5---5---5---5---5---3---3---3---|
C#-5---5---5---5---5---5---5---5---5---5---5---5---5---3---3---3---|

===================================================================

Guitar 1
D#-----------------------------------------------------------------|
A#-----------------------------------------------------------------|
F#-----------------------------------------------------------------|
C#-7---7---7---7---7---7---7---7-----------------------------------|
G#-7---7---7---7---7---7---7---7-----------------------------------|
C#-7---7---7---7---7---7---7---7---7---7---7---7---7---7---7---7---|

===================================================================
===================================================================


Interlude

Guitar 1
D#-----------------------------------------------------------------|
A#-----------------------------------------------------------------|
F#-----------------------------------------------------------------|
C#-7---------------7-----------7-----------7-----------------------|
G#-----------------------------------------------------------------|
C#---8-7-0-----------8-7-0-------8-7-0-------8-7-0-------8~~-8-8~~-|

===================================================================

Guitar 1
D#-----------------------------------------------------------------|
A#-----------------------------------------------------------------|
F#-----------------------------------------------------------------|
C#-7---------------7-----------7-----------3-2-----------3~~-------|
G#---------------------------------------------3-5-----------------|
C#---8-7-0-----------8-7-0-------8-7-0-----------------------3-3~~-|

===================================================================

Guitar 1
D#-----------------------------------------------------------------|
A#-----------------------------------------------------------------|
F#-----------------------------------------------------------------|
C#-7---------------7-----------7-----------7-----------------------|
G#-----------------------------------------------------------------|
C#---8-7-0-----------8-7-0-------8-7-0-------8-7-0-------8~~-8-8~~-|

===================================================================

Guitar 1
D#-----------------------------------------------------------------|
A#-----------------------------------------------------------------|
F#-----------------------------------------------------------------|
C#-7---------------7-----------7-----------3-2---------------------|
G#---------------------------------------------3-5-----------------|
C#---8-7-0-----------8-7-0-------8-7-0-----------------------------|

===================================================================
===================================================================


Breakdown 3

Guitar 1
D#-----------------------------------------------------------------|
A#-----------------------------------------------------------------|
F#-----------------------------------------------------------------|
C#-0-0-0-0---------0-0-0-0-----0-0-0-0-----0-0-0-0-----------------|
G#-0-0-0-0---------0-0-0-0-----0-0-0-0-----0-0-0-0-----------------|
C#-0-0-0-0---------0-0-0-0-----0-0-0-0-----0-0-0-0-----------------|
Pm . . . .         . . . .     . . . .     . . . .

===================================================================

Guitar 1
D#-----------------------------------------------------------------|
A#-----------------------------------------------------------------|
F#-----------------------------------------------------------------|
C#-0-0-0-0-----0-0-0---0-0-0-0-----0-0-0---0-0-0-0-----------------|
G#-0-0-0-0-----0-0-0---0-0-0-0-----0-0-0---0-0-0-0-----------------|
C#-0-0-0-0-----0-0-0---0-0-0-0-----0-0-0---0-0-0-0-----3---3b--3b--|
Pm . . . .     . . .   . . . .     . . .   . . . .

===================================================================

Guitar 1
D#-----------------------------------------------------------------|
A#-----------------------------------------------------------------|
F#-----------------------------------------------------------------|
C#-0-0-0-0~~~~~~~~-0-0-0-0~~~~-0-0-0-0~~~~-0-0-0-0~~~~~~~~~~~~~~~~-|
G#-0-0-0-0~~~~~~~~-0-0-0-0~~~~-0-0-0-0~~~~-0-0-0-0~~~~~~~~~~~~~~~~-|
C#-0-0-0-0~~~~~~~~-0-0-0-0~~~~-0-0-0-0~~~~-0-0-0-0~~~~~~~~~~~~~~~~-|
Pm . . . .         . . . .     . . . .     . . . .

===================================================================

Guitar 1
D#-----------------------------------------------------------------|
A#-----------------------------------------------------------------|
F#-----------------------------------------------------------------|
C#-0-0-0-0---------0-0-0-0-----0-0-0-0-----0-0-0-0-0---------------|
G#-0-0-0-0---------0-0-0-0-----0-0-0-0-----0-0-0-0-0---------------|
C#-0-0-0-0---------0-0-0-0-----0-0-0-0-----0-0-0-0-0---------------|
Pm . . . .         . . . .     . . . .     . . . . .

===================================================================
===================================================================


Pre Chorus 3

Guitar 1
D#-----------------------------------------------------------------|
A#-----------------------------------------------------------------|
F#-----------------------------------------------------------------|
C#-----------------------------------------------------------------|
G#-----------------------------------------------------------------|
C#-5~~~~~~-5---5---5---5---5---5---8---8---8---8---8---8---8---8---|

===================================================================

Guitar 1
D#-----------------------------------------------------------------|
A#-----------------------------------------------------------------|
F#-----------------------------------------------------------------|
C#-----------------------------------------------------------------|
G#---------------------------------3---3---3---3---3---3---3---3---|
C#-0---0---0---0---0---0---0---0-----------------------------------|

===================================================================

Guitar 1
D#-----------------------------------------------------------------|
A#-----------------------------------------------------------------|
F#-----------------------------------------------------------------|
C#-----------------------------------------------------------------|
G#-----------------------------------------------------------------|
C#-5---5---5---5---5---5---5---5---8---8---8---8---8---8---8---8---|

===================================================================

Guitar 1
D#-----------------------------------------------------------------|
A#-----------------------------------------------------------------|
F#-----------------------------------------------------------------|
C#-----------------------------------------------------------------|
G#-----------------------------------------------------------------|
C#-0~~~~~~~~~~~~~~~~~~~~~~~~~~~~~~~~~~~~~~~~~~~~~~~~~~~~~~~~~~~~~~-

===================================================================
===================================================================


Chorus

Guitar 1
D#-----------------------------------------------------------------|
A#-----------------------------------------------------------------|
F#-----------------------------------------------------------------|
C#-5---5---5---5---5---5---5---5---8---8---8---8---8---8---8---8---|
G#-5---5---5---5---5---5---5---5---8---8---8---8---8---8---8---8---|
C#-5---5---5---5---5---5---5---5---8---8---8---8---8---8---8---8---|

===================================================================

Guitar 1
D#-----------------------------------------------------------------|
A#-----------------------------------------------------------------|
F#---------------------------------5---5---5---5---5---5---5---5---|
C#-0---0---0---0---0---0---0---0---5---5---5---5---5---5---5---5---|
G#-0---0---0---0---0---0---0---0---3---3---3---3---3---3---3---3---|
C#-0---0---0---0---0---0---0---0-----------------------------------|

===================================================================

Guitar 1
D#-----------------------------------------------------------------|
A#-----------------------------------------------------------------|
F#-----------------------------------------------------------------|
C#-5---5---5---5---5---5---5---5---8---8---8---8---8---8---8---8---|
G#-5---5---5---5---5---5---5---5---8---8---8---8---8---8---8---8---|
C#-5---5---5---5---5---5---5---5---8---8---8---8---8---8---8---8---|

===================================================================

Guitar 1
D#-----------------------------------------------------------------|
A#-----------------------------------------------------------------|
F#-----------------------------------------------------------------|
C#-----------------------------------------------------------------|
G#-----------------5---------------8---8---8---7---7---------------|
C#-0---0-0-0---0-------0-0-0---0-----------------------7---7---8---|

===================================================================

Guitar 1
D#-----------------------------------------------------------------|
A#-----------------------------------------------------------------|
F#-----------------------------------------------------------------|
C#-5---5---5---5---5---5---5---5---8---8---8---8---8---8---8---8---|
G#-5---5---5---5---5---5---5---5---8---8---8---8---8---8---8---8---|
C#-5---5---5---5---5---5---5---5---8---8---8---8---8---8---8---8---|

===================================================================

Guitar 1
D#-----------------------------------------------------------------|
A#-----------------------------------------------------------------|
F#---------------------------------5---5---5---5---5---5---5---5---|
C#-0---0---0---0---0---0---0---0---5---5---5---5---5---5---5---5---|
G#-0---0---0---0---0---0---0---0---3---3---3---3---3---3---3---3---|
C#-0---0---0---0---0---0---0---0-----------------------------------|

===================================================================

Guitar 1
D#-----------------------------------------------------------------|
A#-----------------------------------------------------------------|
F#-----------------------------------------------------------------|
C#-5---5---5---5---5---5---5---5---5---5---5---5---5---3---3---3---|
G#-5---5---5---5---5---5---5---5---5---5---5---5---5---3---3---3---|
C#-5---5---5---5---5---5---5---5---5---5---5---5---5---3---3---3---|

===================================================================

Guitar 1
D#-----------------------------------------------------------------|
A#-----------------------------------------------------------------|
F#-----------------------------------------------------------------|
C#-7---7---7---7---7---7---7---7---7---7---7---7---7---7---7---7---|
G#-7---7---7---7---7---7---7---7---7---7---7---7---7---7---7---7---|
C#-7---7---7---7---7---7---7---7---7---7---7---7---7---7---7---7---|

===================================================================
===================================================================


Bridge

Guitar 1
D#-----------------------------------------------------------------|
A#-----------------------------------------------------------------|
F#-----------------------------------------------------------------|
C#-0~~~~~~~~~~~~~~~~~~~~~~~~~~~~~~~~~~~~~~~~~~~~~~~~~~~~~~~~~~~~~~-
G#-0~~~~~~~~~~~~~~~~~~~~~~~~~~~~~~~~~~~~~~~~~~~~~~~~~~~~~~~~~~~~~~-
C#-0~~~~~~~~~~~~~~~~~~~~~~~~~~~~~~~~~~~~~~~~~~~~~~~~~~~~~~~~~~~~~~-

===================================================================

Guitar 1
D#-13~~~~~~~~~~~~~~~~~~~~~~~~~~~~~---------------------------------|
A#---15~~~~~~~~~~~~~~~~~~~~~~~~~~~---------------------------------|
F#-----14~~~~~~~~~~~~~~~~~~~~~~~~~---------------------------------|
C#-------0~~~~~~~~~~~~~~~~~~~~~~~~-0---0---0---0---0----0----0-----|
G#---------0~~~~~~~~~~~~~~~~~~~~~~-0---0---0---0---0----0----0-----|
C#-----------0~~~~~~~~~~~~~~~~~~~~-0---0---0---0---0----0----0-----|
Pm                                 .   .   .   .   .    .    .

===================================================================
===================================================================


Outro

Guitar 1
D#-----------------------------------------------------------------|
A#-----------------------------------------------------------------|
F#-----------------------------------------------------------------|
C#-0---0-0---0-0---0---0-0-0---0-0-0---0-0---0-0---0---0-0-0-------|
G#-0---0-0---0-0---0---0-0-0---0-0-0---0-0---0-0---0---0-0-0-------|
C#-0---0-0---0-0---0---0-0-0---0-0-0---0-0---0-0---0---0-0-0---0-5-|
Pm .   . .   . .   .   . . .   . . .   . .   . .   .   . . .

===================================================================

Guitar 1
D#-----------------------------------------------------------------|
A#-----------------------------------------------------------------|
F#-----------------------------------------------------------------|
C#-0---0-0---0-0---0---0-0-0---0-0-0---0-0---0-0---0---0-0-0---0-0-|
G#-0---0-0---0-0---0---0-0-0---0-0-0---0-0---0-0---0---0-0-0---0-0-|
C#-0---0-0---0-0---0---0-0-0---0-0-0---0-0---0-0---0---0-0-0---0-0-|
Pm .   . .   . .   .   . . .   . . .   . .   . .   .   . . .

===================================================================

Guitar 1
D#-----------------------------------------------------------------|
A#-----------------------------------------------------------------|
F#-----------------------------------------------------------------|
C#-0---------------------------------------------------------------|
G#-0---------------------------------------------------------------|
C#-0---------------------------------------------------------------|

===================================================================
===================================================================
===================================================================


===================================================================
Guitar 2
===================================================================


Intro


===================================================================
Rest
===================================================================


===================================================================
===================================================================


Verse 1

(x2)

Guitar 2
D#-----------------------------------------------------------------|
A#-----------------------------------------------------------------|
F#-----------------------------------------------------------------|
C#-----------------5-7---------4-------10--7-------9---------------|
G#-5-------------------7---4---------------------------0---8---7---|
C#-----8-8-5---7-------------------0-----------0-------------------|
Pm                                 .           .

===================================================================

Guitar 2
D#-------------------------------------------------------------------|
A#-------------------------------------------------------------------|
F#-------------------------------------------------------------------|
C#---------------------------10--12--0---0-0-0---0---0-0-0---0-0-0---|
G#-----------------------------------0---0-0-0---0---0-0-0---0-0-0---|
C#-0---12-12-8---0---8-8-7-----------0---0-0-0---0---0-0-0---0-0-0---|
Pm                                   .   . . .   .   . . .   . . .

===================================================================

Guitar 2
D#-----------------------------------------------------------------|
A#-----------------------------------------------------------------|
F#-----------------------------------------------------------------|
C#-----------------5-7---------4-------10--7-------9---------------|
G#-5-------------------7---4---------------------------0---8---7---|
C#-----8-8-5---7-------------------0-----------0-------------------|
Pm                                 .           .

===================================================================

Guitar 2
D#-------------------------------------------------------------------|
A#-------------------------------------------------------------------|
F#-------------------------------------------------------------------|
C#---------------------------10--12----------------------------------|
G#---------------------------------------------------5-5-5---5-5-5---|
C#-0---12-12-8---0---8-8-7-----------0---0-0-0---0-------------------|

===================================================================

Guitar 2
D#-----------------------------------------------------------------|
A#-----------------------------------------------------------------|
F#-----------------------------------------------------------------|
C#-----------------5-7---------4-------10--7-------9---------------|
G#-5-------------------7---4---------------------------0---8---7---|
C#-----8-8-5---7-------------------0-----------0-------------------|
Pm                                 .           .

===================================================================

Guitar 2
D#-------------------------------------------------------------------|
A#-------------------------------------------------------------------|
F#-------------------------------------------------------------------|
C#---------------------------10--12--0---0-0-0---0---0-0-0---0-0-0---|
G#-----------------------------------0---0-0-0---0---0-0-0---0-0-0---|
C#-0---12-12-8---0---8-8-7-----------0---0-0-0---0---0-0-0---0-0-0---|
Pm                                   .   . . .   .   . . .   . . .

===================================================================

Guitar 2
D#-----------------------------------------------------------------------|
A#-----------------------------------------------------------------------|
F#-------------------------------------10--7-------10-12-10----9-10-9----|
C#-----------------5-7---------4----------------------------12--------11-|
G#-5-------------------7---4---------------------------------------------|
C#-----8-8-5---7-------------------0-----------0-------------------------|
Pm                                 .           .

===================================================================

Guitar 2
D#-----------------------------------------------------------------|
A#-----------------------------------------------------------------|
F#-----------------------------------------------------------------|
C#-----------------------------------------------------------------|
G#-------------------------4-4-4---------------1---0---------------|
C#-0---8-8-5---7---3-3-3-----------0---2---3-----------5---3---2---|
Pm                                 .   .   .   .   .   .   .   .

===================================================================
===================================================================


Breakdown 1

Guitar 2
D#-----------------------------------------------------------------|
A#-----------------------------------------------------------------|
F#-----------------------------------------------------------------|
C#-0-0-----0-0-----0-0-----0---0-0-----0---0-0-----0-0-------------|
G#-0-0-----0-0-----0-0-----0---0-0-----0---0-0-----0-0-------------|
C#-0-0-----0-0-----0-0-----0---0-0-----0---0-0-----0-0-----3-3-3---|
Pm . .     . .     . .     .   . .     .   . .     . .

===================================================================

Guitar 2
D#-----------------------------------------------------------------|
A#-----------------------------------------------------------------|
F#-----------------------------------------------------------------|
C#-0-0-----0-0-----0-0-----0---0-0-----0---0-0-----0-0-------------|
G#-0-0-----0-0-----0-0-----0---0-0-----0---0-0-----0-0-------------|
C#-0-0-----0-0-----0-0-----0---0-0-----0---0-0-----0-0-----7-7-7---|
Pm . .     . .     . .     .   . .     .   . .     . .

===================================================================

Guitar 2
D#-----------------------------------------------------------------|
A#-----------------------------------------------------------------|
F#-----------------------------------------------------------------|
C#-0-0-----0-0-----0-0-----0---0-0-----0---0-0-----0-0-------------|
G#-0-0-----0-0-----0-0-----0---0-0-----0---0-0-----0-0-------------|
C#-0-0-----0-0-----0-0-----0---0-0-----0---0-0-----0-0-----3-3-3---|
Pm . .     . .     . .     .   . .     .   . .     . .

===================================================================

Guitar 2
D#-----------------------------------------------------------------|
A#-----------------------------------------------------------------|
F#-----------------------------------------------------------------|
C#-0-0-----0-0-----0-0-----0---0-0---------------------------------|
G#-0-0-----0-0-----0-0-----0---0-0---------------------------------|
C#-0-0-----0-0-----0-0-----0---0-0-----2---2---2---x-x-2---0---0---|
Pm . .     . .     . .     .   . .

===================================================================
===================================================================


Breakdown 2

Guitar 2 (x2)
D#-----------------------------------------------------------------|
A#-----------------------------------------------------------------|
F#-----------------------------------------------------------------|
C#-0-0~~~~-0-0~~~~-0-0-0~~-0~~-0-0~~~~-0~~-0-0~~~~-0-0-0~~-0-0-0~~-|
G#-0-0~~~~-0-0~~~~-0-0-0~~-0~~-0-0~~~~-0~~-0-0~~~~-0-0-0~~-0-0-0~~-|
C#-0-0~~~~-0-0~~~~-0-0-0~~-0~~-0-0~~~~-0~~-0-0~~~~-0-0-0~~-0-0-0~~-|
Pm . .     . .     . . .   .   . .     .   . .     . . .   . . .

===================================================================

Guitar 2
D#-----------------------------------------------------------------|
A#-----------------------------------------------------------------|
F#-----------------------------------------------------------------|
C#-----------------------------------------------------------------|
G#-----------------------------------------------------------------|
C#-0-0~~~~-0-0~~~~-0-0-0~~-0~~-0-0~~~~-0~~-0-0~~~~-0-0-0~~-0-0-0~~-|

===================================================================

Guitar 2
D#-----------------------------------------------------------------|
A#-----------------------------------------------------------------|
F#-------------------------------------6---6---6-----9---9---9-----|
C#-------------------------------------7---7---7-----11--11--11----|
G#-----------------------------------------------------------------|
C#-0-0~~~~-0-0~~~~-0-0-0~~-0~~-0-0~~~~-----------------------------|

===================================================================
===================================================================


Pre Chorus 1


===================================================================
Rest
===================================================================


===================================================================

Guitar 2
D#-----------------------------------------------------------------|
A#-----------------------------------------------------------------|
F#---------------------------------5---5---5---5-------------------|
C#---------------------------------5---5---5---5---x---x---x---x---|
G#---------------------------------3---3---3---3---x---x---x---x---|
C#-------------------------------------------------x---x---x---x---|

===================================================================
===================================================================


Chorus

Guitar 2
D#-----------------------------------------------------------------|
A#-11--10--------------------------11--10--------------------------|
F#---------10--10--12----------------------10--10--12--------------|
C#-------------------------12------------------------------12------|
G#-----------------------------------------------------------------|
C#-----------------------------------------------------------------|

===================================================================

Guitar 2
D#---------------------------------------------10--12--------------|
A#-11--10--------------------------11--10--------------13--13------|
F#---------10--10--12----------------------12----------------------|
C#---------------------12--12--------------------------------------|
G#-----------------------------------------------------------------|
C#-----------------------------------------------------------------|

===================================================================

Guitar 2
D#-----------------------------------------------------------------|
A#-11--10--------------------------11--10----------------------10--|
F#---------10--10--12----------------------10--10--12--12--12------|
C#-------------------------12--------------------------------------|
G#-----------------------------------------------------------------|
C#-----------------------------------------------------------------|

===================================================================

Guitar 2
D#-----12--13------13--15------15--17------17--18--17~~~~~~\~~~~~~-|
A#-15----------15----------15----------15--------------------------|
F#-----------------------------------------------------------------|
C#-----------------------------------------------------------------|
G#-----------------------------------------------------------------|
C#-----------------------------------------------------------------|

===================================================================

Guitar 2
D#-----------------------------------------------------------------|
A#-11--10--------------------------11--10--------------------------|
F#---------10--10--12----------------------10--10--12--------------|
C#-------------------------12------------------------------12------|
G#-----------------------------------------------------------------|
C#-----------------------------------------------------------------|

===================================================================

Guitar 2
D#---------------------------------------------10--12--------------|
A#-11--10--------------------------11--10--------------13--13------|
F#---------10--10--12----------------------12----------------------|
C#---------------------12--12--------------------------------------|
G#-----------------------------------------------------------------|
C#-----------------------------------------------------------------|

===================================================================

Guitar 2
D#-----------------------------------------------------------------|
A#-11--10--------------------------11--10--------------------------|
F#---------10--10--12----------------------10--10--12--------------|
C#-------------------------12------------------------------12------|
G#-----------------------------------------------------------------|
C#-----------------------------------------------------------------|

===================================================================

Guitar 2
D#-----------------------------------------------------------------|
A#-11--10------10------11------------------------------------------|
F#---------10------10------10--10--7---10--7---10--6---9---6---9---|
C#-----------------------------------------------------------------|
G#-----------------------------------------------------------------|
C#-----------------------------------------------------------------|

===================================================================
===================================================================


Breakdown 3

Guitar 2
D#-----------------------------------------------------------------|
A#-3-------------------3---3-----------3---3-------3---3-------3---|
F#-2-------------------2---2-----------2---2-------2---2-------2---|
C#-0-------------------0---0-----------0---0-------0---0-------0---|
G#-0-------------------0---0-----------0---0-------0---0-------0---|
C#-0-------------------0---0-----------0---0-------0---0-------0---|

===================================================================

Guitar 2
D#-----------------------------------------------------------------|
A#-3---------------3---3---3-----------3---3-------3---3-------3---|
F#-2---------------2---2---2-----------2---2-------2---2-------2---|
C#-0-------x-x-----0---0---0-----------0---0-------0---0-------0---|
G#-0-------x-x-----0---0---0-----------0---0-------0---0-------0---|
C#-0-------x-x-----0---0---0-----------0---0-------0---0-------0---|

===================================================================

Guitar 2
D#-----------------------------------------------------------------|
A#-3---3---3---3---------------------------------------------------|
F#-2---2---2---2---------------------------------------------------|
C#-0---0---0---0---0---0---0---0-------0---0-------0---0-------0---|
G#-0---0---0---0---0---0---0---0-------0---0-------0---0-------0---|
C#-0---0---0---0---0---0---0---0-------0---0-------0---0-------0---|
Pm                                                             .

===================================================================

Guitar 2
D#-----------------------------------------------------------------|
A#-----------------------------------------------------------------|
F#-----------------------------------------------------------------|
C#-0---0---0-----------0---0-----------0---0-------0---0-------0---|
G#-0---0---0-----------0---0-----------0---0-------0---0-------0---|
C#-0---0---0-----------0---0-----------0---0-------0---0-------0---|
Pm .   .   .           .   .           .   .       .   .       .

===================================================================
===================================================================


Verse 2

Guitar 2
D#-----------------------------------------------------------------|
A#-----------------------------------------------------------------|
F#-----------------------------------------------------------------|
C#-----------------5-7---------4-------10--7-------9---------------|
G#-5-------------------7---4---------------------------0---8---7---|
C#-----8-8-5---7-------------------0-----------0-------------------|
Pm                                 .           .

===================================================================

Guitar 2
D#-------------------------------------------------------------------|
A#-------------------------------------------------------------------|
F#-------------------------------------------------------------------|
C#---------------------------10--12--0---0-0-0---0---0-0-0---0-0-0---|
G#-----------------------------------0---0-0-0---0---0-0-0---0-0-0---|
C#-0---12-12-8---0---8-8-7-----------0---0-0-0---0---0-0-0---0-0-0---|
Pm                                   .   . . .   .   . . .   . . .

===================================================================

Guitar 2
D#-----------------------------------------------------------------------|
A#-----------------------------------------------------------------------|
F#-------------------------------------10--7-------10-12-10----9-10-9----|
C#-----------------5-7---------4----------------------------12--------11-|
G#-5-------------------7---4---------------------------------------------|
C#-----8-8-5---7-------------------0-----------0-------------------------|
Pm                                 .           .

===================================================================

Guitar 2
D#-----------------------------------------------------------------|
A#-----------------------------------------------------------------|
F#-----------------------------------------------------------------|
C#-----------------------------------------------------------------|
G#-------------------------4-4-4-----------------------------------|
C#-0---8-8-5---7---3-3-3-------------------------------------------|

===================================================================
===================================================================


Pre Chorus 2

Guitar 2
D#-----------------------------------------------------------------|
A#-----------------------------------------------------------------|
F#-----------------------------------------------------------------|
C#---------------------------------------------------------------5-|
G------------------------------------------------------------------|
C#-0---8-7---8-5---10--10-8-7--7-8-0---8-7---8-5---10--10-8-7--0---|
Pm .   . .   . .   .   .  . .  . . .   . .   . .   .   .  . .

===================================================================

Guitar 2
D#-----------------------------------------------------------------|
A#-----------------------------------------------------------------|
F#-----------------------------------------------------------------|
C#-7~~-------------------------------------------------------------|
G------------------------------------------------------------------|
C#-----8-7---8-5---10--10-8-7--7-8-0---8-7---8-5---10--10-8-7--0-5-|
Pm     . .   . .   .   .  . .  . . .   . .   . .   .   .  . .

===================================================================

Guitar 2
D#-----------------------------------------------------------------|
A#-----------------------------------------------------------------|
F#-----------------------------------------------------------------|
C#-----------------------------------------------------------------|
G------------------------------------------------------------------|
C#-0---8-7---8-5---10--10-8-7--7-8-0---8-7---8-5---10--10-8-7--7-8-|

===================================================================

Guitar 2
D#-----------------------------------------------------------------|
A#-----------------------------------------------------------------|
F#-----------------2-------2---------------------------------------|
C#-----------------x-------x-------8\-------------/3---3---3---3---|
G#-0---0-0---------0---0-0-0---0-0-8\-------------/3---3---3---3---|
C#-1---1-1---------1---1-1-1---1-1-8\-------------/3---3---3---3---|
Pm     . .             . .     . .

===================================================================
===================================================================


Chorus

Guitar 2
D#-----------------------------------------------------------------|
A#-11--10--------------------------11--10--------------------------|
F#---------10--10--12----------------------10--10--12--------------|
C#-------------------------12------------------------------12------|
G#-----------------------------------------------------------------|
C#-----------------------------------------------------------------|

===================================================================

Guitar 2
D#---------------------------------------------10--12--------------|
A#-11--10--------------------------11--10--------------13--13------|
F#---------10--10--12----------------------12----------------------|
C#---------------------12--12--------------------------------------|
G#-----------------------------------------------------------------|
C#-----------------------------------------------------------------|

===================================================================

Guitar 2
D#-----------------------------------------------------------------|
A#-11--10--------------------------11--10----------------------10--|
F#---------10--10--12----------------------10--10--12--12--12------|
C#-------------------------12--------------------------------------|
G#-----------------------------------------------------------------|
C#-----------------------------------------------------------------|

===================================================================

Guitar 2
D#-----12--13------13--15------15--17------17--18--17~~~~~~\~~~~~~-|
A#-15----------15----------15----------15--------------------------|
F#-----------------------------------------------------------------|
C#-----------------------------------------------------------------|
G#-----------------------------------------------------------------|
C#-----------------------------------------------------------------|

===================================================================

Guitar 2
D#-----------------------------------------------------------------|
A#-11--10--------------------------11--10--------------------------|
F#---------10--10--12----------------------10--10--12--------------|
C#-------------------------12------------------------------12------|
G#-----------------------------------------------------------------|
C#-----------------------------------------------------------------|

===================================================================

Guitar 2
D#---------------------------------------------10--12--------------|
A#-11--10--------------------------11--10--------------13--13------|
F#---------10--10--12----------------------12----------------------|
C#---------------------12--12--------------------------------------|
G#-----------------------------------------------------------------|
C#-----------------------------------------------------------------|

===================================================================

Guitar 2
D#-----------------------------------------------------------------|
A#-11--10--------------------------11--10--------------------------|
F#---------10--10--12----------------------10--10--12--------------|
C#-------------------------12------------------------------12------|
G#-----------------------------------------------------------------|
C#-----------------------------------------------------------------|

===================================================================

Guitar 2
D#-----------------------------------------------------------------|
A#-11--10------10------11------------------------------------------|
F#---------10------10------10--10--7---10--7---10--6---9---6---9---|
C#-----------------------------------------------------------------|
G#-----------------------------------------------------------------|
C#-----------------------------------------------------------------|

===================================================================
===================================================================


Interlude

Guitar 2
D#-----------------------------------------------------------------|
A#-----------------------------------------------------------------|
F#-------------------------2-3-2-0-------------0~~-2~~-0~~-2~~-0~~-|
C#-----0~~-0~~-----3~~~~~~---------0~~-2~~-3~~---------------------|
G#-3~~~~~~~~~~-7~~~~~~-7~~~----------------------------------------|
C#-----------------------------------------------------------------|

===================================================================

Guitar 2
D#-------------------------0~~-------------------------15~~~~~~\~~-|
A#-5-6-5---------------6~~~~~~-----------------11~~~~~-------------|
F#-------7-7---------------------------12~-14~~~~~-14~-------------|
C#-----------5-7~~-5~~-------------11~-----------------------------|
G#-----------------------------12~---------------------------------|
C#-----------------------------------------------------------------|

===================================================================

Guitar 2
D#-----------------------------------------------------------------|
A#-----------------------------------------------------------------|
F#-------------------------2-3-2-0-------------0~~-2~~-0~~-2~~-0~~-|
C#-----0~~-0~~-----3~~~~~~---------0~~-2~~-3~~---------------------|
G#-3~~~~~~~~~~-7~~~~~~-7~~~----------------------------------------|
C#-----------------------------------------------------------------|

===================================================================

Guitar 2
D#-------------------------9~~-12~-12-13-12-10-----------------------------|
A#-5-6-5---------------8~~---------------------14-11-10----11~~~~~-11~~~~~-|
F#-------7-7--------------------------------------------12-----12~~~~~-12~-|
C#-----------5-8~~-7~~-----------------------------------------------------|
G#-------------------------------------------------------------------------|
C#-------------------------------------------------------------------------|

===================================================================
===================================================================


Breakdown 3

Guitar 2
D#-----------------------------------------------------------------|
A#-----------------------------------------------------------------|
F#-----------------------------------------------------------------|
C#-0-0-0-0---------0-0-0-0-----0-0-0-0-----0-0-0-0-----------------|
G#-0-0-0-0---------0-0-0-0-----0-0-0-0-----0-0-0-0-----------------|
C#-0-0-0-0---------0-0-0-0-----0-0-0-0-----0-0-0-0-----------------|
Pm . . . .         . . . .     . . . .     . . . .

===================================================================

Guitar 2
D#-----------------------------------------------------------------|
A#-----------------------------------------------------------------|
F#-----------------------------------------------------------------|
C#-0-0-0-0-----0-0-0---0-0-0-0-----0-0-0---0-0-0-0-----------------|
G#-0-0-0-0-----0-0-0---0-0-0-0-----0-0-0---0-0-0-0-----------------|
C#-0-0-0-0-----0-0-0---0-0-0-0-----0-0-0---0-0-0-0-----3---3b--3b--|
Pm . . . .     . . .   . . . .     . . .   . . . .

===================================================================

Guitar 2
D#-----------------------------------------------------------------|
A#-----------------------------------------------------------------|
F#-----------------------------------------------------------------|
C#-0-0-0-0~~~~~~~~-0-0-0-0~~~~-0-0-0-0~~~~-0-0-0-0~~~~~~~~~~~~~~~~-|
G#-0-0-0-0~~~~~~~~-0-0-0-0~~~~-0-0-0-0~~~~-0-0-0-0~~~~~~~~~~~~~~~~-|
C#-0-0-0-0~~~~~~~~-0-0-0-0~~~~-0-0-0-0~~~~-0-0-0-0~~~~~~~~~~~~~~~~-|
Pm . . . .         . . . .     . . . .     . . . .

===================================================================

Guitar 2
D#-----------------------------------------------------------------|
A#-----------------------------------------------------------------|
F#-----------------------------------------------------------------|
C#-0-0-0-0---------0-0-0-0-----0-0-0-0-----0-0-0-0-0---------------|
G#-0-0-0-0---------0-0-0-0-----0-0-0-0-----0-0-0-0-0---------------|
C#-0-0-0-0---------0-0-0-0-----0-0-0-0-----0-0-0-0-0---------------|
Pm . . . .         . . . .     . . . .     . . . . .

===================================================================
===================================================================


Pre Chorus 3

Guitar 2
D#-----------------------------------------------------------------|
A#-----------------------------------------------------------------|
F#-----------------------------------------------------------------|
C#-----------------------------------------------------------------|
G#-----------------------------------------5---------------5-------|
C#-----5---8---5-------5---8---5-------8-------8-------8-------8---|
Pm     .   .   .       .   .   .       .   .   .       .   .   .

===================================================================

Guitar 2
D#-----------------------------------------------------------------|
A#-----------------------------------------------------------------|
F#-----------------------------------------------------------------|
C#---------7---------------7-------------------------------7-------|
G#-----8-------8-------8-------8-----------7-----------8-------8---|
C#-------------------------------------10------10------------------|
Pm     .   .   .       .   .   .       .   .   .       .   .   .

===================================================================

Guitar 2
D#-----------------------------------------------------------------|
A#-----------------------------------------------------------------|
F#-----------------------------------------------------------------|
C#-----------------------------------------------------------------|
G#-----------------------------------------5---------------5-------|
C#-----5---8---5-------5---8---5-------8-------8-------8-------8---|
Pm     .   .   .       .   .   .       .   .   .       .   .   .

===================================================================

Guitar 2 (Fade In)
D#-----------------------------------------------------------------|
A#-----------------------------------------------------------------|
F#-----------------------------------------------------------------|
C#-0~~~~~~~~~~~~~~~~~~~~~~~~~~~~~~~~~~~~~~~~~~~~~~~~~~~~~~~~~~~~~~-
G#-0~~~~~~~~~~~~~~~~~~~~~~~~~~~~~~~~~~~~~~~~~~~~~~~~~~~~~~~~~~~~~~-
C#-0~~~~~~~~~~~~~~~~~~~~~~~~~~~~~~~~~~~~~~~~~~~~~~~~~~~~~~~~~~~~~~-

===================================================================
===================================================================


Chorus

Guitar 2
D#-----------------------------------------------------------------|
A#-11--10--------------------------11--10--------------------------|
F#---------10--10--12----------------------10--10--12--------------|
C#-------------------------12------------------------------12------|
G#-----------------------------------------------------------------|
C#-----------------------------------------------------------------|

===================================================================

Guitar 2
D#---------------------------------------------10--12--------------|
A#-11--10--------------------------11--10--------------13--13------|
F#---------10--10--12----------------------12----------------------|
C#---------------------12--12--------------------------------------|
G#-----------------------------------------------------------------|
C#-----------------------------------------------------------------|

===================================================================

Guitar 2
D#-----------------------------------------------------------------|
A#-11--10--------------------------11--10----------------------10--|
F#---------10--10--12----------------------10--10--12--12--12------|
C#-------------------------12--------------------------------------|
G#-----------------------------------------------------------------|
C#-----------------------------------------------------------------|

===================================================================

Guitar 2
D#-----12--13------13--15------15--17------17--18--17~~~~~~\~~~~~~-|
A#-15----------15----------15----------15--------------------------|
F#-----------------------------------------------------------------|
C#-----------------------------------------------------------------|
G#-----------------------------------------------------------------|
C#-----------------------------------------------------------------|

===================================================================


Guitar 2
D#-----------------------------------------------------------------|
A#-11--10--------------------------11--10--------------------------|
F#---------10--10--12----------------------10--10--12--------------|
C#-------------------------12------------------------------12------|
G#-----------------------------------------------------------------|
C#-----------------------------------------------------------------|

===================================================================

Guitar 2
D#---------------------------------------------10--12--------------|
A#-11--10--------------------------11--10--------------13--13------|
F#---------10--10--12----------------------12----------------------|
C#---------------------12--12--------------------------------------|
G#-----------------------------------------------------------------|
C#-----------------------------------------------------------------|

===================================================================

Guitar 2
D#-----------------------------------------------------------------|
A#-11--10--------------------------11--10--------------------------|
F#---------10--10--12----------------------10--10--12--------------|
C#-------------------------12------------------------------12------|
G#-----------------------------------------------------------------|
C#-----------------------------------------------------------------|

===================================================================

Guitar 2
D#-----------------------------------------------------------------|
A#-11--10------10------11------------------------------------------|
F#---------10------10------10--10--7---10--7---10--6---9---6---9---|
C#-----------------------------------------------------------------|
G#-----------------------------------------------------------------|
C#-----------------------------------------------------------------|

===================================================================
===================================================================


Bridge

Guitar 2
D#-----------------------------------------------------------------|
A#-----------------------------------------------------------------|
F#-----------------------------------------------------------------|
C#-0~~~~~~~~~~~~~~~~~~~~~~~~~~~~~~~~~~~~~~~~~~~~~~~~~~~~~~~~~~~~~~-
G#-0~~~~~~~~~~~~~~~~~~~~~~~~~~~~~~~~~~~~~~~~~~~~~~~~~~~~~~~~~~~~~~-
C#-0~~~~~~~~~~~~~~~~~~~~~~~~~~~~~~~~~~~~~~~~~~~~~~~~~~~~~~~~~~~~~~-

===================================================================

Guitar 2
D#-13~~~~~~~~~~~~~~~~~~~~~~~~~~~~~---------------------------------|
A#---15~~~~~~~~~~~~~~~~~~~~~~~~~~~---------------------------------|
F#-----14~~~~~~~~~~~~~~~~~~~~~~~~~---------------------------------|
C#-------0~~~~~~~~~~~~~~~~~~~~~~~~---------------------------------|
G#---------0~~~~~~~~~~~~~~~~~~~~~~---------------------------------|
C#-----------0~~~~~~~~~~~~~~~~~~~~---------------------------------|

===================================================================
===================================================================


Outro

Guitar 2
D#-----------------------------------------------------------------|
A#-11~~~-10~~~---------------------11~~~-10~~~---------------------|
F#-----------------------------------------------------------------|
C#-------------12~~~~~~~~~~~~~~~~~-------------12~~~~~~~~~~~~~~~~~-|
G#-----------------------------------------------------------------|
C#-----------------------------------------------------------------|

===================================================================

Guitar 2
D#-----------------------------------------------------------------|
A#-11~~~-10~~~---------------------11~~~-10~~~---------------------|
F#-----------------------------------------------------------------|
C#-------------12~~~~~~~~~~~~~~~~~-------------12~~~~~~~~~~~~~-0-0-|
G#-------------------------------------------------------------0-0-|
C#-------------------------------------------------------------0-0-|

===================================================================

Guitar 2
D#-----------------------------------------------------------------|
A#-----------------------------------------------------------------|
F#-----------------------------------------------------------------|
C#-0---------------------------------------------------------------|
G#-0---------------------------------------------------------------|
C#-0---------------------------------------------------------------|

===================================================================
===================================================================
===================================================================


----------------------------------------------------------------------------
                                Legacy
                           Memphis May Fire
----------------------------------------------------------------------------

When I hear interlude in this song, it makes me believe. The passion in the piece is
just expediential. I feel the interlude in this song is the climax to the whole album. It
hits hard, it makes you want to shout out the lyrics and creates chills. This is just 
brilliant writing by the infamous Memphis May Fire. Enjoy!

Guitar 1 Rhythmic (G# D# G# C# F  A#)
Guitar 2 Lead     (G# D# G# C# F  A#)


===================================================================
Guitar 1
===================================================================


Intro


===================================================================
Rest
===================================================================


===================================================================


Guitar 1
A#-----------------------------------------------------------------|
F -----------------------------------------------------------------|
C#-----------------------------------------------------------------|
G#-------------------------------------7---5-------5---3-----------|
D#---------------------------------0-----------0-----------4-------|
G#-------------------------------------------------------------3---|
Pm                                 .           .

===================================================================
===================================================================


Verse 1

(x2)

Guitar 1
A#-----------------------------------------------------------------|
F -----------------------------------------------------------------|
C#-------------------------------------------------------------7---|
G#-------------7-------------------3-------------------7---10------|
D#-------------------------------------3---0-----------------------|
G#-0---0---0-------0---8---7---8---------------3---0---------------|

===================================================================

Guitar 1
A#-----------------------------------------------------------------|
F -----------------------------------------------------------------|
C#-----------------------------------------------------------------|
G#-----10------7---------------12----------------------------------|
D#-----------------------------------------------------------------|
G#-0-------0-------0---12--10------8---8---8---10--7---7---7---5---|

===================================================================

Guitar 1
A#-----------------------------------------------------------------|
F -----------------------------------------------------------------|
C#-------------------------------------------------------------7---|
G#-------------7-------------------3-------------------7---10------|
D#-------------------------------------3---0-----------------------|
G#-0---0---0-------0---8---7---8---------------3---0---------------|

===================================================================

Guitar 1
A#-----------------------------------------------------------------|
F -----------------------------------------------------------------|
C#-----------------------------------------------------------------|
G#-------------------------------------7---5-------5---3-----------|
D#---------------------------------0-----------0-----------4-------|
G#-0---7---0---6---0---5---3---0-------------------------------3---|
Pm                                 .           .

===================================================================
===================================================================


Break Off 1

Guitar 1
A#---------------------------------|
F ---------------------------------|
C#---------------------------------|
G#-----------------0-0-0-0-0-------|
D#-----------------0-0-0-0-0-------|
G#-----------------0-0-0-0-0-------|
Pm                 . . . . .

===================================================================
===================================================================


Pre Chorus 1

Guitar 1
A#-----------------------------------------------------------------|
F -----------------------------------------------------------------|
C#-----------------------------------------------------------------|
G#-0---0---0---0---0---0---0~~~~~~-0~~~~~~-0---0~~~~~~-------------|
D#-0---0---0---0---0---0---0~~~~~~-0~~~~~~-0---0~~~~~~-------------|
G#-0---0---0---0---0---0---0~~~~~~-0~~~~~~-0---0~~~~~~-8---10--7---|
Pm .   .   .   .   .   .   .       .       .   .

===================================================================

Guitar 1
A#-----------------------------------------------------------------|
F#-----------------------------------------------------------------|
C#-----------------------------------------------------------------|
G#-0~~~~~~~~~~~~~~-0~~~~~~-0---0---0~~~~~~-0~~~~~~-----------------|
D#-0~~~~~~~~~~~~~~-0~~~~~~-0---0---0~~~~~~-0~~~~~~-----8---10--12--|
G#-0~~~~~~~~~~~~~~-0~~~~~~-0---0---0~~~~~~-0~~~~~~-0---------------|
Pm .               .       .   .   .       .       .

===================================================================

Guitar 1
A#-----------------22~~~~~-----------------22~~~~~---------22b~~~~-|
F -----------------------------------------------------------------|
C#-----------------------------------------------------------------|
G#-0~~~~~~-0---0-----------0~~~~~~-0---0-----------0~~~~~~---------|
D#-0~~~~~~-0---0-----------0~~~~~~-0---0-----------0~~~~~~---------|
G#-0~~~~~~-0---0-----------0~~~~~~-0---0-----------0~~~~~~---------|
Pm .       .   .           .       .   .           .

===================================================================

Guitar 1
A#-22~~~~~-----------------20~~~~~---------------------------------|
F -----------------------------------------------------------------|
C#-----------------------------------------------------------------|
G#---------0~~~~~~-0---0-------------------------------------------|
D#---------0~~~~~~-0---0-----------12--13--12--10--9---10--9-------|
G#---------0~~~~~~-0---0---------------------------------------12--|
Pm         .       .   .

===================================================================

Guitar 1
A#-----------------------------------------------------------------|
F -----------------------------------------------------------------|
C#-----------------------------------------------------------------|
G#-0---0---0---0---0---0---0~~~~~~-0~~~~~~-0---0~~~~~~-------------|
D#-0---0---0---0---0---0---0~~~~~~-0~~~~~~-0---0~~~~~~-------------|
G#-0---0---0---0---0---0---0~~~~~~-0~~~~~~-0---0~~~~~~-8---10--7---|
Pm .   .   .   .   .   .   .       .       .   .

===================================================================

Guitar 1
A#-----------------------------------------------------------------|
F#-----------------------------------------------------------------|
C#-----------------------------------------------------------------|
G#-0~~~~~~~~~~~~~~-0~~~~~~-0---0---0~~~~~~-0~~~~~~-----------------|
D#-0~~~~~~~~~~~~~~-0~~~~~~-0---0---0~~~~~~-0~~~~~~-----8---10--12--|
G#-0~~~~~~~~~~~~~~-0~~~~~~-0---0---0~~~~~~-0~~~~~~-0---------------|
Pm .               .       .   .   .       .       .

===================================================================

Guitar 1
A#-----------------------------------------------------------------|
F -----------------------------------------------------------------|
C#-----------------------------------------------------------------|
G#-0~~~~~~-0---0-----------0~~~~~~-0---0-----------0~~~~~~-0---0---|
D#-0~~~~~~-0---0-----------0~~~~~~-0---0-----------0~~~~~~-0---0---|
G#-0~~~~~~-0---0-----------0~~~~~~-0---0-----------0~~~~~~-0---0---|
Pm .       .   .           .       .   .           .       .   .

===================================================================

Guitar 1
A#-----------------------------------------------------------------|
F -----------------------------------------------------------------|
C#-----------------------------------------------------------------|
G#---------0~~~~~~-0---0-----------8~~~~~~-------------------------|
D#---------0~~~~~~-0---0-----------------------10~~~~~-----9~~~~~~-|
G#---------0~~~~~~-0---0-------------------0-----------0-----------|
Pm         .       .   .                   .           .

===================================================================
===================================================================


Chorus

Guitar 1
A#-----------------------------------------------------------------|
F -----------------------------------------------------------------|
C#-----------------------------------------------------------------|
G#-8---8---8---8---8---8---8---8---8---8---8---8---8---8---8---8---|
D#-8---8---8---8---8---8---8---8---8---8---8---8---8---8---8---8---|
G#-8---8---8---8---8---8---8---8---8---8---8---8---8---8---8---8---|

===================================================================

Guitar 1
A#-----------------------------------------------------------------|
F -----------------------------------------------------------------|
C#-----------------------------------------------------------------|
G#-0---0---0---0---3---3---3---3---5---5---5---5---5---5---5---5---|
D#-0---0---0---0---3---3---3---3---5---5---5---5---5---5---5---5---|
G#-0---0---0---0---3---3---3---3---5---5---5---5---5---5---5---5---|

===================================================================

Guitar 1
A#-----------------------------------------------------------------|
F -----------------------------------------------------------------|
C#-----------------------------------------------------------------|
G#-8---8---8---8---8---8---8---8---8---8---8---8---8---8---8---8---|
D#-8---8---8---8---8---8---8---8---8---8---8---8---8---8---8---8---|
G#-8---8---8---8---8---8---8---8---8---8---8---8---8---8---8---8---|

===================================================================

Guitar 1
A#-----------------------------------------------------------------|
F -----------------------------------------------------------------|
C#-----------------------------------------------------------------|
G#-----------------------------------------------------------------|
D#-12--12--12--12--8---8---8---8---10--10--10--10--7---7---7---7---|
G#-----------------------------------------------------------------|

===================================================================

Guitar 1
A#-----------------------------------------------------------------|
F -----------------------------------------------------------------|
C#-----------------------------------------------------------------|
G#-8---8---8---8---8---8---8---8---8---8---8---8---8---8---8---8---|
D#-8---8---8---8---8---8---8---8---8---8---8---8---8---8---8---8---|
G#-8---8---8---8---8---8---8---8---8---8---8---8---8---8---8---8---|

===================================================================

Guitar 1
A#-----------------------------------------------------------------|
F -----------------------------------------------------------------|
C#-----------------------------------------------------------------|
G#-----------------------------------------------------------------|
D#---------------------------------0---0---0---1---1---1---3---3---|
G#-0---0---0---3---3---3---5---5-----------------------------------|

===================================================================

Guitar 1
A#-----------------------------------------------------------------|
F -----------------------------------------------------------------|
C#-----------------------------------------------------------------|
G#-8---8---8---8---8---8---8---8---8---8---8---8---8---8---8---8---|
D#-8---8---8---8---8---8---8---8---8---8---8---8---8---8---8---8---|
G#-8---8---8---8---8---8---8---8---8---8---8---8---8---8---8---8---|

===================================================================

Guitar 1
A#-----------------------------------------------------------------|
F -----------------------------------------------------------------|
C#---------------------------------5---5---5---5---5---5---5---5---|
G#-0---0---0---0---0---0---0---0---5---5---5---5---5---5---5---5---|
D#-0---0---0---0---0---0---0---0---3---3---3---3---3---3---3---3---|
G#-0---0---0---0---0---0---0---0-----------------------------------|

===================================================================
===================================================================


Break Off 2

Guitar 1
A#-----------------------------------------------------------------|
F -----------------------------------------------------------------|
C#-----------------------------------------------------------------|
G#-0~~~~~~~~~~~~~~~~~~~~~~-0~~~~~~-0~~~~~~~~~~~~~~-0---------------|
D#-0~~~~~~~~~~~~~~~~~~~~~~-0~~~~~~-0~~~~~~~~~~~~~~-0---------------|
G#-0~~~~~~~~~~~~~~~~~~~~~~-0~~~~~~-0~~~~~~~~~~~~~~-0---------------|

===================================================================
===================================================================


Verse 2

Guitar 1
A#-----------------------------------------------------------------|
F -----------------------------------------------------------------|
C#-------------------------------------------------------------7---|
G#-------------7-------------------3-------------------7---10------|
D#-------------------------------------3---0-----------------------|
G#-0---0---0-------0---8---7---8---------------3---0---------------|

===================================================================

Guitar 1
A#-----------------------------------------------------------------|
F -----------------------------------------------------------------|
C#-----------------------------------------------------------------|
G#-----10------7---------------12----------------------------------|
D#-----------------------------------------------------------------|
G#-0-------0-------0---12--10------8---8---8---10--7---7---7---5---|

===================================================================

Guitar 1
A#-----------------------------------------------------------------|
F -----------------------------------------------------------------|
C#-------------------------------------------------------------7---|
G#-------------7-------------------3-------------------7---10------|
D#-------------------------------------3---0-----------------------|
G#-0---0---0-------0---8---7---8---------------3---0---------------|

===================================================================

Guitar 1
A#-----------------------------------------------------------------|
F -----------------------------------------------------------------|
C#-----------------------------------------------------------------|
G#-------------------------------------7---5-------5---3-----------|
D#---------------------------------0-----------0-----------4-------|
G#-0---7---0---6---0---5---3---0-------------------------------3---|
Pm                                 .           .

===================================================================
===================================================================


Break Off 3


===================================================================
Rest
===================================================================


===================================================================
===================================================================


Pre Chorus 2

Guitar 1
A#-----------------------------------------------------------------|
F -----------------------------------------------------------------|
C#-----------------------------------------------------------------|
G#-0-0-0-0-----0-0-0-0-----0~~-0-0-----0~~-0-0-----0-0-0-0---0-0-0-|
D#-0-0-0-0-----0-0-0-0-----0~~-0-0-----0~~-0-0-----0-0-0-0---0-0-0-|
G#-0-0-0-0-----0-0-0-0-----0~~-0-0-----0~~-0-0-----0-0-0-0---0-0-0-|
Pm . . . .     . . . .     .   . .     .   . .     . . . .   . . .

===================================================================

Guitar 1
A#-----------------------------------------------------------------|
F -----------------------------------------------------------------|
C#-----------------------------------------------------------------|
G#-0-0-0-0-----0-0-0-0-----0~~-0-0-----0~~-0-0-----0-0-0-0---x-x-x-|
D#-0-0-0-0-----0-0-0-0-----0~~-0-0-----0~~-0-0-----0-0-0-0---x-x-x-|
G#-0-0-0-0-----0-0-0-0-----0~~-0-0-----0~~-0-0-----0-0-0-0---x-x-x-|
Pm . . . .     . . . .     .   . .     .   . .     . . . .

===================================================================

Guitar 1
A#-----------------------------------------------------------------|
F -----------------------------------------------------------------|
C#-----------------------------------------------------------------|
G#-0-0-0-0~~~~-0-0-0-0~~~~-0~~-0-0~~~~-0~~-0-0~~~~-0-0-0-0~~-0~~-0-|
D#-0-0-0-0~~~~-0-0-0-0~~~~-0~~-0-0~~~~-0~~-0-0~~~~-0-0-0-0~~-0~~-0-|
G#-0-0-0-0~~~~-0-0-0-0~~~~-0~~-0-0~~~~-0~~-0-0~~~~-0-0-0-0~~-0~~-0-|
Pm . . . .     . . . .     .   . .     .   . .     . . . .   .   .

===================================================================

Guitar 1
A#-----------------------------------------------------------------|
F -----------------------------------------------------------------|
C#-----------------------------------------------------------------|
G#-0-0-0-0-----------------0~~-0-0-----------------8~~-------------|
D#-0-0-0-0-----------------0~~-0-0-----------------------10~---9~~-|
G#-0-0-0-0-----0~~-0-0-----0~~-0-0-----0~~-0-0---------0-----0-----|
Pm . . . .                 .   . .                     .     .

===================================================================
===================================================================


Chorus

Guitar 1
A#-----------------------------------------------------------------|
F -----------------------------------------------------------------|
C#-----------------------------------------------------------------|
G#-8---8---8---8---8---8---8---8---8---8---8---8---8---8---8---8---|
D#-8---8---8---8---8---8---8---8---8---8---8---8---8---8---8---8---|
G#-8---8---8---8---8---8---8---8---8---8---8---8---8---8---8---8---|

===================================================================

Guitar 1
A#-----------------------------------------------------------------|
F -----------------------------------------------------------------|
C#-----------------------------------------------------------------|
G#-0---0---0---0---3---3---3---3---5---5---5---5---5---5---5---5---|
D#-0---0---0---0---3---3---3---3---5---5---5---5---5---5---5---5---|
G#-0---0---0---0---3---3---3---3---5---5---5---5---5---5---5---5---|

===================================================================

Guitar 1
A#-----------------------------------------------------------------|
F -----------------------------------------------------------------|
C#-----------------------------------------------------------------|
G#-8---8---8---8---8---8---8---8---8---8---8---8---8---8---8---8---|
D#-8---8---8---8---8---8---8---8---8---8---8---8---8---8---8---8---|
G#-8---8---8---8---8---8---8---8---8---8---8---8---8---8---8---8---|

===================================================================

Guitar 1
A#-----------------------------------------------------------------|
F -----------------------------------------------------------------|
C#-----------------------------------------------------------------|
G#-----------------------------------------------------------------|
D#-12--12--12--12--8---8---8---8---10--10--10--10--7---7---7---7---|
G#-----------------------------------------------------------------|

===================================================================

Guitar 1
A#-----------------------------------------------------------------|
F -----------------------------------------------------------------|
C#-----------------------------------------------------------------|
G#-8---8---8---8---8---8---8---8---8---8---8---8---8---8---8---8---|
D#-8---8---8---8---8---8---8---8---8---8---8---8---8---8---8---8---|
G#-8---8---8---8---8---8---8---8---8---8---8---8---8---8---8---8---|

===================================================================

Guitar 1
A#-----------------------------------------------------------------|
F -----------------------------------------------------------------|
C#-----------------------------------------------------------------|
G#-----------------------------------------------------------------|
D#---------------------------------0---0---0---1---1---1---3---3---|
G#-0---0---0---3---3---3---5---5-----------------------------------|

===================================================================

Guitar 1
A#-----------------------------------------------------------------|
F -----------------------------------------------------------------|
C#-----------------------------------------------------------------|
G#-8---8---8---8---8---8---8---8---8---8---8---8---8---8---8---8---|
D#-8---8---8---8---8---8---8---8---8---8---8---8---8---8---8---8---|
G#-8---8---8---8---8---8---8---8---8---8---8---8---8---8---8---8---|

===================================================================

Guitar 1
A#-----------------------------------------------------------------|
F -----------------------------------------------------------------|
C#---------------------------------5---5---5---5---5---5---5---5---|
G#-0---0---0---0---0---0---0---0---5---5---5---5---5---5---5---5---|
D#-0---0---0---0---0---0---0---0---3---3---3---3---3---3---3---3---|
G#-0---0---0---0---0---0---0---0-----------------------------------|

===================================================================
===================================================================


Break Off 2

Guitar 1
A#-----------------------------------------------------------------|
F -----------------------------------------------------------------|
C#-----------------------------------------------------------------|
G#-0~~~~~~~~~~~~~~-0~~~~~~-0~~~~~~~~~~~~~~-------------------------|
D#-0~~~~~~~~~~~~~~-0~~~~~~-0~~~~~~~~~~~~~~-------------7b~~~~~~~~~-|
G#-0~~~~~~~~~~~~~~-0~~~~~~-0~~~~~~~~~~~~~~-7~~~~~~~~~~-------------|

===================================================================
===================================================================


Interlude 1

(x2)

Guitar 1 (Delay Effect)
A#-----------------------------------------------------------------|
F -----------------------------------------------------------------|
C#-7---------------7---------------5---------------5---------------|
G#-----------------------------------------------------------------|
D#-----------------------------------------------------------------|
G#-----------------------------------------------------------------|

===================================================================

Guitar 1
A#-----------------------------------------------------------------|
F -----------------------------------------------------------------|
C#-------------------------------------------------5---------------|
G#-5---------------5---------------8-------------------------------|
D#-----------------------------------------------------------------|
G#-----------------------------------------------------------------|

===================================================================
===================================================================


Interlude 2

Guitar 1
A#-----------------------------------------------------------------|
F -----------------------------------------------------------------|
C#-----------------------------------------------------------------|
G#-12~~~~~-12--12--------------------------------------------------|
D#-12~~~~~-12--12--------------------------------------------------|
G#-12~~~~~-12--12--------------------------------------------------|

===================================================================

Guitar 1
A#-----------------------------------------------------------------|
F -----------------------------------------------------------------|
C#-----------------------------------------------------------------|
G#-10--10--10--10--------------------------------------10--10--10--|
D#-10--10--10--10--------------------------------------10--10--10--|
G#-10--10--10--10--------------------------------------10--10--10--|

===================================================================

Guitar 1
A#-----------------------------------------------------------------|
F -----------------------------------------------------------------|
C#-----------------------------------------------------------------|
G#-5---5---5---5-----------5---5---5---5---------------1*/~~~~~~~~-|
D#-5---5---5---5-----------5---5---5---5---------------1*/~~~~~~~~-|
G#-5---5---5---5-----------5---5---5---5---------------1*/~~~~~~~~-|

===================================================================

Guitar 1
A#-----------------------------------------------------------------|
F -----------------------------------------------------------------|
C#-----------------------------------------------------------------|
G#-8---8---8---8---8---8---8---8---10--10--10--10--10--10--10--10--|
D#-8---8---8---8---8---8---8---8---10--10--10--10--10--10--10--10--|
G#-8---8---8---8---8---8---8---8---10--10--10--10--10--10--10--10--|

===================================================================

Guitar 1
A#-----------------------------------------------------------------|
F -----------------------------------------------------------------|
C#-----------------------------------------------------------------|
G#-15--15--15--15--15--15--15--15--15--15--15--15--15--15--15--15--|
D#-12--12--12--12--12--12--12--12--12--12--12--12--12--12--12--12--|
G#-12--12--12--12--12--12--12--12--12--12--12--12--12--12--12--12--|

===================================================================

Guitar 1
A#-----------------------------------------------------------------|
F -----------------------------------------------------------------|
C#-----------------------------------------------------------------|
G#-14--14--14--14--14--14--14--14--14--14--14--14--14--14--14--14--|
D#-10--10--10--10--10--10--10--10--10--10--10--10--10--10--10--10--|
G#-10--10--10--10--10--10--10--10--10--10--10--10--10--10--10--10--|

===================================================================

Guitar 1
A#-----------------------------------------------------------------|
F -----------------------------------------------------------------|
C#-----------------------------------------------------------------|
G#-8---8---8---8---8---8---8---8---8---8---8---8---8---8---8---8---|
D#-5---5---5---5---5---5---5---5---5---5---5---5---5---5---5---5---|
G#-5---5---5---5---5---5---5---5---5---5---5---5---5---5---5---5---|

===================================================================

Guitar 1 (Fade In)
A#-----------------------------------------------------------------|
F -----------------------------------------------------------------|
C#-----------------------------------------------------------------|
G#-------------------------------------------------0~~~~~~~~~~~~~~-|
D#-------------------------------------------------0~~~~~~~~~~~~~~-|
G#-------------------------------------------------0~~~~~~~~~~~~~~-|

===================================================================
===================================================================


Breakdown

Guitar 1
A#-----------------------------------------------------------------|
F -----------------------------------------------------------------|
C#-----------------------------------------------------------------|
G#-0-----------0---0-------0-------------------0---0-------0-------|
D#-0-----------0---0-------0-------------------0---0-------0-------|
G#-0-----------0---0-------0-------------------0---0-------0-------|
Pm .           .   .       .                   .   .       .

===================================================================

Guitar 1
A#-----------------------------------------------------------------|
F -----------------------------------------------------------------|
C#-----------------------------------------------------------------|
G#-----------------0-0-0-0-0-------0---0-------0---0---------------|
D#-----------------0-0-0-0-0-------0---0-------0---0---3---3~~~~~~-|
G#-----------------0-0-0-0-0-------0---0-------0---0---------------|
Pm                 . . . . .       .   .       .   .

===================================================================

Guitar 1
A#-----------------------------------------------------------------|
F -----------------------------------------------------------------|
C#-----------------------------------------------------------------|
G#-0---0---0-----------0---0---------------------------------------|
D#-0---0---0-----------0---0-------1~~~~~~~~~~-3~~~~~~~~~~-5~~~~~~-|
G#-0---0---0-----------0---0-------0~~~~~~~~~~-0~~~~~~~~~~-0~~~~~~-|
Pm .   .   .           .   .       .           .           .

===================================================================

Guitar 1
A#-----------------------------------------------------------------|
F -----------------------------------------------------------------|
C#-----------------------------------------------------------------|
G#-----------------------------------------------------------------|
D#-----5---5---5---5-----------------------------------------------|
G#---------------------8---8---8---8---5---5---5---5---7---7---7---|

===================================================================

Guitar 1
A#-----------------------------------------------------------------|
F ---------------------------------10~~~~~~~~~-------------10~~~~~-|
C#---------------------------------13~~~~~~~~~-------------13~~~~~-|
G#-0~~~~~~~~~~~~~~~~~~~~~~-0-------------------0-------------------|
D#-0~~~~~~~~~~~~~~~~~~~~~~-0-------------------0-------------------|
G#-0~~~~~~~~~~~~~~~~~~~~~~-0-------------------0-------------------|
Pm .                       .                   .

===================================================================

Guitar 1
A#-----------------------------------------------------------------|
F -----------------------------------------------------------------|
C#-----------------------------------------------------------------|
G#-----------------------------------------------------------------|
D#---------1~~~~~~-0-----------------------------------------------|
G#---------------------2---3~~~~~~-5---7~~~~~~-5---7---5---2---3---|

===================================================================

Guitar 1
A#-----------------------------------------------------------------|
F -----------------------------------------------------------------|
C#-----------------------------------------------------------------|
G#-0---------------0---0---0-------0-------0---0-------0---0-------|
D#-0---------------0---0---0-------0-------0---0-------0---0-------|
G#-0---------------0---0---0-------0-------0---0-------0---0-------|
Pm                 .   .   .       .       .   .       .   .

===================================================================

Guitar 1
A#-----------------------------------------------------------------|
F -----------------------------------------------------------------|
C#-----------------------------------------------------------------|
G#-0~~~~~~-2---3---0---3---5---2---5---7---0---8---7---5-----------|
D#---------------------------------------------------------8---7---|
G#-----------------------------------------------------------------|
Pm         .   .   .   .   .   .   .   .   .   .   .   .   .   .

===================================================================
===================================================================


Pre Chorus 3

Guitar 1
A#-----------------------------------------------------------------|
F -----------------------------------------------------------------|
C#-----------------------------------------------------------------|
G#-----------------------------------------------------------------|
D#-5---------------------------------------------------------------|
G#-----------------------------------------------------------------|

===================================================================


===================================================================
Rest
===================================================================


===================================================================

Guitar 1 (Fade In)
A#-----------------------------------------------------------------|
F -----------------------------------------------------------------|
C#-3---3---3---3---3---3---3---3---3---3---3---3---3---3---3---3---|
G#-3---3---3---3---3---3---3---3---3---3---3---3---3---3---3---3---|
D#-1---1---1---1---1---1---1---1---1---1---1---1---1---1---1---1---|
G#-----------------------------------------------------------------|

===================================================================

Guitar 1
A#-----------------------------------------------------------------|
F -----------------------------------------------------------------|
C#-7---7---7---7---7---7---7---7---7---7---7---7---7---7---7---7---|
G#-7---7---7---7---7---7---7---7---7---7---7---7---7---7---7---7---|
D#-5---5---5---5---5---5---5---5---5---5---5---5---5---5---5---5---|
G#-----------------------------------------------------------------|

===================================================================
===================================================================


Chorus

Guitar 1
A#-----------------------------------------------------------------|
F -----------------------------------------------------------------|
C#-----------------------------------------------------------------|
G#-8---8---8---8---8---8---8---8---8---8---8---8---8---8---8---8---|
D#-8---8---8---8---8---8---8---8---8---8---8---8---8---8---8---8---|
G#-8---8---8---8---8---8---8---8---8---8---8---8---8---8---8---8---|

===================================================================

Guitar 1
A#-----------------------------------------------------------------|
F -----------------------------------------------------------------|
C#-----------------------------------------------------------------|
G#-0---0---0---0---3---3---3---3---5---5---5---5---5---5---5---5---|
D#-0---0---0---0---3---3---3---3---5---5---5---5---5---5---5---5---|
G#-0---0---0---0---3---3---3---3---5---5---5---5---5---5---5---5---|

===================================================================

Guitar 1
A#-----------------------------------------------------------------|
F -----------------------------------------------------------------|
C#-----------------------------------------------------------------|
G#-8---8---8---8---8---8---8---8---8---8---8---8---8---8---8---8---|
D#-8---8---8---8---8---8---8---8---8---8---8---8---8---8---8---8---|
G#-8---8---8---8---8---8---8---8---8---8---8---8---8---8---8---8---|

===================================================================

Guitar 1
A#-----------------------------------------------------------------|
F -----------------------------------------------------------------|
C#-----------------------------------------------------------------|
G#-----------------------------------------------------------------|
D#-12--12--12--12--8---8---8---8---10--10--10--10--7---7---7---7---|
G#-----------------------------------------------------------------|

===================================================================

Guitar 1
A#-----------------------------------------------------------------|
F -----------------------------------------------------------------|
C#-----------------------------------------------------------------|
G#-8---8---8---8---8---8---8---8---8---8---8---8---8---8---8---8---|
D#-8---8---8---8---8---8---8---8---8---8---8---8---8---8---8---8---|
G#-8---8---8---8---8---8---8---8---8---8---8---8---8---8---8---8---|

===================================================================

Guitar 1
A#-----------------------------------------------------------------|
F -----------------------------------------------------------------|
C#-----------------------------------------------------------------|
G#-----------------------------------------------------------------|
D#---------------------------------0---0---0---1---1---1---3---3---|
G#-0---0---0---3---3---3---5---5-----------------------------------|

===================================================================

Guitar 1
A#-----------------------------------------------------------------|
F -----------------------------------------------------------------|
C#-----------------------------------------------------------------|
G#-8---8---8---8---8---8---8---8---8---8---8---8---8---8---8---8---|
D#-8---8---8---8---8---8---8---8---8---8---8---8---8---8---8---8---|
G#-8---8---8---8---8---8---8---8---8---8---8---8---8---8---8---8---|

===================================================================

Guitar 1
A#-----------------------------------------------------------------|
F -----------------------------------------------------------------|
C#---------------------------------5---5---5---5---5---5---5---5---|
G#-0---0---0---0---0---0---0---0---5---5---5---5---5---5---5---5---|
D#-0---0---0---0---0---0---0---0---3---3---3---3---3---3---3---3---|
G#-0---0---0---0---0---0---0---0-----------------------------------|

===================================================================
===================================================================


Outro

Guitar 1
A#-----------------------------------------------------------------|
F -----------------------------------------------------------------|
C#-----------------------------------------------------------------|
G#-0---0---0---0---0---0---0~~~~~~-0~~~~~~-0---0~~~~~~-------------|
D#-0---0---0---0---0---0---0~~~~~~-0~~~~~~-0---0~~~~~~-------------|
G#-0---0---0---0---0---0---0~~~~~~-0~~~~~~-0---0~~~~~~-8---10--7---|
Pm .   .   .   .   .   .   .       .       .   .

===================================================================

Guitar 1
A#-----------------------------------------------------------------|
F#-----------------------------------------------------------------|
C#-----------------------------------------------------------------|
G#-0~~~~~~~~~~~~~~-0~~~~~~-0---0---0~~~~~~-0~~~~~~-----------------|
D#-0~~~~~~~~~~~~~~-0~~~~~~-0---0---0~~~~~~-0~~~~~~-----8---10--12--|
G#-0~~~~~~~~~~~~~~-0~~~~~~-0---0---0~~~~~~-0~~~~~~-0---------------|
Pm .               .       .   .   .       .       .

===================================================================

Guitar 1
A#-----------------------------------------------------------------|
F -----------------------------------------------------------------|
C#-----------------------------------------------------------------|
G#-0~~~~~~-0---0-----------0~~~~~~-0---0-----------0~~~~~~---------|
D#-0~~~~~~-0---0-----------0~~~~~~-0---0-----------0~~~~~~---------|
G#-0~~~~~~-0---0-----------0~~~~~~-0---0-----------0~~~~~~---------|
Pm .       .   .           .       .   .           .

===================================================================

Guitar 1
A#-----------------------------------------------------------------|
F -----------------------------------------------------------------|
C#-----------------------------------------------------------------|
G#---------0~~~~~~-0---0-------------------------------------------|
D#---------0~~~~~~-0---0-----------12--13--12--10--9---10--9-------|
G#---------0~~~~~~-0---0---------------------------------------12--|
Pm         .       .   .

===================================================================

Guitar 1
A#-----------------------------------------------------------------|
F -----------------------------------------------------------------|
C#-----------------------------------------------------------------|
G#-0---0---0---0---0---0---0~~~~~~-0~~~~~~-0---0~~~~~~-------------|
D#-0---0---0---0---0---0---0~~~~~~-0~~~~~~-0---0~~~~~~-------------|
G#-0---0---0---0---0---0---0~~~~~~-0~~~~~~-0---0~~~~~~-8---10--7---|
Pm .   .   .   .   .   .   .       .       .   .

===================================================================

Guitar 1
A#-----------------------------------------------------------------|
F#-----------------------------------------------------------------|
C#-----------------------------------------------------------------|
G#-0~~~~~~~~~~~~~~-0~~~~~~-0---0---0~~~~~~-0~~~~~~-----------------|
D#-0~~~~~~~~~~~~~~-0~~~~~~-0---0---0~~~~~~-0~~~~~~-----8---10--12--|
G#-0~~~~~~~~~~~~~~-0~~~~~~-0---0---0~~~~~~-0~~~~~~-0---------------|
Pm .               .       .   .   .       .       .

===================================================================

Guitar 1
A#-----------------------------------------------------------------|
F -----------------------------------------------------------------|
C#-----------------------------------------------------------------|
G#-0~~~~~~-0---0-----------0~~~~~~-0---0-----------0~~~~~~-0---0---|
D#-0~~~~~~-0---0-----------0~~~~~~-0---0-----------0~~~~~~-0---0---|
G#-0~~~~~~-0---0-----------0~~~~~~-0---0-----------0~~~~~~-0---0---|
Pm .       .   .           .       .   .           .       .   .

===================================================================

Guitar 1
A#-----------------------------------------------------------------|
F -----------------------------------------------------------------|
C#-----------------------------------------------------------------|
G#---------0~~~~~~-0---0-----------7~~~~~~-------------------------|
D#---------0~~~~~~-0---0-----------------------7~~~~~~-----5~~~~~~-|
G#---------0~~~~~~-0---0-------------------0-----------0-----------|
Pm         .       .   .                   .           .

===================================================================
===================================================================
===================================================================


===================================================================
Guitar 2
===================================================================


Intro

Guitar 2
A#-----------------------------------------------------------------|
F -----------------------------------------------------------------|
C#-----------------------------------------------------------------|
G#-------------------------------------7---5-------5---3-----------|
D#---------------------------------0-----------0-----------4-------|
G#-------------------------------------------------------------3---|
Pm                                 .           .

===================================================================

Guitar 2
A#-----------------------------------------------------------------|
F -----------------------------------------------------------------|
C#-------------------------------------------------------------7---|
G#-------------7-------------------3-------------------7---10------|
D#-------------------------------------3---0-----------------------|
G#-0---0---0-------0---8---7---8---------------3---0---------------|

===================================================================

Guitar 2
A#-----------------------------------------------------------------|
F -----------------------------------------------------------------|
C#-----------------------------------------------------------------|
G#-----10------7---------------12----------------------------------|
D#-----------------------------------------------------------------|
G#-0-------0-------0---12--10------8---8---8---10--7---7---7---5---|

===================================================================

Guitar 2
A#-----------------------------------------------------------------|
F -----------------------------------------------------------------|
C#-------------------------------------------------------------7---|
G#-------------7-------------------3-------------------7---10------|
D#-------------------------------------3---0-----------------------|
G#-0---0---0-------0---8---7---8---------------3---0---------------|

===================================================================

Guitar 2
A#-----------------------------------------------------------------|
F -----------------------------------------------------------------|
C#-----------------------------------------------------------------|
G#-------------------------------------7---5-------5---3-----------|
D#---------------------------------0-----------0-----------4-------|
G#-0---7---0---6---0---5---3---0-------------------------------3---|
Pm                                 .           .

===================================================================
===================================================================


Verse 1

(x2)

Guitar 2
A#-----------------------------------------------------------------|
F -----------------------------------------------------------------|
C#-------------------------------------------------------------7---|
G#-------------7-------------------3-------------------7---10------|
D#-------------------------------------3---0-----------------------|
G#-0---0---0-------0---8---7---8---------------3---0---------------|

===================================================================

Guitar 2
A#-----------------------------------------------------------------|
F -----------------------------------------------------------------|
C#-----------------------------------------------------------------|
G#-----10------7---------------12----------------------------------|
D#-----------------------------------------------------------------|
G#-0-------0-------0---12--10------8---8---8---10--7---7---7---5---|

===================================================================

Guitar 2
A#-----------------------------------------------------------------|
F -----------------------------------------------------------------|
C#-------------------------------------------------------------7---|
G#-------------7-------------------3-------------------7---10------|
D#-------------------------------------3---0-----------------------|
G#-0---0---0-------0---8---7---8---------------3---0---------------|

===================================================================

Guitar 2
A#-----------------------------------------------------------------|
F -----------------------------------------------------------------|
C#-----------------------------------------------------------------|
G#-------------------------------------7---5-------5---3-----------|
D#---------------------------------0-----------0-----------4-------|
G#-0---7---0---6---0---5---3---0-------------------------------3---|
Pm                                 .           .

===================================================================
===================================================================


Break Off 1

Guitar 2
A#---------------------------------|
F ---------------------------------|
C#---------------------------------|
G#-0---0---0-----------------------|
D#-0---0---0-----------------------|
G#-0---0---0-----------------------|
Pm .   .   .

===================================================================
===================================================================


Pre Chorus 1

Guitar 2
A#-----------------------------------------------------------------|
F -----------------------------------------------------------------|
C#-----------------------------------------------------------------|
G#-0---0---0---0---0---0---0~~~~~~-0~~~~~~-0---0~~~~~~-------------|
D#-0---0---0---0---0---0---0~~~~~~-0~~~~~~-0---0~~~~~~-------------|
G#-0---0---0---0---0---0---0~~~~~~-0~~~~~~-0---0~~~~~~-8---10--7---|
Pm .   .   .   .   .   .   .       .       .   .

===================================================================

Guitar 2
A#-----------------------------------------------------------------|
F#-----------------------------------------------------------------|
C#-----------------------------------------------------------------|
G#-0~~~~~~~~~~~~~~-0~~~~~~-0---0---0~~~~~~-0~~~~~~-----------------|
D#-0~~~~~~~~~~~~~~-0~~~~~~-0---0---0~~~~~~-0~~~~~~-----8---10--12--|
G#-0~~~~~~~~~~~~~~-0~~~~~~-0---0---0~~~~~~-0~~~~~~-0---------------|
Pm .               .       .   .   .       .       .

===================================================================

Guitar 2
A#-----------------22~~~~~-----------------22~~~~~---------22b~~~~-|
F -----------------------------------------------------------------|
C#-----------------------------------------------------------------|
G#-0~~~~~~-0---0-----------0~~~~~~-0---0-----------0~~~~~~---------|
D#-0~~~~~~-0---0-----------0~~~~~~-0---0-----------0~~~~~~---------|
G#-0~~~~~~-0---0-----------0~~~~~~-0---0-----------0~~~~~~---------|
Pm .       .   .           .       .   .           .

===================================================================

Guitar 2
A#-22~~~~~-----------------20~~~~~---------------------------------|
F -----------------------------------------------------------------|
C#-----------------------------------------------------------------|
G#---------0~~~~~~-0---0-----------10--12--10----------------------|
D#---------0~~~~~~-0---0-----------------------13--12--13--12--10--|
G#---------0~~~~~~-0---0-------------------------------------------|
Pm         .       .   .

===================================================================

Guitar 2
A#-----------------------------------------------------------------|
F -----------------------------------------------------------------|
C#-----------------------------------------------------------------|
G#-0---0---0---0---0---0---0~~~~~~-0~~~~~~-0---0~~~~~~-------------|
D#-0---0---0---0---0---0---0~~~~~~-0~~~~~~-0---0~~~~~~-------------|
G#-0---0---0---0---0---0---0~~~~~~-0~~~~~~-0---0~~~~~~-8---10--7---|
Pm .   .   .   .   .   .   .       .       .   .

===================================================================

Guitar 2
A#-----------------------------------------------------------------|
F#-----------------------------------------------------------------|
C#-----------------------------------------------------------------|
G#-0~~~~~~~~~~~~~~-0~~~~~~-0---0---0~~~~~~-0~~~~~~-----------------|
D#-0~~~~~~~~~~~~~~-0~~~~~~-0---0---0~~~~~~-0~~~~~~-----8---10--12--|
G#-0~~~~~~~~~~~~~~-0~~~~~~-0---0---0~~~~~~-0~~~~~~-0---------------|
Pm .               .       .   .   .       .       .

===================================================================

Guitar 2
A#-----------------------------------------------------------------|
F -----------------------------------------------------------------|
C#-----------------------------------------------------------------|
G#-0~~~~~~-0---0-----------0~~~~~~-0---0-----------0~~~~~~-0---0---|
D#-0~~~~~~-0---0-----------0~~~~~~-0---0-----------0~~~~~~-0---0---|
G#-0~~~~~~-0---0-----------0~~~~~~-0---0-----------0~~~~~~-0---0---|
Pm .       .   .           .       .   .           .       .   .

===================================================================

Guitar 2
A#-----------------------------------------------------------------|
F -----------------------------------------------------------------|
C#-----------------------------------------------------------------|
G#---------0~~~~~~-0---0-----------8~~~~~~-------------------------|
D#---------0~~~~~~-0---0-----------------------10~~~~~-----9~~~~~~-|
G#---------0~~~~~~-0---0-------------------0-----------0-----------|
Pm         .       .   .                   .           .

===================================================================
===================================================================


Chorus

Guitar 2 (x3)
A#-17--15------15~~~~~---------------------------------------------|
F ---------18----------17--18--17--18--17--15--17~~~~~-17--15------|
C#-------------------------------------------------------------17--|
G#-----------------------------------------------------------------|
D#-----------------------------------------------------------------|
G#-----------------------------------------------------------------|

===================================================================

Guitar 2 (x3)
A#-17--15------15~~~~~-----------------------------15--17--18------|
F ---------18----------17--18--17--18--17--15--17--------------17--|
C#-----------------------------------------------------------------|
G#-----------------------------------------------------------------|
D#-----------------------------------------------------------------|
G#-----------------------------------------------------------------|

===================================================================
===================================================================


Break Off 2

Guitar 2
A#-----------------------------------------------------------------|
F -15~~~~~~~~~~~~~~~~~~~~~-15~~~~~-15~~~~~~~~~~~~~-15--------------|
C#-----------------------------------------------------------------|
G#-----------------------------------------------------------------|
D#-----------------------------------------------------------------|
G#-----------------------------------------------------------------|

===================================================================
===================================================================


Verse 2

Guitar 2
A#-----------------------------------------------------------------|
F -----------------------------------------------------------------|
C#-------------------------------------------------------------7---|
G#-------------7-------------------3-------------------7---10------|
D#-------------------------------------3---0-----------------------|
G#-0---0---0-------0---8---7---8---------------3---0---------------|

===================================================================

Guitar 2
A#-----------------------------------------------------------------|
F -----------------------------------------------------------------|
C#-----------------------------------------------------------------|
G#-----10------7---------------12----------------------------------|
D#-----------------------------------------------------------------|
G#-0-------0-------0---12--10------8---8---8---10--7---7---7---5---|

===================================================================

Guitar 2
A#-----------------------------------------------------------------|
F -----------------------------------------------------------------|
C#-------------------------------------------------------------7---|
G#-------------7-------------------3-------------------7---10------|
D#-------------------------------------3---0-----------------------|
G#-0---0---0-------0---8---7---8---------------3---0---------------|

===================================================================

Guitar 2
A#-----------------------------------------------------------------|
F -----------------------------------------------------------------|
C#-----------------------------------------------------------------|
G#-------------------------------------7---5-------5---3-----------|
D#---------------------------------0-----------0-----------4-------|
G#-0---7---0---6---0---5---3---0-------------------------------3---|
Pm                                 .           .

===================================================================
===================================================================


Break Off 3

Guitar 2
A#-14--14--14--14--14--14--15--17--17--------------18--18--17--17--|
F -x---x---x---x---x---x---x---x---x---15--15--15--x---x---x---x---|
C#-11--11--11--11--11--11--12--14--14--x---x---x---15--15--14--14--|
G#-------------------------------------12--12--12------------------|
D#-----------------------------------------------------------------|
G#-----------------------------------------------------------------|

===================================================================
===================================================================


Pre Chorus 2

Guitar 2
A#-----------------------------------------------------------------|
F -----------------------------------------------------------------|
C#-----------------------------------------------------------------|
G#-0-0-0-0-----0-0-0-0-----0~~-0-0-----0~~-0-0-----0-0-0-0---0-0-0-|
D#-0-0-0-0-----0-0-0-0-----0~~-0-0-----0~~-0-0-----0-0-0-0---0-0-0-|
G#-0-0-0-0-----0-0-0-0-----0~~-0-0-----0~~-0-0-----0-0-0-0---0-0-0-|
Pm . . . .     . . . .     .   . .     .   . .     . . . .   . . .

===================================================================

Guitar 2
A#-----------------------------------------------------------------|
F -----------------------------------------------------------------|
C#-----------------------------------------------------------------|
G#-0-0-0-0-----0-0-0-0-----0~~-0-0-----0~~-0-0-----0-0-0-0---x-x-x-|
D#-0-0-0-0-----0-0-0-0-----0~~-0-0-----0~~-0-0-----0-0-0-0---x-x-x-|
G#-0-0-0-0-----0-0-0-0-----0~~-0-0-----0~~-0-0-----0-0-0-0---x-x-x-|
Pm . . . .     . . . .     .   . .     .   . .     . . . .

===================================================================

Guitar 2
A#-----------------------------------------------------------------|
F -----------------------------------------------------------------|
C#-----------------------------------------------------------------|
G#-0-0-0-0~~~~-0-0-0-0~~~~-0~~-0-0~~~~-0~~-0-0~~~~-0-0-0-0~~-0~~-0-|
D#-0-0-0-0~~~~-0-0-0-0~~~~-0~~-0-0~~~~-0~~-0-0~~~~-0-0-0-0~~-0~~-0-|
G#-0-0-0-0~~~~-0-0-0-0~~~~-0~~-0-0~~~~-0~~-0-0~~~~-0-0-0-0~~-0~~-0-|
Pm . . . .     . . . .     .   . .     .   . .     . . . .   .   .

===================================================================

Guitar 2
A#-----------------------------------------------------------------|
F -----------------------------------------------------------------|
C#-----------------------------------------------------------------|
G#-0-0-0-0-----------------0~~-0-0-----------------8~~-------------|
D#-0-0-0-0-----------------0~~-0-0-----------------------10~---9~~-|
G#-0-0-0-0-----0~~-0-0-----0~~-0-0-----0~~-0-0---------0-----0-----|
Pm . . . .                 .   . .                     .     .

===================================================================
===================================================================


Chorus

Guitar 2 (x3)
A#-17--15------15~~~~~---------------------------------------------|
F ---------18----------17--18--17--18--17--15--17~~~~~-17--15------|
C#-------------------------------------------------------------17--|
G#-----------------------------------------------------------------|
D#-----------------------------------------------------------------|
G#-----------------------------------------------------------------|

===================================================================

Guitar 2 (x3)
A#-17--15------15~~~~~-----------------------------15--17--18------|
F ---------18----------17--18--17--18--17--15--17--------------17--|
C#-----------------------------------------------------------------|
G#-----------------------------------------------------------------|
D#-----------------------------------------------------------------|
G#-----------------------------------------------------------------|

===================================================================
===================================================================


Break Off 2

Guitar 1
A#-----------------------------------------------------------------|
F -15~~~~~~~~~~~~~-15~~~~~-15~~~~~~~~~~~~~-------------------------|
C#-----------------------------------------------------------------|
G#-----------------------------------------------------------------|
D#-----------------------------------------------------3b~~~~~~~~~-|
G#-----------------------------------------3~~~~~~~~~~-------------|

===================================================================
===================================================================


Interlude 1

Guitar 2
A#---------------------------------------17~~~~~~~~~~~~~~~~~~~~~~~-|
F ------------------------------------15~~~~~~~~~~~~~~~~~~~~~~~~~~-|
C#---------------------------------17~~~~~~~~~~~~~~~~~~~~~~~~~~~~~-|
G#-0---------------------------------------------------------------|
D#-0---------------------------------------------------------------|
G#-0---------------------------------------------------------------|
Pm .

===================================================================

Guitar 2
A#-------18~~~~~~~~~~~~~~~~~~~~~~~-------18~~~~~~~-------15~~~~~~~-|
F ----15~~~~~~~~~~~~~~~~~~~~~~~~~~----15~~~~~~~~~~----13~~~~~~~~~~-|
C#-17~~~~~~~~~~~~~~~~~~~~~~~~~~~~~-15~~~~~~~~~~~~~-12~~~~~~~~~~~~~-|
G#-----------------------------------------------------------------|
D#-----------------------------------------------------------------|
G#-----------------------------------------------------------------|

===================================================================

Guitar 2 (originally one octave higher)
A#-------------------------12--13------------------12--13--12--10--|
F -------------10--10--10----------10--10--10--10------------------|
C#-12--10--9-------------------------------------------------------|
G#-----------------------------------------------------------------|
D#-----------------------------------------------------------------|
G#-----------------------------------------------------------------|

===================================================================

Guitar 2
A#-----------------------------10--10------------------------------|
F -------------10--10--11--13----------13--13------13--11--10------|
C#-12--10--9---------------------------------------------------10--|
G#-----------------------------------------------------------------|
D#-----------------------------------------------------------------|
G#-----------------------------------------------------------------|

===================================================================

Guitar 2
A#-------------------------------------------------10--12--13~~~~~-|
F -------------11--11--10--10--------------------------------------|
C#-12--10--9-------------------12--10--9-------9-------------------|
G#-----------------------------------------12----------------------|
D#-----------------------------------------------------------------|
G#-----------------------------------------------------------------|

===================================================================

Guitar 2
A#-----------------------------------------------------------------|
F -----------------10--11--10----------------------10--11--10--11--|
C#-10--9---10------------------12--9-------9-----------------------|
G#-------------12----------------------10------10------------------|
D#-----------------------------------------------------------------|
G#-----------------------------------------------------------------|

===================================================================
===================================================================


Interlude 2

Guitar 2
A#-------------------------------------20--18--17--17--------------|
F -18------17--18------17--18--20----------------------18--17--18--|
C#-----19----------19--------------19------------------------------|
G#-----------------------------------------------------------------|
D#-----------------------------------------------------------------|
G#-----------------------------------------------------------------|

===================================================================

Guitar 2
A#-------------------------------------20--18--17--17--18--17------|
F -17------17--18------17--18--20------------------------------20--|
C#-----17----------19--------------19------------------------------|
G#-----------------------------------------------------------------|
D#-----------------------------------------------------------------|
G#-----------------------------------------------------------------|

===================================================================

Guitar 2
A#-18--18--18--18--18--17--15--17--17--17--17--17--17--17--17--17--|
F -----------------------------------------------------------------|
C#-----------------------------------------------------------------|
G#-----------------------------------------------------------------|
D#-----------------------------------------------------------------|
G#-----------------------------------------------------------------|

===================================================================

Guitar 2
A#---------------------15--17--15------15--17--15------17--20--17--|
F -----17--18--17--------------------------------------------------|
C#-17--------------17--------------19--------------19--------------|
G#-----------------------------------------------------------------|
D#-----------------------------------------------------------------|
G#-----------------------------------------------------------------|

===================================================================

Guitar 2
A#-------------------------------------20--18--17--17--------------|
F -18------17--18------17--18--20----------------------18--17--18--|
C#-----19----------19--------------19------------------------------|
G#-----------------------------------------------------------------|
D#-----------------------------------------------------------------|
G#-----------------------------------------------------------------|

===================================================================

Guitar 2
A#-------------------------------------20--18--17--17--18--17------|
F -17------17--18------17--18--20------------------------------20--|
C#-----17----------19--------------19------------------------------|
G#-----------------------------------------------------------------|
D#-----------------------------------------------------------------|
G#-----------------------------------------------------------------|

===================================================================

Guitar 2
A#-18--18--18--18--18--17--15--17--17--17--17--17--15--15--15--15--|
F -----------------------------------------------------------------|
C#-----------------------------------------------------------------|
G#-----------------------------------------------------------------|
D#-----------------------------------------------------------------|
G#-----------------------------------------------------------------|

===================================================================

Guitar 2
A#-----------------------------------------------------------------|
F -18~~~~~-17~~~~~~~~~~~~~~~~~~~~~-17~~~~~~~~~~~~~~~~~~~~~~~~~~~~~-|
C#-----------------17~~~~~~~~~~~~~~~~~~~~~~~~~~~~~~~~~~~~~~~~~~~~~-|
G#-----------------------------------------------------------------|
D#-----------------------------------------------------------------|
G#-----------------------------------------------------------------|

===================================================================
===================================================================


Breakdown

Guitar 2
A#-----------------------------------------------------------------|
F -----------------------------------------------------------------|
C#-----------------------------------------------------------------|
G#-0-----------0---0-------0-------------------0---0-------0-------|
D#-0-----------0---0-------0-------------------0---0-------0-------|
G#-0-----------0---0-------0-------------------0---0-------0-------|
Pm .           .   .       .                   .   .       .

===================================================================

Guitar 2
A#-----------------------------------------------------------------|
F -----------------------------------------------------------------|
C#-----------------------------------------------------------------|
G#-0-0-0-0-0-----------------------0---0-------0---0---------------|
D#-0-0-0-0-0-----------------------0---0-------0---0---3---3~~~~~~-|
G#-0-0-0-0-0-----------------------0---0-------0---0---------------|
Pm . . . . .                       .   .       .   .

===================================================================

Guitar 2
A#-----------------------------------------------------------------|
F -----------------------------------------------------------------|
C#-----------------------------------------------------------------|
G#-0---0---0-----------0---0---------------------------------------|
D#-0---0---0-----------0---0-------1~~~~~~~~~~-3~~~~~~~~~~-5~~~~~~-|
G#-0---0---0-----------0---0-------0~~~~~~~~~~-0~~~~~~~~~~-0~~~~~~-|
Pm .   .   .           .   .       .           .           .

===================================================================

Guitar 2
A#-----------------------------------------------------------------|
F -----------------------------------------------------------------|
C#-----------------------------------------------------------------|
G#-----------------------------------------------------------------|
D#-----5---5---5---5-----------------------------------------------|
G#---------------------8---8---8---8---5---5---5---5---7---7---7---|

===================================================================

Guitar 2
A#-----------------------------------------------------------------|
F ---------------------------------10~~~~~~~~~-------------10~~~~~-|
C#---------------------------------13~~~~~~~~~-------------13~~~~~-|
G#-0~~~~~~~~~~~~~~~~~~~~~~-0-------------------0-------------------|
D#-0~~~~~~~~~~~~~~~~~~~~~~-0-------------------0-------------------|
G#-0~~~~~~~~~~~~~~~~~~~~~~-0-------------------0-------------------|
Pm .                       .                   .

===================================================================

Guitar 2
A#-----------------------------------------------------------------|
F -----------------------------------------------------------------|
C#-----------------------------------------------------------------|
G#-----------------------------------------------------------------|
D#---------1~~~~~~-0---------------1---4~~~~~~-1---4---3---0---3---|
G#---------------------2---3~~~~~~---------------------------------|

===================================================================

Guitar 2
A#-----------------------------------------------------------------|
F -----------------------------------------------------------------|
C#-----------------------------------------------------------------|
G#-0---------------0---0---0-------0-------0---0-------0---0-------|
D#-0---------------0---0---0-------0-------0---0-------0---0-------|
G#-0---------------0---0---0-------0-------0---0-------0---0-------|
Pm                 .   .   .       .       .   .       .   .

===================================================================

Guitar 2
A#-----------------------------------------------------------------|
F -----------------------------------------------------------------|
C#-----------------------------------------------------------------|
G#-0~~~~~~-2---3---0---3---5---2---5---7---0---8---7---5-----------|
D#---------------------------------------------------------8---7---|
G#-----------------------------------------------------------------|
Pm         .   .   .   .   .   .   .   .   .   .   .   .   .   .

===================================================================
===================================================================


Pre Chorus 3

Guitar 2
A#-----------------------------------------------------------------|
F -----------------------------------------------------------------|
C#-----------------------------------------------------------------|
G#-----------------------------------------------------------------|
D#-5---------------------------------------------------------------|
G#-----------------------------------------------------------------|

===================================================================


===================================================================
Rest
===================================================================


===================================================================

Guitar 2 (Fade In)
A#-----------------------------------------------------------------|
F -----------------------------------------------------------------|
C#-3---3---3---3---3---3---3---3---3---3---3---3---3---3---3---3---|
G#-3---3---3---3---3---3---3---3---3---3---3---3---3---3---3---3---|
D#-1---1---1---1---1---1---1---1---1---1---1---1---1---1---1---1---|
G#-----------------------------------------------------------------|

===================================================================

Guitar 2
A#-----------------------------------------------------------------|
F -----------------------------------------------------------------|
C#-7---7---7---7---7---7---7---7---7---7---7---7---7---7---7---7---|
G#-7---7---7---7---7---7---7---7---7---7---7---7---7---7---7---7---|
D#-5---5---5---5---5---5---5---5---5---5---5---5---5---5---5---5---|
G#-----------------------------------------------------------------|

===================================================================
===================================================================


Chorus

Guitar 2 (x3)
A#-17--15------15~~~~~---------------------------------------------|
F ---------18----------17--18--17--18--17--15--17~~~~~-17--15------|
C#-------------------------------------------------------------17--|
G#-----------------------------------------------------------------|
D#-----------------------------------------------------------------|
G#-----------------------------------------------------------------|

===================================================================

Guitar 2 (x3)
A#-17--15------15~~~~~-----------------------------15--17--18------|
F ---------18----------17--18--17--18--17--15--17--------------17--|
C#-----------------------------------------------------------------|
G#-----------------------------------------------------------------|
D#-----------------------------------------------------------------|
G#-----------------------------------------------------------------|

===================================================================
===================================================================


Outro

Guitar 2
A#-----------------------------------------------------------------|
F -----------------------------------------------------------------|
C#-----------------------------------------------------------------|
G#-0---0---0---0---0---0---0~~~~~~-0~~~~~~-0---0~~~~~~-------------|
D#-0---0---0---0---0---0---0~~~~~~-0~~~~~~-0---0~~~~~~-------------|
G#-0---0---0---0---0---0---0~~~~~~-0~~~~~~-0---0~~~~~~-8---10--7---|
Pm .   .   .   .   .   .   .       .       .   .

===================================================================

Guitar 2
A#-----------------------------------------------------------------|
F#-----------------------------------------------------------------|
C#-----------------------------------------------------------------|
G#-0~~~~~~~~~~~~~~-0~~~~~~-0---0---0~~~~~~-0~~~~~~-----------------|
D#-0~~~~~~~~~~~~~~-0~~~~~~-0---0---0~~~~~~-0~~~~~~-----8---10--12--|
G#-0~~~~~~~~~~~~~~-0~~~~~~-0---0---0~~~~~~-0~~~~~~-0---------------|
Pm .               .       .   .   .       .       .

===================================================================

Guitar 2
A#-----------------------------------------------------------------|
F -----------------------------------------------------------------|
C#-----------------------------------------------------------------|
G#-0~~~~~~-0---0-----------0~~~~~~-0---0-----------0~~~~~~---------|
D#-0~~~~~~-0---0-----------0~~~~~~-0---0-----------0~~~~~~---------|
G#-0~~~~~~-0---0-----------0~~~~~~-0---0-----------0~~~~~~---------|
Pm .       .   .           .       .   .           .

===================================================================

Guitar 2
A#-----------------------------------------------------------------|
F -----------------------------------------------------------------|
C#-----------------------------------------------------------------|
G#---------0~~~~~~-0---0-----------10--12--10----------------------|
D#---------0~~~~~~-0---0-----------------------13--12--13--12--10--|
G#---------0~~~~~~-0---0-------------------------------------------|
Pm         .       .   .

===================================================================

Guitar 2
A#-----------------------------------------------------------------|
F -----------------------------------------------------------------|
C#-----------------------------------------------------------------|
G#-0---0---0---0---0---0---0~~~~~~-0~~~~~~-0---0~~~~~~-------------|
D#-0---0---0---0---0---0---0~~~~~~-0~~~~~~-0---0~~~~~~-------------|
G#-0---0---0---0---0---0---0~~~~~~-0~~~~~~-0---0~~~~~~-8---10--7---|
Pm .   .   .   .   .   .   .       .       .   .

===================================================================

Guitar 2
A#-----------------------------------------------------------------|
F#-----------------------------------------------------------------|
C#-----------------------------------------------------------------|
G#-0~~~~~~~~~~~~~~-0~~~~~~-0---0---0~~~~~~-0~~~~~~-----------------|
D#-0~~~~~~~~~~~~~~-0~~~~~~-0---0---0~~~~~~-0~~~~~~-----8---10--12--|
G#-0~~~~~~~~~~~~~~-0~~~~~~-0---0---0~~~~~~-0~~~~~~-0---------------|
Pm .               .       .   .   .       .       .

===================================================================

Guitar 2
A#-----------------------------------------------------------------|
F -----------------------------------------------------------------|
C#-----------------------------------------------------------------|
G#-0~~~~~~-0---0-----------0~~~~~~-0---0-----------0~~~~~~-0---0---|
D#-0~~~~~~-0---0-----------0~~~~~~-0---0-----------0~~~~~~-0---0---|
G#-0~~~~~~-0---0-----------0~~~~~~-0---0-----------0~~~~~~-0---0---|
Pm .       .   .           .       .   .           .       .   .

===================================================================

Guitar 2
A#-----------------------------------------------------------------|
F -----------------------------------------------------------------|
C#-----------------------------------------------------------------|
G#---------0~~~~~~-0---0-----------7~~~~~~-------------------------|
D#---------0~~~~~~-0---0-----------------------7~~~~~~-----5~~~~~~-|
G#---------0~~~~~~-0---0-------------------0-----------0-----------|
Pm         .       .   .                   .           .

===================================================================
===================================================================
===================================================================


----------------------------------------------------------------------------
                    Miles Away (Feat. Kellin Quinn)
                           Memphis May Fire
----------------------------------------------------------------------------

This is obviously the very heart-felt song from Challenger. It is one of my favorite off
the album because it talks about what pretty much every musician feels during his or
her music career. Kellin Quinn is featured in this song, and I feel it was the right 
move. This is a beautiful song in a sense of instrumentals and I believe it is one of their
most sophisticated too. Enjoy!

Guitar 1 Rhythmic (C# G# C# F# A# D#)
Guitar 2 Lead     (C# G# C# F# A# D#)
Guitar 3 Acoustic (D# G# C# F# A# D#)


Intro

Guitar 1 (Echo Effect)
D#-----------------------------------------------------------------|
A#-----------------------------------------------------16~-15~-----|
F#-12~~~~~~~~~~~~~~~~~-15~-14~---------------------------------17~-|
C#-----------------------------15~---------------------------------|
G#-----------------------------------------------------------------|
C#-----------------------------------------------------------------|

===================================================================

Guitar 1
D#-----------------------------------------------------------------|
A#---------15~-----------------------------------------------------|
F#-------------15~-------------12~-14~-----------------15~-14~-----|
C#-------------------------------------------------------------13~-|
G#-----------------------------------------------------------------|
C#-----------------------------------------------------------------|

===================================================================

Guitar 1
D#---------------------------------------------------------13~-15~-|
A#-------------------------15~-16~---------------------------------|
F#-----------------------------------------------------------------|
C#-----------------------------------------------------------------|
G#-----------------------------------------------------------------|
C#-----------------------------------------------------------------|

===================================================================


===================================================================
Rest
===================================================================


===================================================================
===================================================================


Verse 1

Guitar 1
D#-----------------------------------------------------------------|
A#-----------------------------------------------------16~-15~-----|
F#-12~~~~~~~~~~~~~~~~~-15~-14~---------------------------------17~-|
C#-----------------------------15~---------------------------------|
G#-----------------------------------------------------------------|
C#-----------------------------------------------------------------|

===================================================================

Guitar 1
D#-----------------------------------------------------------------|
A#---------15~-----------------------------------------------------|
F#-------------15~-------------12~-14~-----------------15~-14~-----|
C#-------------------------------------------------------------13~-|
G#-----------------------------------------------------------------|
C#-----------------------------------------------------------------|

===================================================================

Guitar 1
D#---------------------------------------------------------13~-15~-|
A#-------------------------15~-16~---------------------------------|
F#-----------------------------------------------------------------|
C#-----------------------------------------------------------------|
G#-----------------------------------------------------------------|
C#-----------------------------------------------------------------|

===================================================================

Guitar 1
D#-----------------------------------------------------------------|
A#-----------------------------------------------------------------|
F#-----------------------------------------------------------------|
C#-----------------------------------------------------------------|
G#-----------------------------------------------------------------|
C#-----------------------------------------------------------------|

===================================================================

Guitar 1
D#-----------------------------------------------------------------|
A#-----------------------------------------------------16~-15~-----|
F#-12~~~~~~~~~~~~~~~~~-15~-14~---------------------------------17~-|
C#-----------------------------15~---------------------------------|
G#-----------------------------------------------------------------|
C#-----------------------------------------------------------------|

===================================================================

Guitar 1
D#-----------------------------------------------------------------|
A#---------15~-----------------------------------------------------|
F#-------------15~-------------12~-14~-----------------15~-14~-----|
C#-------------------------------------------------------------13~-|
G#-----------------------------------------------------------------|
C#-----------------------------------------------------------------|

===================================================================

Guitar 1
D#---------------------------------------------------------13~-15~-|
A#-------------------------15~-16~---------------------------------|
F#-----------------------------------------------------------------|
C#-----------------------------------------------------------------|
G#-----------------------------------------------------------------|
C#-----------------------------------------------------------------|

===================================================================

Guitar 1
D#-----------------------------------------------------------------|
A#-----------------------------------------------------------------|
F#-----------------------------------------------------------------|
C#-----------------------------------------------------------------|
G#-----------------------------------------------------------------|
C#-----------------------------------------------------------------|

===================================================================
===================================================================


Pre Chorus 1

Guitar 1 (Fade In)
D#-----------------------------------------------------------------|
A#---------------------------------3~~-3~~-3~~-3~~-3~~-------------|
F#-----------------------------------------------------5~~-5~~-5~~-|
C#-----------------------------------------------------------------|
G#-----------------------------------------------------------------|
C#-----------------------------------------------------------------|

===================================================================
===================================================================


Chorus 1

Guitar 1
D#-----------------------------------------------------------------|
A#-----------------------------------------------------------------|
F#-7-7-7-7-7-7-7-7-7-7-7-7-7-7-5-5-5-5-5-5-5-5-5-5-5-5-5-5-5-5-5-5-|
C#-----------------------------------------------------------------|
G#-----------------------------------------------------------------|
C#-----------------------------------------------------------------|

===================================================================

Guitar 1
D#-----------------------------------------------------------------|
A#-----------------------------------------------------------------|
F#-7-7-7-7-7-7-7-7-7-7-7-7-7-7-5-5-5-5-5-5-5-5-5-5-5-5-5-5-5-5-5-5-|
C#-----------------------------------------------------------------|
G#-----------------------------------------------------------------|
C#-----------------------------------------------------------------|

===================================================================

Guitar 1
D#-----------------------------------------------------------------|
A#-----------------------------------------------------------------|
F#-7-7-7-7-7-7-7-7-7-7-7-7-7-7-5-5-5-5-5-5-5-5-5-5-5-5-5-5-5-5-5-5-|
C#-----------------------------------------------------------------|
G#-----------------------------------------------------------------|
C#-----------------------------------------------------------------|

===================================================================

Guitar 1
D#-----------------------------------------------------------------|
A#-----------------------------------------------------------------|
F#-7-7-7-7-7-7-7-7-7-7-7-7-7-7-7-7-7-7-7-7-7-7-7-7-7-7-7-7-7-7-7-7-|
C#-----------------------------------------------------------------|
G#-----------------------------------------------------------------|
C#-----------------------------------------------------------------|

===================================================================

Guitar 1
D#-----------------------------------------------------------------|
A#-----------------------------------------------------------------|
F#-7-7-7-7-7-7-7-7-7-7-7-7-7-7-5-5-5-5-5-5-5-5-5-5-5-5-5-5-5-5-5-5-|
C#-----------------------------------------------------------------|
G#-----------------------------------------------------------------|
C#-----------------------------------------------------------------|

===================================================================

Guitar 1
D#-----------------------------------------------------------------|
A#-----------------------------------------------------------------|
F#-7-7-7-7-7-7-7-7-7-7-7-7-7-7-5-5-5-5-5-5-5-5-5-5-5-5-5-5-5-5-5-5-|
C#-----------------------------------------------------------------|
G#-----------------------------------------------------------------|
C#-----------------------------------------------------------------|

===================================================================

Guitar 1
D#-----------------------------------------------------------------|
A#-----------------------------------------------------------------|
F#-7-7-7-7-7-7-7-7-7-7-7-7-7-7-5-5-5-5-5-5-5-5-5-5-5-5-5-5-5-5-5-5-|
C#-----------------------------------------------------------------|
G#-----------------------------------------------------------------|
C#-----------------------------------------------------------------|

===================================================================

Guitar 1
D#-----------------------------------------------------------------|
A#-----------------------------------------------------------------|
F#-7-7-7-7-7-7-7-7-7-7-7-7-7-7-7-7-7-7-7-7-7-7-7-7-7-7-7-7-7-7-7-7-|
C#-----------------------------------------------------------------|
G#-----------------------------------------------------------------|
C#-----------------------------------------------------------------|

===================================================================
===================================================================


Bridge 1


===================================================================
Rest
===================================================================


===================================================================
===================================================================


Verse 2

Guitar 1
D#-----------------------------------------------------------------|
A#-----------------------------------------------------16~-15~-----|
F#-12~~~~~~~~~~~~~~~~~-15~-14~---------------------------------17~-|
C#-----------------------------15~---------------------------------|
G#-----------------------------------------------------------------|
C#-----------------------------------------------------------------|

===================================================================

Guitar 1
D#-----------------------------------------------------------------|
A#---------15~-----------------------------------------------------|
F#-------------15~-------------12~-14~-----------------15~-14~-----|
C#-------------------------------------------------------------13~-|
G#-----------------------------------------------------------------|
C#-----------------------------------------------------------------|

===================================================================

Guitar 1
D#---------------------------------------------------------13~-15~-|
A#-------------------------15~-16~---------------------------------|
F#-----------------------------------------------------------------|
C#-----------------------------------------------------------------|
G#-----------------------------------------------------------------|
C#-----------------------------------------------------------------|

===================================================================

Guitar 1
D#-----------------------------------------------------------------|
A#-----------------------------------------------------------------|
F#-----------------------------------------------------------------|
C#-----------------------------------------------------------------|
G#-----------------------------------------------------------------|
C#-----------------------------------------------------------------|

===================================================================

Guitar 1
D#-----------------------------------------------------------------|
A#-----------------------------------------------------16~-15~-----|
F#-12~~~~~~~~~~~~~~~~~-15~-14~---------------------------------17~-|
C#-----------------------------15~---------------------------------|
G#-----------------------------------------------------------------|
C#-----------------------------------------------------------------|

===================================================================

Guitar 1
D#-----------------------------------------------------------------|
A#---------15~-----------------------------------------------------|
F#-------------15~-------------12~-14~-----------------15~-14~-----|
C#-------------------------------------------------------------13~-|
G#-----------------------------------------------------------------|
C#-----------------------------------------------------------------|

===================================================================

Guitar 1
D#---------------------------------------------------------13~-15~-|
A#-------------------------15~-16~---------------------------------|
F#-----------------------------------------------------------------|
C#-----------------------------------------------------------------|
G#-----------------------------------------------------------------|
C#-----------------------------------------------------------------|

===================================================================

Guitar 1
D#-----------------------------------------------------------------|
A#-----------------------------------------------------------------|
F#-----------------------------------------------------------------|
C#-----------------------------------------------------------------|
G#-----------------------------------------------------------------|
C#-----------------------------------------------------------------|

===================================================================
===================================================================


Chorus 2

Guitar 1
D#-----------------------------------------------------------------|
A#-----------------------------------------------------------------|
F#-7-7-7-7-7-7-7-7-7-7-7-7-7-7-5-5-5-5-5-5-5-5-5-5-5-5-5-5-5-5-5-5-|
C#-----------------------------------------------------------------|
G#-----------------------------------------------------------------|
C#-----------------------------------------------------------------|

===================================================================

Guitar 1
D#-----------------------------------------------------------------|
A#-----------------------------------------------------------------|
F#-7-7-7-7-7-7-7-7-7-7-7-7-7-7-5-5-5-5-5-5-5-5-5-5-5-5-5-5-5-5-5-5-|
C#-----------------------------------------------------------------|
G#-----------------------------------------------------------------|
C#-----------------------------------------------------------------|

===================================================================

Guitar 1
D#-----------------------------------------------------------------|
A#-----------------------------------------------------------------|
F#-7-7-7-7-7-7-7-7-7-7-7-7-7-7-5-5-5-5-5-5-5-5-5-5-5-5-5-5-5-5-5-5-|
C#-----------------------------------------------------------------|
G#-----------------------------------------------------------------|
C#-----------------------------------------------------------------|

===================================================================

Guitar 1
D#-----------------------------------------------------------------|
A#-----------------------------------------------------------------|
F#-7-7-7-7-7-7-7-7-7-7-7-7-7-7-7-7-7-7-7-7-7-7-7-7-7-7-7-7-7-7-7-7-|
C#-----------------------------------------------------------------|
G#-----------------------------------------------------------------|
C#-----------------------------------------------------------------|

===================================================================

Guitar 1
D#-----------------------------------------------------------------|
A#-----------------------------------------------------------------|
F#-7-7-7-7-7-7-7-7-7-7-7-7-7-7-5-5-5-5-5-5-5-5-5-5-5-5-5-5-5-5-5-5-|
C#-----------------------------------------------------------------|
G#-----------------------------------------------------------------|
C#-----------------------------------------------------------------|

===================================================================

Guitar 1
D#-----------------------------------------------------------------|
A#-----------------------------------------------------------------|
F#-7-7-7-7-7-7-7-7-7-7-7-7-7-7-5-5-5-5-5-5-5-5-5-5-5-5-5-5-5-5-5-5-|
C#-----------------------------------------------------------------|
G#-----------------------------------------------------------------|
C#-----------------------------------------------------------------|

===================================================================

Guitar 1
D#-----------------------------------------------------------------|
A#-----------------------------------------------------------------|
F#-7-7-7-7-7-7-7-7-7-7-7-7-7-7-5-5-5-5-5-5-5-5-5-5-5-5-5-5-5-5-5-5-|
C#-----------------------------------------------------------------|
G#-----------------------------------------------------------------|
C#-----------------------------------------------------------------|

===================================================================

Guitar 1
D#-----------------------------------------------------------------|
A#-----------------------------------------------------------------|
F#-7-7-7-7-7-7-7-7-7-7-7-7-7-7-7-7-7-7-7-7-7-7-7-7-7-7-7-7-7-7-7-7-|
C#-----------------------------------------------------------------|
G#-----------------------------------------------------------------|
C#-----------------------------------------------------------------|

===================================================================
===================================================================


Interlude 1

Guitar 1
D#-----------------------------------------------------------------|
A#-----------------------------------------------------------------|
F#-----------------------------------------------------------------|
C#-5---5---5---5---5---5---5---5---7---7---7---7---7---7---7---7---|
G#-5---5---5---5---5---5---5---5---7---7---7---7---7---7---7---7---|
C#-5---5---5---5---5---5---5---5---7---7---7---7---7---7---7---7---|

===================================================================

Guitar 1
D#-----------------------------------------------------------------|
A#-----------------------------------------------------------------|
F#---------------------------------------------7---7---7---7---7---|
C#-8---8---8---8---8---8---8---8---10--10--10--7---7---7---7---7---|
G#-8---8---8---8---8---8---8---8---10--10--10--5---5---5---5---5---|
C#-8---8---8---8---8---8---8---8---10--10--10----------------------|

===================================================================

Guitar 1
D#-----------------------------------------------------------------|
A#-----------------------------------------------------------------|
F#-----------------------------------------------------------------|
C#-5---5---5---5---5---5---5---5---7---7---7---7---7---7---7---7---|
G#-5---5---5---5---5---5---5---5---7---7---7---7---7---7---7---7---|
C#-5---5---5---5---5---5---5---5---7---7---7---7---7---7---7---7---|

===================================================================

Guitar 1
D#-----------------------------------------------------------------|
A#-----------------------------------------------------------------|
F#---------------------------------------------7---7---7---7---7---|
C#-8---8---8---8---8---8---8---8---10--10--10--7---7---7---7---7---|
G#-8---8---8---8---8---8---8---8---10--10--10--5---5---5---5---5---|
C#-8---8---8---8---8---8---8---8---10--10--10----------------------|

===================================================================
===================================================================


Interlude 2

Guitar 1
D#-----------------------------------------------------------------|
A#-----------------------------------------------------------------|
F#-----------------------------------------------------------------|
C#-5---5---5---5---5---5---5---5---7---7---7---7---7---7---7---7---|
G#-5---5---5---5---5---5---5---5---7---7---7---7---7---7---7---7---|
C#-5---5---5---5---5---5---5---5---7---7---7---7---7---7---7---7---|

===================================================================

Guitar 1
D#-----------------------------------------------------------------|
A#-----------------------------------------------------------------|
F#---------------------------------------------7---7---7---7---7---|
C#-8---8---8---8---8---8---8---8---10--10--10--7---7---7---7---7---|
G#-8---8---8---8---8---8---8---8---10--10--10--5---5---5---5---5---|
C#-8---8---8---8---8---8---8---8---10--10--10----------------------|

===================================================================

Guitar 1
D#-----------------------------------------------------------------|
A#-----------------------------------------------------------------|
F#-----------------------------------------------------------------|
C#-5---5---5---5---5---5---5---5---7---7---7---7---7---7---7---7---|
G#-5---5---5---5---5---5---5---5---7---7---7---7---7---7---7---7---|
C#-5---5---5---5---5---5---5---5---7---7---7---7---7---7---7---7---|

===================================================================

Guitar 1
D#-----------------------------------------------------------------|
A#-----------------------------------------------------------------|
F#---------------------------------------------8---8---8---8---8---|
C#-8---8---8---8---8---8---8---8---10--10--10--8---8---8---8---8---|
G#-8---8---8---8---8---8---8---8---10--10--10--6---6---6---6---6---|
C#-8---8---8---8---8---8---8---8---10--10--10----------------------|

===================================================================
===================================================================


Bridge 2

Guitar 1
D#-----------------------------------------------------------------|
A#-----------------------------------------------------16~-15~-----|
F#-12~~~~~~~~~~~~~~~~~-15~-14~---------------------------------17~-|
C#-----------------------------15~---------------------------------|
G#-----------------------------------------------------------------|
C#-----------------------------------------------------------------|

===================================================================

Guitar 1
D#-----------------------------------------------------------------|
A#---------15~-----------------------------------------------------|
F#-------------15~-------------12~-14~-----------------15~-14~-----|
C#-------------------------------------------------------------13~-|
G#-----------------------------------------------------------------|
C#-----------------------------------------------------------------|

===================================================================

Guitar 1
D#---------------------------------------------------------13~-15~-|
A#-------------------------15~-16~---------------------------------|
F#-----------------------------------------------------------------|
C#-----------------------------------------------------------------|
G#-----------------------------------------------------------------|
C#-----------------------------------------------------------------|

===================================================================

Guitar 1 (Fade In)
D#-----------------------------------------------------------------|
A#-----------------------------------------------------------------|
F#-----------------------------------------------------------------|
C#-0~~~~~~~~~~~~~~~~~~~~~~~~~~~~~~~~~~~~~~~~~~~~~~~~~~~~~~~~~~~~~~-
G#-0~~~~~~~~~~~~~~~~~~~~~~~~~~~~~~~~~~~~~~~~~~~~~~~~~~~~~~~~~~~~~~-
C#-0~~~~~~~~~~~~~~~~~~~~~~~~~~~~~~~~~~~~~~~~~~~~~~~~~~~~~~~~~~~~~~-

===================================================================
===================================================================


Chorus 3

Guitar 1
D#-----------------------------------------------------------------|
A#-----------------------------------------------------------------|
F#-----------------------------------------------------------------|
C#-5---5---5---5---5---5---5---5---3---3---3---3---3---3---3---3---|
G#-5---5---5---5---5---5---5---5---3---3---3---3---3---3---3---3---|
C#-5---5---5---5---5---5---5---5---3---3---3---3---3---3---3---3---|

===================================================================

Guitar 1
D#-----------------------------------------------------------------|
A#-----------------------------------------------------------------|
F#-8---8---8---8---8---8---8---8---8---8---8---8---8---8---8---8---|
C#-8---8---8---8---8---8---8---8---8---8---8---8---8---8---8---8---|
G#-6---6---6---6---6---6---6---6---6---6---6---6---6---6---6---6---|
C#-----------------------------------------------------------------|

===================================================================

Guitar 1
D#-----------------------------------------------------------------|
A#-----------------------------------------------------------------|
F#-----------------------------------------------------------------|
C#-5---5---5---5---5---5---5---5---3---3---3---3---3---3---3---3---|
G#-5---5---5---5---5---5---5---5---3---3---3---3---3---3---3---3---|
C#-5---5---5---5---5---5---5---5---3---3---3---3---3---3---3---3---|

===================================================================

Guitar 1
D#-----------------------------------------------------------------|
A#-----------------------------------------------------------------|
F#-8---8---8---8---8---8---8---8---8---8---8---8---8---8---8---8---|
C#-8---8---8---8---8---8---8---8---8---8---8---8---8---8---8---8---|
G#-6---6---6---6---6---6---6---6---6---6---6---6---6---6---6---6---|
C#-----------------------------------------------------------------|

===================================================================

Guitar 1
D#-----------------------------------------------------------------|
A#-----------------------------------------------------------------|
F#-----------------------------------------------------------------|
C#-5---5---5---5---5---5---5---5---3---3---3---3---3---3---3---3---|
G#-5---5---5---5---5---5---5---5---3---3---3---3---3---3---3---3---|
C#-5---5---5---5---5---5---5---5---3---3---3---3---3---3---3---3---|

===================================================================

Guitar 1
D#-----------------------------------------------------------------|
A#-----------------------------------------------------------------|
F#-8---8---8---8---8---8---8---8-----------------------------------|
C#-8---8---8---8---8---8---8---8---------------3---3---5---5---5---|
G#-6---6---6---6---6---6---6---6---3---5---5-----------------------|
C#-----------------------------------------------------------------|

===================================================================

Guitar 1
D#-----------------------------------------------------------------|
A#-----------------------------------------------------------------|
F#-----------------------------------------------------------------|
C#-5---5---5---5---5---5---5---5---3---3---3---3---3---3---3---3---|
G#-5---5---5---5---5---5---5---5---3---3---3---3---3---3---3---3---|
C#-5---5---5---5---5---5---5---5---3---3---3---3---3---3---3---3---|

===================================================================

Guitar 1
D#-----------------------------------------------------------------|
A#-----------------------------------------------------------------|
F#-8---8---8---8---8---8---8---8---8---8---8---8---8---8---8---8---|
C#-8---8---8---8---8---8---8---8---8---8---8---8---8---8---8---8---|
G#-6---6---6---6---6---6---6---6---6---6---6---6---6---6---6---6---|
C#-----------------------------------------------------------------|

===================================================================
===================================================================


Outro

Guitar 1
D#-----------------------------------------------------------------|
A#-----------------------------------------------------16~-15~-----|
F#-12~~~~~~~~~~~~~~~~~-15~-14~---------------------------------17~-|
C#-----------------------------15~---------------------------------|
G#-----------------------------------------------------------------|
C#-----------------------------------------------------------------|

===================================================================

Guitar 1
D#-----------------------------------------------------------------|
A#---------15~-----------------------------------------------------|
F#-------------15~-------------12~-14~-----------------15~-14~-----|
C#-------------------------------------------------------------13~-|
G#-----------------------------------------------------------------|
C#-----------------------------------------------------------------|

===================================================================

Guitar 1 (Fade Out)
D#---------------------------------------------------------13~-15~-|
A#-------------------------15~-16~---------------------------------|
F#-----------------------------------------------------------------|
C#-----------------------------------------------------------------|
G#-----------------------------------------------------------------|
C#-----------------------------------------------------------------|

===================================================================
===================================================================
===================================================================


===================================================================
Guitar 2
===================================================================


Intro


===================================================================
Rest
===================================================================


===================================================================
===================================================================


Verse 1


===================================================================
Rest
===================================================================


===================================================================
===================================================================


Pre Chorus 1


===================================================================
Rest
===================================================================


===================================================================
===================================================================


Chorus 1


===================================================================
Rest
===================================================================


===================================================================
===================================================================


Bridge 1


===================================================================
Rest
===================================================================


===================================================================
===================================================================


Verse 2

Guitar 2
D#-----------------------------------------------------------------|
A#-----------------------------------------------------------------|
F#-----------------------------------------------------------------|
C#-5---5---5---5---5---5---5---5---8---8---8---8---8---8---8---8---|
G#-5---5---5---5---5---5---5---5---8---8---8---8---8---8---8---8---|
C#-5---5---5---5---5---5---5---5---8---8---8---8---8---8---8---8---|
Pm .   .   .   .   .   .   .   .   .   .   .   .   .   .   .   .

===================================================================

Guitar 2
D#-----------------------------------------------------------------|
A#-----------------------------------------------------------------|
F#-----------------------------------------------------------------|
C#-3---3---3---3---3---3---3---3---3---3---3---3---3---3---3---3---|
G#-3---3---3---3---3---3---3---3---3---3---3---3---3---3---3---3---|
C#-3---3---3---3---3---3---3---3---3---3---3---3---3---3---3---3---|
Pm .   .   .   .   .   .   .   .   .   .   .   .   .   .   .   .

===================================================================

Guitar 2
D#-----------------------------------------------------------------|
A#-----------------------------------------------------------------|
F#-8---8---8---8---8---8---8---8---8---8---8---8---8---8---8---8---|
C#-8---8---8---8---8---8---8---8---8---8---8---8---8---8---8---8---|
G#-6---6---6---6---6---6---6---6---6---6---6---6---6---6---6---6---|
C#-----------------------------------------------------------------|
Pm .   .   .   .   .   .   .   .   .   .   .   .   .   .   .   .

===================================================================

Guitar 2
D#-----------------------------------------------------------------|
A#-----------------------------------------------------------------|
F#-7~~-7~~-7~~-7~~-7~~-5~~-5~~-3~~-3~~-3~~-3~~-3~~-3~~-3~~-3~~-3~~-|
C#-5~~-5~~-5~~-5~~-5~~-3~~-3~~-1~~-1~~-1~~-1~~-1~~-1~~-1~~-1~~-1~~-|
G#-----------------------------------------------------------------|
C#-----------------------------------------------------------------|

===================================================================

Guitar 2
D#-----------------------------------------------------------------|
A#-----------------------------------------------------------------|
F#-----------------------------------------------------------------|
C#-5---5---5---5---5---5---5---5---8---8---8---8---8---8---8---8---|
G#-5---5---5---5---5---5---5---5---8---8---8---8---8---8---8---8---|
C#-5---5---5---5---5---5---5---5---8---8---8---8---8---8---8---8---|
Pm .   .   .   .   .   .   .   .   .   .   .   .   .   .   .   .

===================================================================

Guitar 2
D#-----------------------------------------------------------------|
A#-----------------------------------------------------------------|
F#-----------------------------------------------------------------|
C#-3---3---3---3---3---3---3---3---3---3---3---3---3---3---3---3---|
G#-3---3---3---3---3---3---3---3---3---3---3---3---3---3---3---3---|
C#-3---3---3---3---3---3---3---3---3---3---3---3---3---3---3---3---|
Pm .   .   .   .   .   .   .   .   .   .   .   .   .   .   .   .

===================================================================

Guitar 2
D#-----------------------------------------------------------------|
A#-----------------------------------------------------------------|
F#-8---8---8---8---8---8---8---8---8---8---8---8---8---8---8---8---|
C#-8---8---8---8---8---8---8---8---8---8---8---8---8---8---8---8---|
G#-6---6---6---6---6---6---6---6---6---6---6---6---6---6---6---6---|
C#-----------------------------------------------------------------|
Pm .   .   .   .   .   .   .   .   .   .   .   .   .   .   .   .

===================================================================

Guitar 2
D#-----------------------------------------------------------------|
A#-----------------------------------------------------------------|
F#-------------7~~~~~~-5~~-5~~-3~~-3~~-3~~-3~~-3~~-3~~-3~~-3~~-3~~-|
C----------5~~~~~~~~~~-3~~-3~~-1~~-1~~-1~~-1~~-1~~-1~~-1~~-1~~-1~~-|
G#-----------------------------------------------------------------|
C#-----------------------------------------------------------------|

===================================================================
===================================================================


Chorus 2

Guitar 2
D#-----------------------------------------------------------------|
A#-----------------------------------------------------------------|
F#-----------------------------------------------------------------|
C#-5---5---5---5---5---5---5---3---3---3---3---3---3---3---3---3---|
G#-5---5---5---5---5---5---5---3---3---3---3---3---3---3---3---3---|
C#-5---5---5---5---5---5---5---3---3---3---3---3---3---3---3---3---|

===================================================================

Guitar 2
D#-----------------------------------------------------------------|
A#-----------------------------------------------------------------|
F#-8---8---8---8---8---8---8---8---8---8---8---8---8---8---8---8---|
C#-8---8---8---8---8---8---8---8---8---8---8---8---8---8---8---8---|
G#-6---6---6---6---6---6---6---6---6---6---6---6---6---6---6---6---|
C#-----------------------------------------------------------------|

===================================================================

Guitar 2
D#-----------------------------------------------------------------|
A#-----------------------------------------------------------------|
F#-----------------------------------------------------------------|
C#-5---5---5---5---5---5---5---3---3---3---3---3---3---3---3---3---|
G#-5---5---5---5---5---5---5---3---3---3---3---3---3---3---3---3---|
C#-5---5---5---5---5---5---5---3---3---3---3---3---3---3---3---3---|

===================================================================

Guitar 2
D#-----------------------------------------------------------------|
A#-----------------------------------------------------------------|
F#-8---8---8---8---8---8---8---8---8---8---8---8---8---8---8---8---|
C#-8---8---8---8---8---8---8---8---8---8---8---8---8---8---8---8---|
G#-6---6---6---6---6---6---6---6---6---6---6---6---6---6---6---6---|
C#-----------------------------------------------------------------|

===================================================================

Guitar 2
D#-----------------------------------------------------------------|
A#-----------------------------------------------------------------|
F#-----------------------------------------------------------------|
C#-5---5---5---5---5---5---5---3---3---3---3---3---3---3---3---3---|
G#-5---5---5---5---5---5---5---3---3---3---3---3---3---3---3---3---|
C#-5---5---5---5---5---5---5---3---3---3---3---3---3---3---3---3---|

===================================================================

Guitar 2
D#-----------------------------------------------------------------|
A#-----------------------------------------------------------------|
F#-8---8---8---8---8---8---8---8---8---8---8---8---8---8---8---8---|
C#-8---8---8---8---8---8---8---8---8---8---8---8---8---8---8---8---|
G#-6---6---6---6---6---6---6---6---6---6---6---6---6---6---6---6---|
C#-----------------------------------------------------------------|

===================================================================

Guitar 2
D#-----------------------------------------------------------------|
A#-----------------------------------------------------------------|
F#-----------------------------------------------------------------|
C#-5---5---5---5---5---5---5---3---3---3---3---3---3---3---3---3---|
G#-5---5---5---5---5---5---5---3---3---3---3---3---3---3---3---3---|
C#-5---5---5---5---5---5---5---3---3---3---3---3---3---3---3---3---|

===================================================================

Guitar 2
D#-----------------------------------------------------------------|
A#-----------------------------------------------------------------|
F#-8---8---8---8---8---8---8---8---8---8---8---8---8---8---8---8---|
C#-8---8---8---8---8---8---8---8---8---8---8---8---8---8---8---8---|
G#-6---6---6---6---6---6---6---6---6---6---6---6---6---6---6---6---|
C#-----------------------------------------------------------------|

===================================================================
===================================================================


Interlude 1

Guitar 2
D#-----------------------------------------------------------------|
A#-----------------------------------------------------------------|
F#-----------------------------------------------------------------|
C#-5---5---5---5---5---5---5---5---7---7---7---7---7---7---7---7---|
G#-5---5---5---5---5---5---5---5---7---7---7---7---7---7---7---7---|
C#-5---5---5---5---5---5---5---5---7---7---7---7---7---7---7---7---|

===================================================================

Guitar 2
D#-----------------------------------------------------------------|
A#-----------------------------------------------------------------|
F#---------------------------------------------7---7---7---7---7---|
C#-8---8---8---8---8---8---8---8---10--10--10--7---7---7---7---7---|
G#-8---8---8---8---8---8---8---8---10--10--10--5---5---5---5---5---|
C#-8---8---8---8---8---8---8---8---10--10--10----------------------|

===================================================================

Guitar 2
D#-----------------------------------------------------------------|
A#-----------------------------------------------------------------|
F#-----------------------------------------------------------------|
C#-5---5---5---5---5---5---5---5---7---7---7---7---7---7---7---7---|
G#-5---5---5---5---5---5---5---5---7---7---7---7---7---7---7---7---|
C#-5---5---5---5---5---5---5---5---7---7---7---7---7---7---7---7---|

===================================================================

Guitar 2
D#-----------------------------------------------------------------|
A#-----------------------------------------------------------------|
F#---------------------------------------------7---7---7---7---7---|
C#-8---8---8---8---8---8---8---8---10--10--10--7---7---7---7---7---|
G#-8---8---8---8---8---8---8---8---10--10--10--5---5---5---5---5---|
C#-8---8---8---8---8---8---8---8---10--10--10----------------------|

===================================================================
===================================================================


Interlude 2

Guitar 2
D#---------------------------------5-6-5---------------------------|
A#-8---8-6-----6---8---8---8---8---------8-6-8-6---6---6---6---6---|
F#---------7-------------------------------------7-----------------|
C#-----------------------------------------------------------------|
G#-----------------------------------------------------------------|
C#-----------------------------------------------------------------|

===================================================================

Guitar 2
D#---------------------------------|
A#-8---8-6-----6---8---8-------6---|
F#---------7---------------7-------|
C#---------------------------------|
G#---------------------------------|
C#---------------------------------|

Guitar 2 continued
D#-10-13-10-------------------------------|
A#----------13-11-13br~-13-15-13-11-13-11-|
F#----------------------------------------|
C#----------------------------------------|
G#----------------------------------------|
C#----------------------------------------|

===================================================================

Guitar 2
D#---------------------------------5-6-5---------------------------|
A#-8---8-6-----6---8---8---8---8---------8-6-8-6---6---6---6---6---|
F#---------7-------------------------------------7-----------------|
C#-----------------------------------------------------------------|
G#-----------------------------------------------------------------|
C#-----------------------------------------------------------------|

===================================================================

Guitar 2
D#---------------------------------|
A#-8---8-6-----6---8---8-------6---|
F#---------7---------------7-------|
C#---------------------------------|
G#---------------------------------|
C#---------------------------------|

Guitar 2 continued
D#-------------------------------------15-18-15----|
A#----------------------------15-16-18----------18-|
F#-------------------14-15-17----------------------|
C#----------13-15-17-------------------------------|
G#-13-15-17----------------------------------------|
C#-------------------------------------------------|

===================================================================
===================================================================


Bridge 2


===================================================================
Rest
===================================================================


===================================================================

Guitar 2 (Fade In)
D#-----------------------------------------------------------------|
A#-----------------------------------------------------------------|
F#-----------------------------------------------------------------|
C#-0~~~~~~~~~~~~~~~~~~~~~~~~~~~~~~~~~~~~~~~~~~~~~~~~~~~~~~~~~~~~~~-
G#-0~~~~~~~~~~~~~~~~~~~~~~~~~~~~~~~~~~~~~~~~~~~~~~~~~~~~~~~~~~~~~~-
C#-0~~~~~~~~~~~~~~~~~~~~~~~~~~~~~~~~~~~~~~~~~~~~~~~~~~~~~~~~~~~~~~-

===================================================================
===================================================================


Chorus 3

Guitar 2
D#-----------------------------------------------------------------|
A#-----------------------------------------------------------------|
F#-----------------------------------------------------------------|
C#-5---5---5---5---5---5---5---5---3---3---3---3---3---3---3---3---|
G#-5---5---5---5---5---5---5---5---3---3---3---3---3---3---3---3---|
C#-5---5---5---5---5---5---5---5---3---3---3---3---3---3---3---3---|

===================================================================

Guitar 2
D#-----------------------------------------------------------------|
A#-----------------------------------------------------------------|
F#-8---8---8---8---8---8---8---8---8---8---8---8---8---8---8---8---|
C#-8---8---8---8---8---8---8---8---8---8---8---8---8---8---8---8---|
G#-6---6---6---6---6---6---6---6---6---6---6---6---6---6---6---6---|
C#-----------------------------------------------------------------|

===================================================================

Guitar 2
D#-----------------------------------------------------------------|
A#-----------------------------------------------------------------|
F#-----------------------------------------------------------------|
C#-5---5---5---5---5---5---5---5---3---3---3---3---3---3---3---3---|
G#-5---5---5---5---5---5---5---5---3---3---3---3---3---3---3---3---|
C#-5---5---5---5---5---5---5---5---3---3---3---3---3---3---3---3---|

===================================================================

Guitar 2
D#-----------------------------------------------------------------|
A#-----------------------------------------------------------------|
F#-8---8---8---8---8---8---8---8---8---8---8---8---8---8---8---8---|
C#-8---8---8---8---8---8---8---8---8---8---8---8---8---8---8---8---|
G#-6---6---6---6---6---6---6---6---6---6---6---6---6---6---6---6---|
C#-----------------------------------------------------------------|

===================================================================

Guitar 2
D#-----------------------------------------------------------------|
A#-----------------------------------------------------------------|
F#-----------------------------------------------------------------|
C#-5---5---5---5---5---5---5---5---3---3---3---3---3---3---3---3---|
G#-5---5---5---5---5---5---5---5---3---3---3---3---3---3---3---3---|
C#-5---5---5---5---5---5---5---5---3---3---3---3---3---3---3---3---|

===================================================================

Guitar 2
D#-----------------------------------------------------------------|
A#-----------------------------------------------------------------|
F#-8---8---8---8---8---8---8---8-----------------------------------|
C#-8---8---8---8---8---8---8---8---------------7---7---8---8---8---|
G#-6---6---6---6---6---6---6---6---3---5---5-----------------------|
C#-----------------------------------------------------------------|

===================================================================

Guitar 2
D#-----------------------------------------------------------------|
A#-----------------------------------------------------------------|
F#-----------------------------------------------------------------|
C#-5---5---5---5---5---5---5---5---3---3---3---3---3---3---3---3---|
G#-5---5---5---5---5---5---5---5---3---3---3---3---3---3---3---3---|
C#-5---5---5---5---5---5---5---5---3---3---3---3---3---3---3---3---|

===================================================================

Guitar 2
D#-----------------------------------------------------------------|
A#-----------------------------------------------------------------|
F#-8---8---8---8---8---8---8---8---5---5---5---2---2---3---3---3---|
C#-8---8---8---8---8---8---8---8---x---x---x---x---x---x---x---x---|
G#-6---6---6---6---6---6---6---6---3---3---3---0---0---1---1---1---|
C#-----------------------------------------------------------------|

===================================================================
===================================================================


Outro

Guitar 2
D#-----------------------------------------------------------------|
A#-----------------------------------------------------------------|
F#-----------------------------------------------------------------|
C#-5~~~~~~~~~~~~~~~~~~~~~~~~~~~~~~~~~~~~~~~~~~~~~~~~~~~~~~~~~~~~~~-
G#-5~~~~~~~~~~~~~~~~~~~~~~~~~~~~~~~~~~~~~~~~~~~~~~~~~~~~~~~~~~~~~~-
C#-5~~~~~~~~~~~~~~~~~~~~~~~~~~~~~~~~~~~~~~~~~~~~~~~~~~~~~~~~~~~~~~-

===================================================================
===================================================================
===================================================================


===================================================================
Guitar 3
===================================================================


Intro


===================================================================
Rest
===================================================================


===================================================================

Guitar 3
D#-----------------------------------------------------------------|
A#-------------------------------------------------------3---------|
F#-------------------------------------------3~~-5~b~r~~---5-3-----|
C#-----------------------------------3~~-5~~-------------------5~~-|
G#-----------------------------------------------------------------|
D#-----------------------------------------------------------------|

===================================================================
===================================================================


Verse 1

Guitar 3
D#------------------------------------------------------------------|
A#---------------------1-3-1~~-------------------------4~~-3~~------|
F#-------------------------------------------------------------5~~~-|
C#-3~~-5~~~~~~~~~~-5~~---------3~~~~~~~~~~~~~~~~~~~~~~--------------|
G#------------------------------------------------------------------|
D#------------------------------------------------------------------|

===================================================================

Guitar 3
D#-----------------------------------------------------------------|
A#-~~~~~~~-3~~-----------------------------------------------------|
F#-------------3~~-------------0~~-2~~~~~~~~~~~~~~~~~~-3~~-0~~-----|
C#-------------------------------------------------------------3~~-|
G#-----------------------------------------------------------------|
D#-----------------------------------------------------------------|

===================================================================

Guitar 3
D#-----------------------------------------------------------------|
A#-----------------------------------------------------------------|
F#-----2~~~~~~~~~~~~~~~~~~---2-3-2---------------------------------|
C#-1~~~----------------------------5~~~~~~~~~~~~~~~~~~~~~~-3~~-5~~-|
G#-----------------------------------------------------------------|
D#-----------------------------------------------------------------|

===================================================================

Guitar 3
D#---------------------------------15-13-----13~-15-13-------------|
A#---------------------------------------15~-----------15-13-------|
F#-----------------------------------------------------------15-14-|
C#-----------------------------------------------------------------|
G#-----------------------------------------------------------------|
D#-----------------------------------------------------------------|

===================================================================

Guitar 3
D#------------------------------------------------------------------|
A#------------------------------------------------------------------|
F#-12~~~~~~~~~~~~~~~~~-12~/14~--------------------------14~-15-12~~-|
C#-----------------------------15~~~~~~~~~~~~~~~~~~~~~~-------------|
G#------------------------------------------------------------------|
D#------------------------------------------------------------------|

===================================================================

Guitar 3
D#-----------------------------------------------------------------|
A#-----------------------------------------------------------------|
F#-~~~~~~~~~~~~~~~~~~~~~~~~~~~-12~-14~~~~~~~~~~~~~~~~~~~~~~~~~~~~~-|
C#-----------------------------------------------------------------|
G#-----------------------------------------------------------------|
D#-----------------------------------------------------------------|

===================================================================

Guitar 3
D#-----------------------------6~~~~~~~~~~~~~~~~~~~~~~~~~~~~~~~~~~-|
A#-------------3~~~~~~-----3~~-4~~~~~~~~~~~~~~~~~~~~~~~~~~~~~~~~~~-|
F#-----3~~-5~~---------5~~-----------------------------------------|
C#-5~~-------------------------------------------------------------|
G#-----------------------------------------------------------------|
D#-----------------------------------------------------------------|

===================================================================

Guitar 3
D#-----10~~~~~~~~~~~~~~~~~~~~~~~~~-------------8~~~~~~~~~~~~~~~~~~-|
A#-8~~~~~~-8~~~~~~~~~~~~~~~~~~~~~~-----8~~-10~~~~~~~~~~~~~~~~~~~~~-|
F#-------------10~~~~~~~~~~~~~~~~~-8~~~~~~~~~~~~~~~~~~~~~~~~~~~~~~-|
C#-----------------------------------------------------------------|
G#-----------------------------------------------------------------|
D#-----------------------------------------------------------------|

===================================================================
===================================================================


Pre Chorus 1

Guitar 3
D#-----------------------------------------10~-------------10~-----|
A#-----11~-10~-------------11~-13~-10~-11~-----11~-10~-11~-----11~-|
F#-12~---------10~-12~-10~-----------------------------------------|
C#-----------------------------------------------------------------|
G#-----------------------------------------------------------------|
D#-----------------------------------------------------------------|

===================================================================
===================================================================


Chorus 1

Guitar 3
D#-3~~-3~~-3~~-3~~-3~~-3~~-3~~-1~~~~~~-1~~-1~~-1~~-1~~-1~~-1~~-1~~-|
A#-3~~-3~~-3~~-3~~-3~~-3~~-3~~-1~~~~~~-1~~-1~~-1~~-1~~-1~~-1~~-1~~-|
F#-3~~-3~~-3~~-3~~-3~~-3~~-3~~-2~~~~~~-2~~-2~~-2~~-2~~-2~~-2~~-2~~-|
C#-5~~-5~~-5~~-5~~-5~~-5~~-5~~-3~~~~~~-3~~-3~~-3~~-3~~-3~~-3~~-3~~-|
G#-5~~-5~~-5~~-5~~-5~~-5~~-5~~-3~~~~~~-3~~-3~~-3~~-3~~-3~~-3~~-3~~-|
D#-----------------------------------------------------------------|

===================================================================

Guitar 3
D#-----------------------------------------------------------------|
A#-8~~-8~~-8~~-8~~-8~~-8~~-8~~-8~~~~~~-8~~-8~~-8~~-----------------|
F#-8~~-8~~-8~~-8~~-8~~-8~~-8~~-8~~~~~~-8~~-8~~-8~~-5br-7~~-5-------|
C#-8~~-8~~-8~~-8~~-8~~-8~~-8~~-8~~~~~~-8~~-8~~-8~~-----------8-7~~-|
G#-6~~-6~~-6~~-6~~-6~~-6~~-6~~-6~~~~~~-6~~-6~~-6~~-----------------|
D#-----------------------------------------------------------------|

===================================================================

Guitar 3
D#-3~~-3~~-3~~-3~~-3~~-3~~-3~~-1~~~~~~-1~~-1~~-1~~-1~~-1~~-1~~-1~~-|
A#-3~~-3~~-3~~-3~~-3~~-3~~-3~~-1~~~~~~-1~~-1~~-1~~-1~~-1~~-1~~-1~~-|
F#-3~~-3~~-3~~-3~~-3~~-3~~-3~~-2~~~~~~-2~~-2~~-2~~-2~~-2~~-2~~-2~~-|
C#-5~~-5~~-5~~-5~~-5~~-5~~-5~~-3~~~~~~-3~~-3~~-3~~-3~~-3~~-3~~-3~~-|
G#-5~~-5~~-5~~-5~~-5~~-5~~-5~~-3~~~~~~-3~~-3~~-3~~-3~~-3~~-3~~-3~~-|
D#-----------------------------------------------------------------|

===================================================================

Guitar 3
D#---------------------------------------------8~~~~~~~~-----------|
A#---------8~~-11~~~~~~~~~~~~~~~~~---------8~~~~~~~~~~~~-----------|
F#-----8~~~~~~~~~~~~~~-10~~~~~~~~~-----8~~~~~~~~~~~~~~~~-7-8-7-----|
C#-8~~~~~~~~~~~~~~~~~~~~~~~~~~~~~~-8~~~~~~~~~~~~~~~~~~~~-------8~~-|
G#-----------------------------------------------------------------|
D#-----------------------------------------------------------------|

===================================================================

Guitar 3
D#-3~~-3~~-3~~-3~~-3~~-3~~-3~~-1~~~~~~-1~~-1~~-1~~-1~~-1~~-1~~-1~~-|
A#-3~~-3~~-3~~-3~~-3~~-3~~-3~~-1~~~~~~-1~~-1~~-1~~-1~~-1~~-1~~-1~~-|
F#-3~~-3~~-3~~-3~~-3~~-3~~-3~~-2~~~~~~-2~~-2~~-2~~-2~~-2~~-2~~-2~~-|
C#-5~~-5~~-5~~-5~~-5~~-5~~-5~~-3~~~~~~-3~~-3~~-3~~-3~~-3~~-3~~-3~~-|
G#-5~~-5~~-5~~-5~~-5~~-5~~-5~~-3~~~~~~-3~~-3~~-3~~-3~~-3~~-3~~-3~~-|
D#-----------------------------------------------------------------|

===================================================================

Guitar 3
D#-----------------------------------------------------------------|
A#-8~~-8~~-8~~-8~~-8~~-8~~-8~~-8~~~~~~-8~~-8~~-8~~-----------------|
F#-8~~-8~~-8~~-8~~-8~~-8~~-8~~-8~~~~~~-8~~-8~~-8~~-5br-7~~-5-------|
C#-8~~-8~~-8~~-8~~-8~~-8~~-8~~-8~~~~~~-8~~-8~~-8~~-----------8-7~~-|
G#-6~~-6~~-6~~-6~~-6~~-6~~-6~~-6~~~~~~-6~~-6~~-6~~-----------------|
D#-----------------------------------------------------------------|

===================================================================

Guitar 3
D#-3~~-3~~-3~~-3~~-3~~-3~~-3~~-1~~~~~~-1~~-1~~-1~~-1~~-1~~-1~~-1~~-|
A#-3~~-3~~-3~~-3~~-3~~-3~~-3~~-1~~~~~~-1~~-1~~-1~~-1~~-1~~-1~~-1~~-|
F#-3~~-3~~-3~~-3~~-3~~-3~~-3~~-2~~~~~~-2~~-2~~-2~~-2~~-2~~-2~~-2~~-|
C#-5~~-5~~-5~~-5~~-5~~-5~~-5~~-3~~~~~~-3~~-3~~-3~~-3~~-3~~-3~~-3~~-|
G#-5~~-5~~-5~~-5~~-5~~-5~~-5~~-3~~~~~~-3~~-3~~-3~~-3~~-3~~-3~~-3~~-|
D#-----------------------------------------------------------------|

===================================================================

Guitar 3
D#---------------------------------------------8~~~~-8-10-8-6------|
A#---------8~~-11~~~~~~~~~~~~~~~~~---------8~~~~~~~~----------10-6-|
F#-----8~~~~~~~~~~~~~~-10~~~~~~~~~-----8~~~~~~~~~~~~---------------|
C#-8~~~~~~~~~~~~~~~~~~~~~~~~~~~~~~-8~~~~~~~~~~~~~~~~---------------|
G#-----------------------------------------------------------------|
D#-----------------------------------------------------------------|

===================================================================
===================================================================


Bridge 1

Guitar 3
D#----------------------------------------------------------------|
A#----------------------------------------------------3-5-3-------|
F#----------------------------------------------------------5-3-0-|
C#----------------------------------------------------------------|
G#----------------------------------------------------------------|
D#----------------------------------------------------------------|

==================================================================
==================================================================


Verse 2

Guitar 3
D#------------------------------------------------------------------|
A#------------------------------------------------------------------|
F#/5~~~~~~-3~~~~~~---------------------------------------------3~~~-|
C#-----------------3~~-5~~-5~~-3~~~~~~-5~~~~~~~~~~-3~~-5~~-5~~------|
G#------------------------------------------------------------------|
D#------------------------------------------------------------------|

===================================================================

Guitar 3
D#-----------------------------------------------------------------|
A#-------------------------2~~-3~~~~~~-2~~-----------------------3-|
F#-~~~-2~~~~~~~~~~-3~~~~~~-----------------5~~~~~~-5-3-0-2-5-2-0---|
C#---------------------5~~-----------------------------------------|
G#-----------------------------------------------------------------|
D#-----------------------------------------------------------------|

===================================================================

Guitar 3
D#-----------------------------------------------------------------|
A#-------------------------------------3~~-------------------------|
F#---------------------------------5br-----5~~-3~~-3~~~~~~-3~~-3~~-|
C#---------5~~---------5~~-----------------------------------------|
G#-----------------------------------------------------------------|
D#-----------------------------------------------------------------|

===================================================================

Guitar 3
D#-------------------------------------3~~-------------3~~---------|
A#--------------------------------/3~~------------/3~~-----3-------|
F#-----------------------------------------3-0~~-------------5-3-2-|
C#-----------------------------------------------------------------|
G#-----------------------------------------------------------------|
D#-----------------------------------------------------------------|

===================================================================

Guitar 3
D#---------1~~~~-1-------------------------------------------------|
A#-----------------3~~-----------------------------------------3~~-|
F#-0~~~~~~-------------0~~-3~~-------------------------3~~~~~~~~~~-|
C#-----------------------------3~~~~~~~~~~~~~~~~~~-3~~~~~~-3~~~~~~-|
G#-----------------------------------------------------------------|
D#-----------------------------------------------------------------|

===================================================================

Guitar 3
D#-----------------------------13~---------------------------------|
A#---------------------10~~~~~~~~~-----8~~~~~~~~~~-----------------|
F#-------------------------10~~~~~---------7~~~~~~-----7~~~~~~-8~~-|
C#---------------------------------------------10~---------10~~~~~-|
G#-----------------------------------------------------------------|
D#-----------------------------------------------------------------|

===================================================================

Guitar 3
D#-----------------------------------------------------------------|
A#-----11-11-11~~~-11-11-11~-10~-8/10-10~~~~-8~~---------------8~~-|
F#----------------------------------------------------10-7-10~-----|
C#-----------------------------------------------------------------|
G#-----------------------------------------------------------------|
D#-----------------------------------------------------------------|

===================================================================

Guitar 3
D#-------------------------------------15~~~~~-15~~~~~-15~~~~~-15~-|
A#-------------------------------18b~~~~-18b~~~~-18b~~~~-18b~~~~~~-|
F#-----------------------------------------------------------------|
C#-----------------------------------------------------------------|
G#-----------------------------------------------------------------|
D#-----------------------------------------------------------------|

===================================================================
===================================================================


Chorus 2

Guitar 3
D#-3~~-3~~-3~~-3~~-3~~-3~~-3~~-1~~~~~~-1~~-1~~-1~~-1~~-1~~-1~~-1~~-|
A#-3~~-3~~-3~~-3~~-3~~-3~~-3~~-1~~~~~~-1~~-1~~-1~~-1~~-1~~-1~~-1~~-|
F#-3~~-3~~-3~~-3~~-3~~-3~~-3~~-2~~~~~~-2~~-2~~-2~~-2~~-2~~-2~~-2~~-|
C#-5~~-5~~-5~~-5~~-5~~-5~~-5~~-3~~~~~~-3~~-3~~-3~~-3~~-3~~-3~~-3~~-|
G#-5~~-5~~-5~~-5~~-5~~-5~~-5~~-3~~~~~~-3~~-3~~-3~~-3~~-3~~-3~~-3~~-|
D#-----------------------------------------------------------------|

===================================================================

Guitar 3
D#-----------------------------------------------------------------|
A#-8~~-8~~-8~~-8~~-8~~-8~~-8~~-8~~~~~~-8~~-8~~-8~~-----------------|
F#-8~~-8~~-8~~-8~~-8~~-8~~-8~~-8~~~~~~-8~~-8~~-8~~-5br-7~~-5-------|
C#-8~~-8~~-8~~-8~~-8~~-8~~-8~~-8~~~~~~-8~~-8~~-8~~-----------8-7~~-|
G#-6~~-6~~-6~~-6~~-6~~-6~~-6~~-6~~~~~~-6~~-6~~-6~~-----------------|
D#-----------------------------------------------------------------|

===================================================================

Guitar 3
D#-3~~-3~~-3~~-3~~-3~~-3~~-3~~-1~~~~~~-1~~-1~~-1~~-1~~-1~~-1~~-1~~-|
A#-3~~-3~~-3~~-3~~-3~~-3~~-3~~-1~~~~~~-1~~-1~~-1~~-1~~-1~~-1~~-1~~-|
F#-3~~-3~~-3~~-3~~-3~~-3~~-3~~-2~~~~~~-2~~-2~~-2~~-2~~-2~~-2~~-2~~-|
C#-5~~-5~~-5~~-5~~-5~~-5~~-5~~-3~~~~~~-3~~-3~~-3~~-3~~-3~~-3~~-3~~-|
G#-5~~-5~~-5~~-5~~-5~~-5~~-5~~-3~~~~~~-3~~-3~~-3~~-3~~-3~~-3~~-3~~-|
D#-----------------------------------------------------------------|

===================================================================

Guitar 3
D#---------------------------------------------8~~~~~~~~-----------|
A#---------8~~-11~~~~~~~~~~~~~~~~~---------8~~~~~~~~~~~~-----------|
F#-----8~~~~~~~~~~~~~~-10~~~~~~~~~-----8~~~~~~~~~~~~~~~~-7-8-7-----|
C#-8~~~~~~~~~~~~~~~~~~~~~~~~~~~~~~-8~~~~~~~~~~~~~~~~~~~~-------8~~-|
G#-----------------------------------------------------------------|
D#-----------------------------------------------------------------|

===================================================================

Guitar 3
D#-3~~-3~~-3~~-3~~-3~~-3~~-3~~-1~~~~~~-1~~-1~~-1~~-1~~-1~~-1~~-1~~-|
A#-3~~-3~~-3~~-3~~-3~~-3~~-3~~-1~~~~~~-1~~-1~~-1~~-1~~-1~~-1~~-1~~-|
F#-3~~-3~~-3~~-3~~-3~~-3~~-3~~-2~~~~~~-2~~-2~~-2~~-2~~-2~~-2~~-2~~-|
C#-5~~-5~~-5~~-5~~-5~~-5~~-5~~-3~~~~~~-3~~-3~~-3~~-3~~-3~~-3~~-3~~-|
G#-5~~-5~~-5~~-5~~-5~~-5~~-5~~-3~~~~~~-3~~-3~~-3~~-3~~-3~~-3~~-3~~-|
D#-----------------------------------------------------------------|

===================================================================

Guitar 3
D#-----------------------------------------------------------------|
A#-8~~-8~~-8~~-8~~-8~~-8~~-8~~-8~~~~~~-8~~-8~~-8~~-----------------|
F#-8~~-8~~-8~~-8~~-8~~-8~~-8~~-8~~~~~~-8~~-8~~-8~~-5br-7~~-5-------|
C#-8~~-8~~-8~~-8~~-8~~-8~~-8~~-8~~~~~~-8~~-8~~-8~~-----------8-7~~-|
G#-6~~-6~~-6~~-6~~-6~~-6~~-6~~-6~~~~~~-6~~-6~~-6~~-----------------|
D#-----------------------------------------------------------------|

===================================================================

Guitar 3
D#-3~~-3~~-3~~-3~~-3~~-3~~-3~~-1~~~~~~-1~~-1~~-1~~-1~~-1~~-1~~-1~~-|
A#-3~~-3~~-3~~-3~~-3~~-3~~-3~~-1~~~~~~-1~~-1~~-1~~-1~~-1~~-1~~-1~~-|
F#-3~~-3~~-3~~-3~~-3~~-3~~-3~~-2~~~~~~-2~~-2~~-2~~-2~~-2~~-2~~-2~~-|
C#-5~~-5~~-5~~-5~~-5~~-5~~-5~~-3~~~~~~-3~~-3~~-3~~-3~~-3~~-3~~-3~~-|
G#-5~~-5~~-5~~-5~~-5~~-5~~-5~~-3~~~~~~-3~~-3~~-3~~-3~~-3~~-3~~-3~~-|
D#-----------------------------------------------------------------|

===================================================================

Guitar 3
D#---------------------------------------------8~~~~~~~~~~~~~~~~~~-|
A#---------8~~-11~~~~~~~~~~~~~~~~~---------8~~~~~~~~~~~~~~~~~~~~~~-|
F#-----8~~~~~~~~~~~~~~-10~~~~~~~~~-----8~~~~~~~~~~~~~~~~~~~~~~~~~~-|
C#-8~~~~~~~~~~~~~~~~~~~~~~~~~~~~~~-8~~~~~~~~~~~~~~~~~~~~~~~~~~~~~~-
G#-----------------------------------------------------------------|
D#-----------------------------------------------------------------|

===================================================================
===================================================================


Interlude 1

Guitar 3
D#-----------------------------------------------------------------|
A#-----------------------------------------------------------------|
F#-----------------------------------------------------------------|
C#-5---5---5---5---5---5---5---5---5---5---5---5---5---3---3---3---|
G#-----------------------------------------------------------------|
D#-----------------------------------------------------------------|

===================================================================

Guitar 3
D#-----------------------------------------------------------------|
A#-----------------------------------------------------------------|
F#-----------------------------------------------------------------|
C#-5---5---0---3---5---5---0---3---1---1---1---0---0---0---0---0---|
G#-----------------------------------------------------------------|
D#-----------------------------------------------------------------|

===================================================================

Guitar 3
D#-----------------------------------------------------------------|
A#-----------------------------------------------------------------|
F#-----------------------------------------------------------------|
C#-5---5---5---5---5---5---5---5---5---5---5---5---5---3---3---3---|
G#-----------------------------------------------------------------|
D#-----------------------------------------------------------------|

===================================================================

Guitar 3
D#-----------------------------------------------------------------|
A#-----------------------------------------------------------------|
F#-----------------------------------------------------------------|
C#-5---5---0---3---5---5---0---3---5---5---5---1---1---0---0---0---|
G#-----------------------------------------------------------------|
D#-----------------------------------------------------------------|

===================================================================
===================================================================


Interlude 2

Guitar 3
D#-----------------------------------------------------------------|
A#-----------------------------------------------------------------|
F#-----------------------------------------------------------------|
C#-5---5-3-0---3---5---5---5---5---5---5---5---3-0-3---3---3---3---|
G#-----------------------------------------------------------------|
D#-----------------------------------------------------------------|

===================================================================

Guitar 3
D#-----------------------------------------------------------------|
A#-----------------------------------------------------------------|
F#-----------------------------------------------------------------|
C#-5---5-3-0---3---5---5---0---3---7---7---7---8---8---8---7---7---|
G#-----------------------------------------------------------------|
D#-----------------------------------------------------------------|

===================================================================

Guitar 3
D#-----------------------------------------------------------------|
A#-----------------------------------------------------------------|
F#-----------------------------------------------------------------|
C#-5---5-3-0---3---5---5---5---5---5---5---5---3-0-3---3---3---3---|
G#-----------------------------------------------------------------|
D#-----------------------------------------------------------------|

===================================================================

Guitar 3
D#-----------------------------------------------------------------|
A#-----------------------------------------------------------------|
F#-----------------------------------------------------------------|
C#-5---5-3-0---3---5---5---0---3---8---8---8---8---7---7---7---7---|
G#-----------------------------------------------------------------|
D#-----------------------------------------------------------------|

===================================================================
===================================================================


Bridge 2


===================================================================
Rest
===================================================================


===================================================================
===================================================================


Chorus 3

Guitar 3
D#-3~~-3~~-3~~-3~~-3~~-3~~-3~~-3~~-1~~-1~~-1~~-1~~-1~~-1~~-1~~-1~~-|
A#-3~~-3~~-3~~-3~~-3~~-3~~-3~~-3~~-1~~-1~~-1~~-1~~-1~~-1~~-1~~-1~~-|
F#-3~~-3~~-3~~-3~~-3~~-3~~-3~~-3~~-2~~-2~~-2~~-2~~-2~~-2~~-2~~-2~~-|
C#-5~~-5~~-5~~-5~~-5~~-5~~-5~~-5~~-3~~-3~~-3~~-3~~-3~~-3~~-3~~-3~~-|
G#-5~~-5~~-5~~-5~~-5~~-5~~-5~~-5~~-3~~-3~~-3~~-3~~-3~~-3~~-3~~-3~~-|
D#-----------------------------------------------------------------|

===================================================================

Guitar 3
D#-----------------------------------------------------------------|
A#-8~~-8~~-8~~-8~~-8~~-8~~-8~~-8~~-8~~-8~~-8~~-8~~-8~~-8~~-8~~-8~~-|
F#-8~~-8~~-8~~-8~~-8~~-8~~-8~~-8~~-8~~-8~~-8~~-8~~-8~~-8~~-8~~-8~~-|
C#-8~~-8~~-8~~-8~~-8~~-8~~-8~~-8~~-8~~-8~~-8~~-8~~-8~~-8~~-8~~-8~~-|
G#-6~~-6~~-6~~-6~~-6~~-6~~-6~~-6~~-6~~-6~~-6~~-6~~-6~~-6~~-6~~-6~~-|
D#-----------------------------------------------------------------|

===================================================================

Guitar 3
D#-3~~-3~~-3~~-3~~-3~~-3~~-3~~-3~~-1~~-1~~-1~~-1~~-1~~-1~~-1~~-1~~-|
A#-3~~-3~~-3~~-3~~-3~~-3~~-3~~-3~~-1~~-1~~-1~~-1~~-1~~-1~~-1~~-1~~-|
F#-3~~-3~~-3~~-3~~-3~~-3~~-3~~-3~~-2~~-2~~-2~~-2~~-2~~-2~~-2~~-2~~-|
C#-5~~-5~~-5~~-5~~-5~~-5~~-5~~-5~~-3~~-3~~-3~~-3~~-3~~-3~~-3~~-3~~-|
G#-5~~-5~~-5~~-5~~-5~~-5~~-5~~-5~~-3~~-3~~-3~~-3~~-3~~-3~~-3~~-3~~-|
D#-----------------------------------------------------------------|

===================================================================

Guitar 3
D#-----------------------------------------------------------------|
A#-8~~-8~~-8~~-8~~-8~~-8~~-8~~-8~~-8~~-8~~-8~~-8~~-8~~-8~~-8~~-8~~-|
F#-8~~-8~~-8~~-8~~-8~~-8~~-8~~-8~~-8~~-8~~-8~~-8~~-8~~-8~~-8~~-8~~-|
C#-8~~-8~~-8~~-8~~-8~~-8~~-8~~-8~~-8~~-8~~-8~~-8~~-8~~-8~~-8~~-8~~-|
G#-6~~-6~~-6~~-6~~-6~~-6~~-6~~-6~~-6~~-6~~-6~~-6~~-6~~-6~~-6~~-6~~-|
D#-----------------------------------------------------------------|

===================================================================

Guitar 3
D#-3~~-3~~-3~~-3~~-3~~-3~~-3~~-3~~-1~~-1~~-1~~-1~~-1~~-1~~-1~~-1~~-|
A#-3~~-3~~-3~~-3~~-3~~-3~~-3~~-3~~-1~~-1~~-1~~-1~~-1~~-1~~-1~~-1~~-|
F#-3~~-3~~-3~~-3~~-3~~-3~~-3~~-3~~-2~~-2~~-2~~-2~~-2~~-2~~-2~~-2~~-|
C#-5~~-5~~-5~~-5~~-5~~-5~~-5~~-5~~-3~~-3~~-3~~-3~~-3~~-3~~-3~~-3~~-|
G#-5~~-5~~-5~~-5~~-5~~-5~~-5~~-5~~-3~~-3~~-3~~-3~~-3~~-3~~-3~~-3~~-|
D#-----------------------------------------------------------------|

===================================================================

Guitar 3
D#-----------------------------------------------------------------|
A#-8~~-8~~-8~~-8~~-8~~-8~~-8~~-8~~-8~~-8~~-8~~-8~~-8~~-8~~-8~~-8~~-|
F#-8~~-8~~-8~~-8~~-8~~-8~~-8~~-8~~-8~~-8~~-8~~-8~~-8~~-8~~-8~~-8~~-|
C#-8~~-8~~-8~~-8~~-8~~-8~~-8~~-8~~-8~~-8~~-8~~-8~~-8~~-8~~-8~~-8~~-|
G#-6~~-6~~-6~~-6~~-6~~-6~~-6~~-6~~-6~~-6~~-6~~-6~~-6~~-6~~-6~~-6~~-|
D#-----------------------------------------------------------------|

===================================================================

Guitar 3
D#-3~~-3~~-3~~-3~~-3~~-3~~-3~~-3~~-1~~-1~~-1~~-1~~-1~~-1~~-1~~-1~~-|
A#-3~~-3~~-3~~-3~~-3~~-3~~-3~~-3~~-1~~-1~~-1~~-1~~-1~~-1~~-1~~-1~~-|
F#-3~~-3~~-3~~-3~~-3~~-3~~-3~~-3~~-2~~-2~~-2~~-2~~-2~~-2~~-2~~-2~~-|
C#-5~~-5~~-5~~-5~~-5~~-5~~-5~~-5~~-3~~-3~~-3~~-3~~-3~~-3~~-3~~-3~~-|
G#-5~~-5~~-5~~-5~~-5~~-5~~-5~~-5~~-3~~-3~~-3~~-3~~-3~~-3~~-3~~-3~~-|
D#-----------------------------------------------------------------|

===================================================================

Guitar 3
D#-----------------------------------------------------------------|
A#-8~~-8~~-8~~-8~~-8~~-8~~-8~~-8~~-8~~-8~~-8~~-8~~-8~~-8~~-8~~-8~~-|
F#-8~~-8~~-8~~-8~~-8~~-8~~-8~~-8~~-8~~-8~~-8~~-8~~-8~~-8~~-8~~-8~~-|
C#-8~~-8~~-8~~-8~~-8~~-8~~-8~~-8~~-8~~-8~~-8~~-8~~-8~~-8~~-8~~-8~~-|
G#-6~~-6~~-6~~-6~~-6~~-6~~-6~~-6~~-6~~-6~~-6~~-6~~-6~~-6~~-6~~-6~~-|
D#-----------------------------------------------------------------|

===================================================================
===================================================================


Outro

Guitar 3
D#-3~~~~~~~~~~~~~~~~~~~~~~~~~~~~~~~~~~~~~~~~~~~~~~~~~~~~~~~~~~~~~~-
A#-3~~~~~~~~~~~~~~~~~~~~~~~~~~~~~~~~~~~~~~~~~~~~~~~~~~~~~~~~~~~~~~-
F#-3~~~~~~~~~~~~~~~~~~~~~~~~~~~~~~~~~~~~~~~~~~~~~~~~~~~~~~~~~~~~~~-
C#-5~~~~~~~~~~~~~~~~~~~~~~~~~~~~~~~~~~~~~~~~~~~~~~~~~~~~~~~~~~~~~~-
G#-5~~~~~~~~~~~~~~~~~~~~~~~~~~~~~~~~~~~~~~~~~~~~~~~~~~~~~~~~~~~~~~-
D#-----------------------------------------------------------------

===================================================================
===================================================================
===================================================================


----------------------------------------------------------------------------
                               Jezebel
                           Memphis May Fire
----------------------------------------------------------------------------

This is my try out of different technique of tabbing that I have been suggested to do
for a while. I thought it would be good to use it on an amazing, and very relatable,
song from MMF. This one is to all the harlots out there. Enjoy!

Guitar 1 Rhythmic (G# D# G# C# F  A#)
Guitar 2 Lead     (G# D# G# C# F  A#)


===================================================================
Guitar 1
===================================================================


Intro

Guitar 1 (Fade In)
A#-----------------------------------------------------------------|
F -----------------------------------------------------------------|
C#-----------------------------------------------------------------|
G#-----0-10-12-----------------------------------------------------|
D#----------------/12------8---------------------------------------|
G#-0-----------0-------0-------0---0-0-0---8-7-0---5-3-0---7-5-0---|
Pm                                 . .

===================================================================

Guitar 1
A#-----------------------------------------------------------------|
F -----------------------------------------------------------------|
C#-----------------------------------------------------------------|
G#-----0-10-12-----------------------------------------------------|
D#----------------/12------8---------------------------------------|
G#-0-----------0-------0-------0---0-0-0---8-7-0---5-3-0---7-5-0---|
Pm                                 . .

===================================================================
===================================================================


Verse 1

Guitar 1
A#-----------------------------------------------------------------|
F -----------------------------------------------------------------|
C#-----------------------------------------------------------------|
G#-----0-10-12-----------------------------------------------------|
D#----------------/12------8---------------------------------------|
G#-0-----------0-------0-------0---0-0-0---8-7-0---5-3-0---7-5-0---|
Pm                                 . .

===================================================================

Guitar 1
A#-----------------------------------------------------------------|
F -----------------------------------------------------------------|
C#-----------------------------------------------------------------|
G#-------------------------2-3-2-------0-0-0---0-0-0--9-10-9-7-----|
D#---------3-------0-1-0---------------0-0-0---0-0-0-----------10--|
G#-0---3-5-----0-----------------------0-0-0---0-0-0---------------|
Pm                                     . .     . .

===================================================================

Guitar 1
A#-----------------------------------------------------------------|
F -----------------------------------------------------------------|
C#-----------------------------------------------------------------|
G#-----0-3-5-----------8-------------------------------------------|
D#-------------------------------------1-----------------------0---|
G#-0-----------0---0-------0-0-0-----------3-2-0---0-0-2---3-------|
Pm                         . .                     . .

===================================================================

Guitar 1
A#-----------------------------------------------------------------|
F -----------------------------------------------------------------|
C#-----------------------------------------------------------------|
G#-8---8-8-8---8-8-----------------------------------------0-3~~~~-|
D#-8---8-8-8---8-8-------------------------------------------------|
G#-8---8-8-8---8-8-8---10--8---7~~~~~~-10--0~~~~~~-0---0-----------|
Pm     . .     . .

===================================================================

Guitar 1
A#-----------------------------------------------------------------|
F -----------------------------------------------------------------|
C#-----------------------------------------------------------------|
G#-----0-10-12-----------------------------------------------------|
D#----------------/12------8---------------------------------------|
G#-0-----------0-------0-------0---0-0-0---8-7-0---5-3-0---7-5-0---|
Pm                                 . .

===================================================================

Guitar 1
A#-----------------------------------------------------------------|
F -----------------------------------------------------------------|
C#-----------------------------------------------------------------|
G#-------------------------2-3-2-------0-0-0---0-0-0--9-10-9-7-----|
D#---------3-------0-1-0---------------0-0-0---0-0-0-----------10--|
G#-0---3-5-----0-----------------------0-0-0---0-0-0---------------|
Pm                                     . .     . .

===================================================================

Guitar 1
A#-----------------------------------------------------------------|
F -----------------------------------------------------------------|
C#-----------------------------------------------------------------|
G#-----0-3-5-----------8-------------------------------------------|
D#-------------------------------------1-----------------------0---|
G#-0-----------0---0-------0-0-0-----------3-2-0---0-0-2---3-------|
Pm                         . .                     . .

===================================================================

Guitar 1
A#-----------------------------------------------------------------|
F -----------------------------------------------------------------|
C#-----------------------------------------------------------------|
G#-8---8-8-8---8-8---------------------------------x---x-x-----x-x-|
D#-8---8-8-8---8-8---------------------------------x---x-x-----x-x-|
G#-8---8-8-8---8-8-8---10--8---7~~~~~~-10--0~~~~~~-x---x-x-----x-x-|
Pm     . .     . .

===================================================================
===================================================================


Pre Chorus 1

Guitar 1
A#-----------------------------------------------------------------|
F -----------------------------------------------------------------|
C#-----------------------------------------------------------------|
G#-0-------0-0-0-0-0---0-------0-0-0-0-0-0-0---0-0-----0---0-0-0-0-|
D#-0-------0-0-0-0-0---0-------0-0-0-0-0-0-0---0-0-----0---0-0-0-0-|
G#-0-------0-0-0-0-0---0-------0-0-0-0-0-0-0---0-0-----0---0-0-0-0-|
Pm .       . . . . .   .       . . . . . . .   . .     .   . . . .

===================================================================

Guitar 1
A#-----------------------------------------------------------------|
F -----------------------------------------------------------------|
C#-----------------------------------------------------------------|
G#-0-------7-8---8-7---0-------0-0-7-7---5-3---0-------0---0-0-0-0-|
D#-0-------7-8---8-7---0-------0-0-7-7---5-3---0-------0---0-0-0-0-|
G#-0-------7-8---8-7---0-------0-0-7-7---5-3---0-------0---0-0-0-0-|
Pm .                           . .                     .   . . . .

===================================================================

Guitar 1
A#-----------------------------------------------------------------|
F -----------------------------------------------------------------|
C#-----------------------------------------------------------------|
G#-0-------0-0-0-0-0---0-------0-0-0-0-0-0-0---0-0-----3---5---7---|
D#-0-------0-0-0-0-0---0-------0-0-0-0-0-0-0---0-0-----3---5---7---|
G#-0-------0-0-0-0-0---0-------0-0-0-0-0-0-0---0-0-----3---5---7---|
Pm .       . . . . .   .       . . . . . . .   . .

===================================================================

Guitar 1
A#-----------------------------------------------------------------|
F -----------------------------------------------------------------|
C#-----------------------------------------------------------------|
G#-7-7-7---8---7--7-7-7---8---7---7-7-7---8---7---10\~~~~----------|
D#-7-7-7---8---7--7-7-7---8---7---7-7-7---8---7---10\~~~~----------|
G#-7-7-7---8---7--7-7-7---8---7---7-7-7---8---7---10\~~~~----------|
Pm . .            . .             . .             .

===================================================================
===================================================================


Chorus

(x2)

Guitar 1
A#-----------------------------------------------------------------|
F -----------------------------------------------------------------|
C#-----------------------------------------------------------------|
G#-8~~~~-8-8~~-8~~~~-8-8-----8-8-10~~~-12~-0~~~~~~-0-0-0~~-0-0-0-0-|
D#-8~~~~-8-8~~-8~~~~-8-8-8~~-8-8-10~~~-12~-0~~~~~~-0-0-0~~-0-0-0-0-|
G#-8~~~~-8-8~~-8~~~~-8-8-----8-8-10~~~-12~-0~~~~~~-0-0-0~~-0-0-0-0-|
Pm                   . .     . .                   . .     . . . .

===================================================================

Guitar 1
A#-----------------------------------------------------------------|
F -----------------------------------------------------------------|
C#-------------------------------12~~~-12~-12~-12~-----------------|
G#-8~~~~-8-8~~-8~~~~-8-8-10~-8-8-10~~~-10~-10~-10~-x-x-x-x-x-x-x-x-|
D#-8~~~~-8-8~~-8~~~~-8-8-8~~-8-8-10~~~-10~-10~-10~-x-x-x-x-x-x-x-x-|
G#-8~~~~-8-8~~-8~~~~-8-8-8~~-8-8-10~~~-10~-10~-10~-x-x-x-x-x-x-x-x-|
Pm                   . .     . .                   . .     . . . .

===================================================================

Guitar 1
A#-----------------------------------------------------------------|
F -----------------------------------------------------------------|
C#-----------------------------------------------------------------|
G#-8~~~~-8-8~~-8~~~~-8-8-----8-8-10~~~-12~-0~~~~~~-0-0-0~~-0-0-0-0-|
D#-8~~~~-8-8~~-8~~~~-8-8-8~~-8-8-10~~~-12~-0~~~~~~-0-0-0~~-0-0-0-0-|
G#-8~~~~-8-8~~-8~~~~-8-8-----8-8-10~~~-12~-0~~~~~~-0-0-0~~-0-0-0-0-|
Pm                   . .     . .                   . .     . . . .

===================================================================

Guitar 1
A#-----------------------------------------------------------------|
F -----------------------------------------------------------------|
C#-------------------------------12~~~-12~-----7~~~~~~~~~~~~~~~~~~-|
G#-8~~~~-8-8~~-8~~~~-8-8-10~-8-8-10~~~-10~-0---0~~~~~~~~~~~~~~~~~~-|
D#-8~~~~-8-8~~-8~~~~-8-8-8~~-8-8-10~~~-10~-0---0~~~~~~~~~~~~~~~~~~-|
G#-8~~~~-8-8~~-8~~~~-8-8-8~~-8-8-10~~~-10~-0---0~~~~~~~~~~~~~~~~~~-|
Pm                   . .     . .           .

===================================================================
===================================================================


Break Off 1

Guitar 1
A#-----------------------------------------------------------------|
F -----------------------------------------------------------------|
C#-----------------------------------------------------------------|
G#-0---------------------------x---x---------------0~~~~~~~~~~~~~~-|
D#-0---------------------------x---x---------------0~~~~~~~~~~~~~~-|
G#-0---------------------------x---x---------------0~~~~~~~~~~~~~~-|
Pm .

===================================================================
===================================================================


Breakdown 1

Guitar 1
A#-----------------------------------------------------------------|
F -----------------------------------------------------------------|
C#-----------------------------------------------------------------|
G#-0~~~----0~~~----0~~~~-3~~~~-7~~~~-3~~-0-------------------------|
D#-0~~~----0~~~----0~~~~-3~~~~-7~~~~-3~~-0-------------------------|
G#-0~~~----0~~~----0~~~~-3~~~~-7~~~~-3~~-0---0-0-8---0-8---0-8-10--|
Pm                                           . .

===================================================================

Guitar 1
A#---------------------------------------------------------------------|
F ---------------------------------------------------------------------|
C#---------------------------------------------------------------------|
G#---------------------------------------------------------------------|
D#-----9-10-9--------------------------------------------------4-4-4-4-|
G#-0----------10-8-0-0-8---0-8---0-8---0-7---0-3---0-5---0-5-----------|
Pm .               . .     .     .     .     .     .     .

===================================================================

Guitar 1
A#-----------------------------------------------------------------|
F -----------------------------------------------------------------|
C#-----------------------------------------------------------------|
G#-0~~~----0~~~~~~-------------------------------------------------|
D#-0~~~----0~~~~~~-------------------------------------------------|
G#-0~~~----0~~~~~~-8~~~~-5~~~~-7~~~~-0---0---0-0-8---0-8---0-8-10--|
Pm                                           . .

===================================================================

Guitar 1
A#---------------------------------------------------------------------|
F ---------------------------------------------------------------------|
C#-----2-3-2-0---------------------------------------------------------|
G#-------------3-0-----------------------10----8-----5-----7---7-7-7-7-|
D#---------------------------------------------------------------------|
G#-0---------------0-0-0---0-10--0-12--0-----0-----0-----0-------------|
Pm .               . .     .     .     .     .     .     .

===================================================================

Guitar 1
A#-----------------------------------------------------------------|
F -----------------------------------------------------------------|
C#-----------------------------------------------------------------|
G#-0~~~----0~~~----0~~~~-3~~~~-7~~~~-3~~-0-------------------------|
D#-0~~~----0~~~----0~~~~-3~~~~-7~~~~-3~~-0-------------------------|
G#-0~~~----0~~~----0~~~~-3~~~~-7~~~~-3~~-0---0-0-8---0-8---0-8-10--|
Pm                                           . .

===================================================================

Guitar 1
A#---------------------------------------------------------------------|
F ---------------------------------------------------------------------|
C#---------------------------------------------------------------------|
G#---------------------------------------------------------------------|
D#-----9-10-9--------------------------------------------------4-4-4-4-|
G#-0----------10-8-0-0-8---0-8---0-8---0-7---0-3---0-5---0-5-----------|
Pm .               . .     .     .     .     .     .     .

===================================================================

Guitar 1
A#-----------------------------------------------------------------|
F -----------------------------------------------------------------|
C#-----------------------------------------------------------------|
G#-0~~~----0~~~~~~-------------------------------------------------|
D#-0~~~----0~~~~~~-------------------4b~---------------------------|
G#-0~~~----0~~~~~~-8~~~~-5~~~~-7~~~~-----0---0-0-8---0-8---0-8-10--|
Pm                                           . .

===================================================================

Guitar 1
A#---------------------------------------------------------------------|
F ---------------------------------------------------------------------|
C#-----2-3-2-0---------------------------------------------------------|
G#-------------3-0-----------------------------------------------------|
D#---------------------------10----12----13----10----12----13--8-8-8-8-|
G#-0---------------0-0-0---0-----0-----0-----0-----0-----0-------------|
Pm .               . .     .     .     .     .     .     .

===================================================================
===================================================================


Break Off 2

Guitar 1
A#-13-17-13-17-13-17-13-17-15-18-15-18-15-18-15-18-|
F -------------------------------------------------|
C#-------------------------------------------------|
G#-------------------------------------------------|
D#-------------------------------------------------|
G#-------------------------------------------------|

Guitar 1 continued
A#-20--17----------17--20--17----------------------|
F ---------20--20--------------20--17~~\~~~--------|
C#-------------------------------------------------|
G#-------------------------------------------------|
D#-------------------------------------------------|
G#-------------------------------------------------|

===================================================================
===================================================================


Verse 2

Guitar 1
A#-----------------------------------------------------------------|
F -----------------------------------------------------------------|
C#-----------------------------------------------------------------|
G#-----0-10-12-----------------------------------------------------|
D#----------------/12------8---------------------------------------|
G#-0-----------0-------0-------0---0-0-0---8-7-0---5-3-0---7-5-0---|
Pm                                 . .

===================================================================

Guitar 1
A#-----------------------------------------------------------------|
F -----------------------------------------------------------------|
C#-----------------------------------------------------------------|
G#-------------------------2-3-2-------0-0-0---0-0-0--9-10-9-7-----|
D#---------3-------0-1-0---------------0-0-0---0-0-0-----------10--|
G#-0---3-5-----0-----------------------0-0-0---0-0-0---------------|
Pm                                     . .     . .

===================================================================

Guitar 1
A#-----------------------------------------------------------------|
F -----------------------------------------------------------------|
C#-----------------------------------------------------------------|
G#-----0-3-5-----------8-------------------------------------------|
D#-------------------------------------1-----------------------0---|
G#-0-----------0---0-------0-0-0-----------3-2-0---0-0-2---3-------|
Pm                         . .                     . .

===================================================================

Guitar 1
A#-----------------------------------------------------------------|
F -----------------------------------------------------------------|
C#-----------------------------------------------------------------|
G#-8---8-8-8---8-8-----------------------------------------0-3~~~~-|
D#-8---8-8-8---8-8-------------------------------------------------|
G#-8---8-8-8---8-8-8---10--8---7~~~~~~-10--0~~~~~~-0---0-----------|
Pm     . .     . .

===================================================================
===================================================================


Breakdown 2

Guitar 1
A#-----------------------------------------------------------------|
F -----------------------------------------------------------------|
C#-----------------------------------------------------------------|
G#-0-------0---0-------0-------0---0-------0-------0-------0-0-0-0-|
D#-0-------0---0-------0-------0---0-------0-------0-------0-0-0-0-|
G#-0-------0---0-------0-------0---0-------0-------0-------0-0-0-0-|
Pm .       .   .       .       .   .       .       .       . . . .

===================================================================

Guitar 1
A#-----------------------------------------------------------------|
F ---------------------------------10------------------------------|
C#-----------------------------------------------------------------|
G#-----------------------------------------------------7---5---7---|
D#-----------------------------------------------------7---5---7---|
G#-------------------------------------0---7-7-5-------7---5---7---|

===================================================================

Guitar 1
A#-----------------------------------------------------------------|
F -----------------------------------------------------------------|
C#-----------------------------------------------------------------|
G#-0-------0---0-------0-------0---0-------0-------0-------0-0-0-0-|
D#-0-------0---0-------0-------0---0-------0-------0-------0-0-0-0-|
G#-0-------0---0-------0-------0---0-------0-------0-------0-0-0-0-|
Pm .       .   .       .       .   .       .       .       . . . .

===================================================================

Guitar 1
A#-----------------------------------------------------------------|
F -----------------------------------------------------------------|
C#---------------------------------3---2-3-2-0-----0---2-----------|
G#-8---8-8-8---8-8-----------------------------3-----------3-------|
D#-8---8-8-8---8-8---------------------------------------------4---|
G#-8---8-8-8---8-8-8---10--8---7-----------------------------------|
Pm     . .     . .

===================================================================
===================================================================


Pre Chorus 2

Guitar 1
A#------------------------------------------
comments
We did not receive enough feedback on this tab! Please rate:
print report bad tab
1 2 3 4 5
I want to post or [tab]
guest
You may want to rate the tab now too:
select rating
Please do not post tabs as comments. Select "correction" instead!