Oops, an error
Loading. Please wait.

Generation Hate Tab

ver1
ver1

Whole song

Interactive

More versions @911Tabs.com
2,633 views 15 this week
no commentswrite comment
1 2 3 4 5
excellent!
x 4
Autoscroll
+/-
esc
set tempo
stop
Contributor
Difficulty
Tuning
intermediate
C# G# C# F# A# D#
Hey! There's an official Ultimate Guitar app which is ideal
for learning songs when you're away from computer. Get the app
WARNING: You are trying to view
                                    content from Ultimate-Guitar.com
                                    in an unauthorized application,
                                    which is prohibited.

                                    Please use an official Ultimate
                                    Guitar Tabs application for iPhone,
                                    iPad or Android to access legitimate
                                    chords, guitar, bass, and drum tabs
                                    from Ultimate-Guitar.com database.

                                    Type "ultimate guitar tabs" in Apple
                                    App Store's or Android Market's
                                    search to find the application.
----------------------------------------------------------------------------
                           Generation: Hate
                           Memphis May Fire
----------------------------------------------------------------------------

Everyone should be able to relate to this song. Hate is being spread like wildfire on
the internet and I’m just glad MMF was able to write an inspiring song about it. Lyrics
give so much meaning in this song and the whole musical piece makes it a great final 
song of the album (excluding Vessels). Enjoy!

Username: dkm817 (same on X box live)
Youtube Cover: http://www.youtube.com/watch?v=qOjbf10g0mk
Email: guitardrums@rockfan.com

Guitar 1 Rhythmic (C# G# C# F# A# D#)
Guitar 2 Lead     (C# G# C# F# A# D#)

Tab Guide...
===================================================================
(end of measures)

===================================================================
===================================================================
(end of parts)

===================================================================
===================================================================
===================================================================
(end of song)
(If there is a “continued” it is because the numbers could not
fit on 1 line or connecting times played.)


===================================================================
Guitar 1
===================================================================


Intro

Guitar 1
D#-----------------------------------------------------------------|
A#-----------------------------------------------------------------|
F#------------------8^/~------------------------t15t15------t14t14-|
C#-------------7^/~------------------------------------------------|
G#--------8^/~-----------------------------------------------------|
C#-0^/~~~----------------12-12-12-12-12-12h12h12------h12h12-------|

===================================================================
===================================================================


Verse 1

Guitar 1
D#-----------------------------------------------------------------|
A#-----------------------------------------------------------------|
F#-----------------------------------------------------------------|
C#-----------------------------4~~~~~~-----------------8-------7---|
G#---------------------3---5---------------------------------------|
C#-0---0~~~~~~~~~~-0-------------------0~~~~~~-0---0-------0-------|

===================================================================

Guitar 1
D#-----------------------------------------------------------------|
A#-----------------------------------------------------------------|
F#-----------------------------------------------------------------|
C#-----------------------------------------------------------------|
G#---------------------3---6---------------------------------------|
C#-0---0~~~~~~~~~~-0-----------4~~~~~~-5~~~~~~-0---1---0---3---7---|

===================================================================

Guitar 1
D#-----------------------------------------------------------------|
A#-----------------------------------------------------------------|
F#-----------------------------------------------------------------|
C#-----------------------------4~~~~~~-----------------10------12--|
G#---------------------3---5---------------------------------------|
C#-0---0---0~~~~~~-0-------------------0~~~~~~-0---0-------0-------|

===================================================================

Guitar 1
D#-----------------------------------------------------------------|
A#-----------------------------------------------------------------|
F#-----------------------------------------------------------------|
C#-0---0---0-------0---0---0---0-------0-------0---0---0---0-------|
G#-0---0---0-------0---0---0---0-------0-------0---0---0---0-------|
C#-0---0---0-------0---0---0---0-------0-------0---0---0---0-------|
Pm .   .   .       .   .   .   .       .       .   .   .   .

===================================================================

Guitar 1
D#-----------------------------------------------------------------|
A#-----------------------------------------------------------------|
F#-----------------------------------------------------------------|
C#-----------------------------4~~~~~~-----------------------------|
G#---------------------3---5---------------------------------------|
C#-0---0---0~~~~~~-0-------------------0~~~~~~-0---0---8---7---0---|

===================================================================

Guitar 1
D#-----------------------------------------------------------------|
A#-----------------------------------------------------------------|
F#-----------------3---2---0---------------------------------------|
C#-----------------------------4~~~~~~-5~~~~~~-------------0---0---|
G#---------------------------------------------0---3---5---0---0---|
C#-5---5---5~~~~~~-----------------------------------------0---0---|
Pm                                                         .   .

===================================================================

Guitar 1
D#-----------------------------------------------------------------|
A#-----------------------------------------------------------------|
F#-----------------------------------------------------------------|
C#-----------------------------4~~~~~~~b~~~~~~---------------------|
G#---------------------3---5-----------------------3~~~~~~-5~~~~~~-|
C#-0---0---0~~~~~~-0---------------------------0-------------------|
Pm                                             .

===================================================================

Guitar 1
D#-----------------------------------------------------------------|
A#-----------------------------------------------------------------|
F#-----------------------------------------------------------------|
C#-0---0---0~~~~~~-0---0---0---0~~~~~~-0~~~~~~-0---0---0---0~~~~~~-|
G#-0---0---0~~~~~~-0---0---0---0~~~~~~-0~~~~~~-0---0---0---0~~~~~~-|
C#-0---0---0~~~~~~-0---0---0---0~~~~~~-0~~~~~~-0---0---0---0~~~~~~-|
Pm .   .   .       .   .   .   .       .       .   .   .   .

===================================================================

Guitar 1
D#-----------------------------------------------------------------|
A#-----------------------------------------------------------------|
F#-----------------------------------------------------------------|
C#-----------------------------4~~~~~~-----------------8-------7---|
G#---------------------3---5---------------------------------------|
C#-0---0~~~~~~~~~~-0-------------------0~~~~~~-0---0-------0-------|

===================================================================

Guitar 1
D#-----------------------------------------------------------------|
A#-----------------------------------------------------------------|
F#-----------------------------------------------------------------|
C#-----------------------------------------------------------------|
G#---------------------3---6---------------------------------------|
C#-0---0~~~~~~~~~~-0-----------4~~~~~~-5~~~~~~-0---1---0---3---7---|

===================================================================

Guitar 1
D#-----------------------------------------------------------------|
A#-----------------------------------------------------------------|
F#-----------------------------------------------------------------|
C#-----------------------------4~~~~~~-----------------10------12--|
G#---------------------3---5---------------------------------------|
C#-0---0---0~~~~~~-0-------------------0~~~~~~-0---0-------0-------|

===================================================================

Guitar 1
D#-----------------------------------------------------------------|
A#-----------------------------------------------------------------|
F#-----------------------------------------------------------------|
C#-0---0---0-------0---0---0---0-------0-------0---0---0---0-------|
G#-0---0---0-------0---0---0---0-------0-------0---0---0---0-------|
C#-0---0---0-------0---0---0---0-------0-------0---0---0---0-------|
Pm .   .   .       .   .   .   .       .       .   .   .   .

===================================================================

Guitar 1
D#-----------------------------------------------------------------|
A#-----------------------------------------------------------------|
F#-----------------------------------------------------------------|
C#-----------------------------4~~~~~~-----------------------------|
G#---------------------3---5---------------------------------------|
C#-0---0---0~~~~~~-0-------------------0~~~~~~-0---0---8---7---0---|

===================================================================

Guitar 1
D#-----------------------------------------------------------------|
A#-----------------------------------------------------------------|
F#-----------------3---2---0---------------------------------------|
C#-----------------------------4~~~~~~-5~~~~~~-------------0---0---|
G#---------------------------------------------0---3---5---0---0---|
C#-5---5---5~~~~~~-----------------------------------------0---0---|
Pm                                                         .   .

===================================================================

Guitar 1
D#-----------------------------------------------------------------|
A#-----------------------------------------------------------------|
F#-----------------------------------------------------------------|
C#-----------------------------4~~~~~~~b~~~~~~---------------------|
G#---------------------3---5-----------------------3~~~~~~-5~~~~~~-|
C#-0---0---0~~~~~~-0---------------------------0-------------------|
Pm                                             .

===================================================================

Guitar 1
D#-----------------------------------------------------------------|
A#-----------------------------------------------------------------|
F#-----------------------------------------------------------------|
C#-0---0---0~~~~~~-0---0---0---0~~~~~~-0~~~~~~---------------------|
G#-0---0---0~~~~~~-0---0---0---0~~~~~~-0~~~~~~-3---5---------------|
C#-0---0---0~~~~~~-0---0---0---0~~~~~~-0~~~~~~---------4---3~~~~~~-|
Pm .   .   .       .   .   .   .       .

===================================================================
===================================================================


Bridge 1

Guitar 1
D#------------------------------------------------------------------|
A#------------------------------------------------------------------|
F#-3~~~~~~-----3~~~~~~-----3~~~~~~-----2~~~~~~-----2~~~~~~----------|
C#-0~~~~~~-0---0~~~~~~-0---0~~~~~~-0---0~~~~~~-0---0~~~~~~-----2~~~-|
G#---------------------------------------------------------3---3~~~-|
C#------------------------------------------------------------------|
Pm         .           .           .           .           .

===================================================================

Guitar 1
D#-----------------------------------------------------------------|
A#-----------------------------------------------------------------|
F#-----------------------------------------------------------------|
C#-~~~-----2~~~~~~-----2~~~~~~-----3~~~~~~-----3~~~~~~-----3~~~~~~-|
G#-~~~-3---3~~~~~~-3---3~~~~~~-3---3~~~~~~-3---3~~~~~~-3---3~~~~~~-|
C#-----------------------------------------------------------------|
Pm     .           .           .           .           .

===================================================================


Guitar 1
D#------------------------------------------------------------------|
A#------------------------------------------------------------------|
F#-------------------------------------3~~~~~~-----3~~~~~~-----2~~~-|
C#-4~~~~~~-----4~~~~~~-----4~~~~~~-0---0~~~~~~-0---0~~~~~~-0---0~~~-|
G#-5~~~~~~-5---5~~~~~~-5---5~~~~~~----------------------------------|
C#------------------------------------------------------------------|
Pm         .           .           .           .           .

===================================================================

Guitar 1
D#-----------------------------------------------------------------|
A#-----------------------------------------------------------------|
F#-~~~-----2~~~~~~-----2~~~~~~-------------------------------------|
C#-~~~-0---0~~~~~~-0---0~~~~~~-0-----------------------------------|
G#---------------------------------3---3---3---3---3---3-----------|
C#---------------------------------------------------------3~~~~~~-|
Pm     .           .           .

===================================================================

Guitar 1
D#------------------------------------------------------------------|
A#------------------------------------------------------------------|
F#-3~~~~~~-----3~~~~~~-----3~~~~~~-----2~~~~~~-----2~~~~~~----------|
C#-0~~~~~~-0---0~~~~~~-0---0~~~~~~-0---0~~~~~~-0---0~~~~~~-----2~~~-|
G#---------------------------------------------------------3---3~~~-|
C#------------------------------------------------------------------|
Pm         .           .           .           .           .

===================================================================

Guitar 1
D#-----------------------------------------------------------------|
A#-----------------------------------------------------------------|
F#-----------------------------------------------------------------|
C#-~~~-----2~~~~~~-----2~~~~~~-----3~~~~~~-----3~~~~~~-----3~~~~~~-|
G#-~~~-3---3~~~~~~-3---3~~~~~~-3---3~~~~~~-3---3~~~~~~-3---3~~~~~~-|
C#-----------------------------------------------------------------|
Pm     .           .           .           .           .

===================================================================


Guitar 1
D#-----------------------------------------------------------------|
A#-----------------------------------------------------------------|
F#-------------------------------------3~~~~~~-----2~~~~~~---------|
C#-4~~~~~~-----4~~~~~~-----4~~~~~~-0---0~~~~~~-0---0~~~~~~---------|
G#-5~~~~~~-5---5~~~~~~-5---5~~~~~~---------------------------------|
C#---------------------------------------------------------0~~~~~~-|
Pm         .           .           .           .

===================================================================

Guitar 1
D#-----------------------------------------------------------------|
A#-----------------------------------------------------------------|
F#-----------------------------------------------------------------|
C#-----------------------------------------------------------------|
G#---------------------------------3b~~~~~~~~~~~~~~~~~~~~~~~~~~~~~-|
C#-8---7---0---5---0---3---2---0-----------------------------------|

===================================================================
===================================================================


Breakdown 1

Guitar 1
D#-----------------------------------------------------------------|
A#-----------------------------------------------------------------|
F#-----------------------------------------------------------------|
C#-0-------0~~~~~~-0-0-0-0-0---0-------0-------0---0-0---0-0-0-0---|
G#-0-------0~~~~~~-0-0-0-0-0---0-------0-------0---0-0---0-0-0-0---|
C#-0-------0~~~~~~-0-0-0-0-0---0-------0-------0---0-0---0-0-0-0---|
Pm                 . . . . .   .       .       .   . .   . . . .

===================================================================

Guitar 1
D#-----------------------------------------------------------------|
A#-----------------------------------------------------------------|
F#-----------------------------------------------------------------|
C#-----0---0-------0-0---0-0---0-------------------0-0---0-0-------|
G#-----0---0-------0-0---0-0---0-------------------0-0---0-0-------|
C#-----0---0-------0-0---0-0---0-------------------0-0---0-0-------|
Pm     .   .       . .   . .   .                   . .   . .

===================================================================

Guitar 1
D#-----------------------------------------------------------------|
A#-----------------------------------------------------------------|
F#-----------------------------------------------------------------|
C#-0-------0~~~~~~-0-0-0-0-0---0-------0---0---0---0-0---0-0-0-0---|
G#-0-------0~~~~~~-0-0-0-0-0---0-------0---0---0---0-0---0-0-0-0---|
C#-0-------0~~~~~~-0-0-0-0-0---0-------0---0---0---0-0---0-0-0-0---|
Pm                 . . . . .   .       .       .   . .   . . . .

===================================================================

Guitar 1
D#-----------------------------------------------------------------|
A#-----------------------------------------------------------------|
F#---------------------------------10----12------------------------|
C#-----0-----------0-0---0-0---0---x---0-x---0-10--12--12~~~~~\~~~-|
G#-----0-----------0-0---0-0---0---8---0-10--0-10--12--12~~~~~\~~~-|
C#-----0-----------0-0---0-0---0-------0-----0-10--12--12~~~~~\~~~-|
Pm                 . .   . .   .       .     .

===================================================================
===================================================================


Chorus 1

Guitar 1
D#-----------------------------------------------------------------|
A#-----------------------------------------------------------------|
F#-----------------------------------------------------------------|
C#-0-0-0-0-0-------------------------------------------------------|
G#-0-0-0-0-0-------------------------------------------------------|
C#-0-0-0-0-0-------------------------------------------------------|
Pm . . . . .

===================================================================

Guitar 1
D#-----------------------------------------------------------------|
A#-----------------------------------------------------------------|
F#-----------------------------------------------------------------|
C#-10-10-10-10-10----------------------------------10~~~-10~~~-10--|
G#-8--8--8--8--8-----------------------------------8~~~~-8~~~~-8---|
C#-8--8--8--8--8-----------------------------------8~~~~-8~~~~-8---|
Pm .  .  .  .  .                                         .     .

===================================================================

Guitar 1
D#-----------------------------------------------------------------|
A#-----------------------------------------------------------------|
F#-----------------------------------------------------------------|
C#-12-12-12-12-12----------------------------12-12-12~-------------|
G#-10-10-10-10-10----------------------------10-10-10~---8~~---5~~-|
C#-10-10-10-10-10----------------------------10-10-10~-0-----0-----|
Pm .  .  .  .  .                             .  .      .     .

===================================================================

Guitar 1
D#-----------------------------------------------------------------|
A#-----------------------------------------------------------------|
F#-------------------------------------------------3-3-3-5-5-5-5-5-|
C#-0-0-0-0-0~~-0-0-----0-------0-4-0-4-5-4---------3-3-3-5-5-5-5-5-|
G#-0-0-0-0-0~~-0-0-5~~-0-3-5~~-0-----------3-1-0~~-1-1-1-3-3-3-3-3-|
C#-0-0-0-0-0~~-0-0-----0-------0-----------------------------------|
Pm . . . .     . .     .       .

===================================================================

Guitar 1
D#-----------------------------------------------------------------|
A#-----------------------------------------------------------------|
F#-----------------------------------------------------------------|
C#-0-0-0-0-0-----------------------------------0-0-0---0-0---0-0---|
G#-0-0-0-0-0-----------------------------------0-0-0---0-0---0-0---|
C#-0-0-0-0-0-----------------------------------0-0-0---0-0---0-0---|
Pm . . . . .                                   . . .   . .   . .

===================================================================

Guitar 1
D#-----------------------------------------------------------------|
A#-----------------------------------------------------------------|
F#-----------------------------------------------------------------|
C#-10-10-10-10-10----------------------------------2-3-2-0---------|
G#-8--8--8--8--8-------------------------------------------3---1---|
C#-8--8--8--8--8---------------------------------------------------|
Pm .  .  .  .  .

===================================================================

Guitar 1
D#-----------------------------------------------------------------|
A#-----------------------------------------------------------------|
F#-----------------------------------------------------------------|
C#-12-12-12-12-12----------------------------12-12-12~-------------|
G#-10-10-10-10-10----------------------------10-10-10~---8~~---5~~-|
C#-10-10-10-10-10----------------------------10-10-10~-0-----0-----|
Pm .  .  .  .  .                             .  .      .     .

===================================================================

Guitar 1
D#-----------------------------------------------------------------|
A#-----------------------------------------------------------------|
F#-----------------------------------------------------------------|
C#-0-0-0-0-0~~-0-0-----0-------0-4-0-4-5-4-------------------------|
G#-0-0-0-0-0~~-0-0-5~~-0-3-5~~-0-----------3-1-0~~-------------3~~-|
C#-0-0-0-0-0~~-0-0-----0-------0-------------------8~~-0-5~b~r-----|
Pm . . . .     . .     .       .                       .

===================================================================
===================================================================


Verse 2

Guitar 1
D#-----------------------------------------------------------------|
A#-----------------------------------------------------------------|
F#-----------------------------------------------------------------|
C#-----------------------------4~~~~~~-----------------8-------7---|
G#---------------------3---5---------------------------------------|
C#-0---0~~~~~~~~~~-0-------------------0~~~~~~-0---0-------0-------|

===================================================================

Guitar 1
D#-----------------------------------------------------------------|
A#-----------------------------------------------------------------|
F#-----------------------------------------------------------------|
C#-----------------------------------------------------------------|
G#---------------------3---6---------------------------------------|
C#-0---0~~~~~~~~~~-0-----------4~~~~~~-5~~~~~~-0---1---0---3---7---|

===================================================================

Guitar 1
D#-----------------------------------------------------------------|
A#-----------------------------------------------------------------|
F#-----------------------------------------------------------------|
C#-----------------------------4~~~~~~-----------------10------12--|
G#---------------------3---5---------------------------------------|
C#-0---0---0~~~~~~-0-------------------0~~~~~~-0---0-------0-------|

===================================================================

Guitar 1
D#-----------------------------------------------------------------|
A#-----------------------------------------------------------------|
F#-----------------------------------------------------------------|
C#-0---0---0-------0---0---0---0-------0-------0---0---0---0-------|
G#-0---0---0-------0---0---0---0-------0-------0---0---0---0-------|
C#-0---0---0-------0---0---0---0-------0-------0---0---0---0-------|
Pm .   .   .       .   .   .   .       .       .   .   .   .

===================================================================

Guitar 1
D#-----------------------------------------------------------------|
A#-----------------------------------------------------------------|
F#-----------------------------------------------------------------|
C#-----------------------------4~~~~~~-----------------------------|
G#---------------------3---5---------------------------------------|
C#-0---0---0~~~~~~-0-------------------0~~~~~~-0---0---8---7---0---|

===================================================================

Guitar 1
D#-----------------------------------------------------------------|
A#-----------------------------------------------------------------|
F#-----------------3---2---0---------------------------------------|
C#-----------------------------4~~~~~~-5~~~~~~-------------0---0---|
G#---------------------------------------------0---3---5---0---0---|
C#-5---5---5~~~~~~-----------------------------------------0---0---|
Pm                                                         .   .

===================================================================

Guitar 1
D#-----------------------------------------------------------------|
A#-----------------------------------------------------------------|
F#-----------------------------------------------------------------|
C#-----------------------------4~~~~~~~b~~~~~~---------------------|
G#---------------------3---5-----------------------3~~~~~~-5~~~~~~-|
C#-0---0---0~~~~~~-0---------------------------0-------------------|
Pm                                             .

===================================================================

Guitar 1
D#-----------------------------------------------------------------|
A#-----------------------------------------------------------------|
F#-----------------------------------------------------------------|
C#-0---0---0~~~~~~-0---0---0---0~~~~~~-0~~~~~~-0---0---0---0~~~~~~-|
G#-0---0---0~~~~~~-0---0---0---0~~~~~~-0~~~~~~-0---0---0---0~~~~~~-|
C#-0---0---0~~~~~~-0---0---0---0~~~~~~-0~~~~~~-0---0---0---0~~~~~~-|
Pm .   .   .       .   .   .   .       .       .   .   .   .

===================================================================
===================================================================


Bridge 2

Guitar 1
D#-----------------------------------------------------------------|
A#-----------------------------------------------------------------|
F#-----------------------------------------------------------------|
C#---5-7---5-8-----------------------5-7---5-8---------------------|
G#---------------5-7---5-8-----------------------5-7---5-8---------|
C#-5-----5-----5-----5-----5-5-7-5-5-----5-----5-----5-----5-5-7-5-|
Pm .     .     .     .     .       .     .     .     .     .

===================================================================

Guitar 1
D#-----------------------------------------------------------------|
A#-----------------------------------------------------------------|
F#-----------------------------------------------------------------|
C#---2-3---3-5-----------------------5-7---5-8---------------------|
G#---------------------3-5-----------------------5-7---5-8---------|
C#-0-----0-----0-2-3-0-----0-7-8-7-0-----0-----0-----0-----0-7-8-7-|
Pm .     .     .     .     .       .     .     .     .     .

===================================================================

Guitar 1
D#-----------------------------------------------------------------|
A#-----------------------------------------------------------------|
F#-----------------------------------------------------------------|
C#---5-7---5-8-----------------------5-7---5-8---------------------|
G#---------------5-7---5-8-----------------------5-7---5-8---------|
C#-5-----5-----5-----5-----5-5-7-5-5-----5-----5-----5-----5-5-7-5-|
Pm .     .     .     .     .       .     .     .     .     .

===================================================================

Guitar 1
D#-----------------------------------------------------------------|
A#-----------------------------------------------------------------|
F#-------------------------------------------------9~~~~~~~~~~~~~~-|
C#---8-0---7-0--11-0---8-0---8-7-0---8-0---7-0-----8~~~~~~~~~~~~~~-|
G#-------------------------------------------------0~~~~~~~~~~~~~~-|
C#-0-----0-----0-----0-----0-------0-----0-----0-0-----------------|
Pm .     .     .     .     .       .     .     . .

===================================================================
===================================================================


Breakdown 2

Guitar 1 (x2)
D#-----------------------------------------------------------------|
A#-----------------------------------------------------------------|
F#-----------------------------------------------------------------|
C#-0-0-0~~-0-0~~-0-0~~-0-0~~-0-0~~~~-0-0-0~~-0-0~~-----------------|
G#-0-0-0~~-0-0~~-0-0~~-0-0~~-0-0~~~~-0-0-0~~-0-0~~-1~~~~-1~~~~-1---|
C#-0-0-0~~-0-0~~-0-0~~-0-0~~-0-0~~~~-0-0-0~~-0-0~~-0~~~~-0~~~~-0---|
Pm . . .   . .   . .   . .   . .     . . .   . .   .     .     .

===================================================================

Guitar 1
D#-----------------------------------------------------------------|
A#-----------------------------------------------------------------|
F#-----------------------------------------------------------------|
C#-0-0-0---0-0---0-0---0-0---0-0-----0-0-0---0-0-------------------|
G#-0-0-0---0-0---0-0---0-0---0-0-----0-0-0---0-0-------------------|
C#-0-0-0---0-0---0-0---0-0---0-0-----0-0-0---0-0-------------------|
Pm . . .   . .   . .   . .   . .     . . .   . .

===================================================================

Guitar 1                                           (Fade In)
D#-----------------------------------------------------------------|
A#-----------------------------------------------------------------|
F#-----------------------------------------------------------------|
C#-0-0-0---0-0---0-0---0-0---0-0-----0-0-0---0-0---0~~~~~~~~~~~~~~-|
G#-0-0-0---0-0---0-0---0-0---0-0-----0-0-0---0-0---0~~~~~~~~~~~~~~-|
C#-0-0-0---0-0---0-0---0-0---0-0-----0-0-0---0-0---0~~~~~~~~~~~~~~-|
Pm . . .   . .   . .   . .   . .     . . .   . .

===================================================================
===================================================================


Chorus 2

Guitar 1
D#-----------------------------------------------------------------|
A#-----------------------------------------------------------------|
F#-----------------------------------------------------------------|
C#-0-0-0-0-0-------------------------------------------------------|
G#-0-0-0-0-0-------------------------------------------------------|
C#-0-0-0-0-0-------------------------------------------------------|
Pm . . . . .

===================================================================

Guitar 1
D#-----------------------------------------------------------------|
A#-----------------------------------------------------------------|
F#-----------------------------------------------------------------|
C#-10-10-10-10-10----------------------------------10~~~-10~~~-10--|
G#-8--8--8--8--8-----------------------------------8~~~~-8~~~~-8---|
C#-8--8--8--8--8-----------------------------------8~~~~-8~~~~-8---|
Pm .  .  .  .  .                                         .     .

===================================================================

Guitar 1
D#-----------------------------------------------------------------|
A#-----------------------------------------------------------------|
F#-----------------------------------------------------------------|
C#-12-12-12-12-12----------------------------12-12-12~-------------|
G#-10-10-10-10-10----------------------------10-10-10~---8~~---5~~-|
C#-10-10-10-10-10----------------------------10-10-10~-0-----0-----|
Pm .  .  .  .  .                             .  .      .     .

===================================================================

Guitar 1
D#-----------------------------------------------------------------|
A#-------------------------------------------------5~~~~~~-6~~~~~~-|
F#-----------------------------------------------------------------|
C#-0-0-0-0-0~~-0-0-----0-------0-4-0-4-5-4-------------------------|
G#-0-0-0-0-0~~-0-0-5~~-0-3-5~~-0-----------3-1-0~~-----------------|
C#-0-0-0-0-0~~-0-0-----0-------0-----------------------------------|
Pm . . . .     . .     .       .

===================================================================

Guitar 1
D#-----------------------------------------------------------------|
A#-----------------------------------------------------------------|
F#-----------------------------------------------------------------|
C#-0-0-0-0-0-----------------------------------0-0-0---0-0---0-0---|
G#-0-0-0-0-0-----------------------------------0-0-0---0-0---0-0---|
C#-0-0-0-0-0-----------------------------------0-0-0---0-0---0-0---|
Pm . . . . .                                   . . .   . .   . .

===================================================================

Guitar 1
D#-----------------------------------------------------------------|
A#-----------------------------------------------------------------|
F#-----------------------------------------------------------------|
C#-10-10-10-10-10----------------------------------10~~~-10~~~-10--|
G#-8--8--8--8--8-----------------------------------8~~~~-8~~~~-8---|
C#-8--8--8--8--8-----------------------------------8~~~~-8~~~~-8---|
Pm .  .  .  .  .                                         .     .

===================================================================

Guitar 1
D#-----------------------------------------------------------------|
A#-----------------------------------------------------------------|
F#-----------------------------------------------------------------|
C#-12-12-12-12-12----------------------------12-12-12~-------------|
G#-10-10-10-10-10----------------------------10-10-10~---8~~---5~~-|
C#-10-10-10-10-10----------------------------10-10-10~-0-----0-----|
Pm .  .  .  .  .                             .  .      .     .

===================================================================

Guitar 1
D#-----------------------------------------------------------------|
A#-------------------------------------------------5~~~~~~-6~~~~~~-|
F#-----------------------------------------------------------------|
C#-0-0-0-0-0~~-0-0-----0-------0-4-0-4-5-4-------------------------|
G#-0-0-0-0-0~~-0-0-5~~-0-3-5~~-0-----------3-1-0~~-----------------|
C#-0-0-0-0-0~~-0-0-----0-------0-----------------------------------|
Pm . . . .     . .     .       .

===================================================================
===================================================================


Chorus 3

Guitar 1
D#-----------------------------------------------------------------|
A#-----------------------------------------------------------------|
F#-----------------------------------------------------------------|
C#-0-0-0-0-0-----------------0-0---------0-0-x-x-x-0~~~~-0~~~~-0---|
G#-0-0-0-0-0-----------------0-0---------0-0-x-x-x-0~~~~-0~~~~-0---|
C#-0-0-0-0-0-----------------0-0---------0-0-x-x-x-0~~~~-0~~~~-0---|
Pm . . . . .                 . .         . .             .     .

===================================================================

Guitar 1
D#-----------------------------------------------------------------|
A#-----------------------------------------------------------------|
F#-----------------------------------------------------------------|
C#-10-10-10-10-10--------------------------x-x-x-x-10~~~-10~~~-10--|
G#-8--8--8--8--8---------------------------x-x-x-x-8~~~~-8~~~~-8---|
C#-8--8--8--8--8---------------------------x-x-x-x-8~~~~-8~~~~-8---|
Pm .  .  .  .  .                                         .     .

===================================================================

Guitar 1
D#-----------------------------------------------------------------|
A#-----------------------------------------------------------------|
F#-----------------------------------------------------------------|
C#-12-12-12-12-12----------------------------12-12-12~-------------|
G#-10-10-10-10-10----------------------------10-10-10~---8~~---5~~-|
C#-10-10-10-10-10----------------------------10-10-10~-0-----0-----|
Pm .  .  .  .  .                             .  .      .     .

===================================================================

Guitar 1
D#-----------------------------------------------------------------|
A#-----------------------------------------------------------------|
F#-------------------------------------------------3-3-3-5-5-5-5-5-|
C#-0-0-0-0-0~~-0-0-----0-------0-4-0-4-5-4---------3-3-3-5-5-5-5-5-|
G#-0-0-0-0-0~~-0-0-5~~-0-3-5~~-0-----------3-1-0~~-1-1-1-3-3-3-3-3-|
C#-0-0-0-0-0~~-0-0-----0-------0-----------------------------------|
Pm . . . .     . .     .       .

===================================================================

Guitar 1
D#-------------------------------------------------2-----2-----2---|
A#-------------------------------------------------3-----3-----3---|
F#-------------------------------------------------2-----2-----2---|
C#-0-0-0-0-0-----------------0-0---------0-0-x-x-x-----------------|
G#-0-0-0-0-0-----------------0-0---------0-0-x-x-x-----------------|
C#-0-0-0-0-0-----------------0-0---------0-0-x-x-x-----------------|
Pm . . . . .                 . .         . .

===================================================================

Guitar 1
D#-----------------------------------------------------------------|
A#-----------------------------------------------------------------|
F#-----------------------------------------------------------------|
C#-10-10-10-10-10----------------------------------10~~~-10~~~-10--|
G#-8--8--8--8--8-----------------------------------8~~~~-8~~~~-8---|
C#-8--8--8--8--8-----------------------------------8~~~~-8~~~~-8---|
Pm .  .  .  .  .                                         .     .

===================================================================

Guitar 1
D#-----------------------------------------------------------------|
A#-----------------------------------------------------------------|
F#-----------------3*----3*----3*----------------------------------|
C#-12-12-12-12-12--3*----3*----3*--3*----3*\-12-12-12~-------------|
G#-10-10-10-10-10------------------3*----3*\-10-10-10~---8~~---5~~-|
C#-10-10-10-10-10----------------------------10-10-10~-0-----0-----|
Pm .  .  .  .  .                             .  .      .     .

===================================================================

Guitar 1
D#-----------------------------------------------------------------|
A#-----------------------------------------------------------------|
F#-------------------------------------------------3---5---5---5---|
C#-0-0-0-0-0~~-0-0-----0-------0-4-0-4-5-4---------3---5---5---5---|
G#-0-0-0-0-0~~-0-0-5~~-0-3-5~~-0-----------3-1-0~~-1---3---3---3---|
C#-0-0-0-0-0~~-0-0-----0-------0-----------------------------------|
Pm . . . .     . .     .       .

===================================================================
===================================================================


Chorus 4

(x2)

Guitar 1
D#-----------------------------------------------------------------|
A#-----------------------------------------------------------------|
F#-----------------------------------------------------------------|
C#-0---0---0---0---0---0---0---0---0---0---0---0---0---0---0---0---|
G#-0---0---0---0---0---0---0---0---0---0---0---0---0---0---0---0---|
C#-0---0---0---0---0---0---0---0---0---0---0---0---0---0---0---0---|

===================================================================

Guitar 1
D#-----------------------------------------------------------------|
A#-----------------------------------------------------------------|
F#-----------------------------------------------------------------|
C#-8---8---8---8---8---8---8---8---8---8---8---8---8---8---8---8---|
G#-8---8---8---8---8---8---8---8---8---8---8---8---8---8---8---8---|
C#-8---8---8---8---8---8---8---8---8---8---8---8---8---8---8---8---|

===================================================================

Guitar 1
D#-----------------------------------------------------------------|
A#-----------------------------------------------------------------|
F#-----------------------------------------------------------------|
C#-10--10--10--10--10--10--10--10--10--10--10--10--10--10--10--10--|
G#-10--10--10--10--10--10--10--10--10--10--10--10--10--10--10--10--|
C#-10--10--10--10--10--10--10--10--10--10--10--10--10--10--10--10--|

===================================================================

Guitar 1
D#-----------------------------------------------------------------|
A#-----------------------------------------------------------------|
F#-----------------------------------------------------------------|
C#-0---0---0---0---0---0---0---0---0---0---0---0---0---0---0---0---|
G#-0---0---0---0---0---0---0---0---0---0---0---0---0---0---0---0---|
C#-0---0---0---0---0---0---0---0---0---0---0---0---0---0---0---0---|

===================================================================
===================================================================


Outro

Guitar 1
D#-----------------------------------------------------------------|
A#-----------------------------------------------------------------|
F#-----------------------------------------------------------------|
C#-----------------------------------------------------------------|
G#-5---~---~---~---~---~---~---~---~---~---~---~---~---~---~---~---|
C#-----------------------------------------------------------------|

===================================================================

Guitar 1
D#-----------------------------------------------------------------|
A#-----------------------------------------------------------------|
F#-----------------------------------------------------------------|
C#-----------------------------------------------------------------|
G#-1---~---~---~---~---~---~---~---~---~---~---~---~---~---~---~---|
C#-----------------------------------------------------------------|

===================================================================

Guitar 1
D#-----------------------------------------------------------------|
A#-----------------------------------------------------------------|
F#-----------------------------------------------------------------|
C#-----------------------------------------------------------------|
G#-3---~---~---~---~---~---~---~---~---~---~---~---~---~---~---~---|
C#-----------------------------------------------------------------|

===================================================================

Guitar 1
D#-----------------------------------------------------------------|
A#-----------------------------------------------------------------|
F#-----------------------------------------------------------------|
C#-----------------------------------------------------------------|
G#-5---~---~---~---~---~---~---~---~---~---~---~---~---~---~---~---|
C#-----------------------------------------------------------------|

===================================================================

Guitar 1
D#-----------------------------------------------------------------|
A#-----------------------------------------------------------------|
F#-----------------------------------------------------------------|
C#-----------------------------------------------------------------|
G#-~~~~~~~~~~~~~~~~~~~~~~~~~~~~~~~~~~~~~~~~~~~~~~~~~~~~~~~~~~~~~~~-
C#-----------------------------------------------------------------

===================================================================
===================================================================
===================================================================


===================================================================
Guitar 2
===================================================================


Intro


===================================================================
Rest
===================================================================


===================================================================
===================================================================


Verse 1

Guitar 2
D#-----------------------------------------------------------------|
A#-----------------------------------------------------------------|
F#-----------------------------------------------------------------|
C#-----------------------------4~~~~~~-----------------8-------7---|
G#---------------------3---5---------------------------------------|
C#-0---0~~~~~~~~~~-0-------------------0~~~~~~-0---0-------0-------|

===================================================================

Guitar 2
D#-----------------------------------------------------------------|
A#-----------------------------------------------------------------|
F#-----------------------------------------------------------------|
C#-----------------------------------------------------------------|
G#---------------------3---6---------------------------------------|
C#-0---0~~~~~~~~~~-0-----------4~~~~~~-5~~~~~~-0---1---0---3---7---|

===================================================================

Guitar 2
D#-----------------------------------------------------------------|
A#-----------------------------------------------------------------|
F#-----------------------------------------------------------------|
C#-----------------------------4~~~~~~-----------------10------12--|
G#---------------------3---5---------------------------------------|
C#-0---0---0~~~~~~-0-------------------0~~~~~~-0---0-------0-------|

===================================================================

Guitar 2
D#-----------------------------------------------------------------|
A#-----------------------------------------------------------------|
F#-----------------------------------------------------------------|
C#-0---0---0-------0---0---0---0-------0-------0---0---0---0-------|
G#-0---0---0-------0---0---0---0-------0-------0---0---0---0-------|
C#-0---0---0-------0---0---0---0-------0-------0---0---0---0-------|
Pm .   .   .       .   .   .   .       .       .   .   .   .

===================================================================

Guitar 2
D#-----------------------------------------------------------------|
A#-----------------------------------------------------------------|
F#-----------------------------------------------------------------|
C#-----------------------------4~~~~~~-----------------------------|
G#---------------------3---5---------------------------------------|
C#-0---0---0~~~~~~-0-------------------0~~~~~~-0---0---8---7---0---|

===================================================================

Guitar 2
D#-----------------------------------------------------------------|
A#-----------------------------------------------------------------|
F#-----------------3---2---0---------------------------------------|
C#-----------------------------4~~~~~~-5~~~~~~-------------0---0---|
G#---------------------------------------------0---3---5---0---0---|
C#-5---5---5~~~~~~-----------------------------------------0---0---|
Pm                                                         .   .

===================================================================

Guitar 2
D#-----------------------------------------------------------------|
A#-----------------------------------------------------------------|
F#-----------------------------------------------------------------|
C#-----------------------------4~~~~~~~b~~~~~~---------------------|
G#---------------------3---5-----------------------3~~~~~~-5~~~~~~-|
C#-0---0---0~~~~~~-0---------------------------0-------------------|
Pm                                             .

===================================================================

Guitar 2
D#-----------------------------------------------------------------|
A#-----------------------------------------------------------------|
F#-----------------------------------------------------------------|
C#-0---0---0~~~~~~-0---0---0---0~~~~~~-0~~~~~~-0---0---0---0~~~~~~-|
G#-0---0---0~~~~~~-0---0---0---0~~~~~~-0~~~~~~-0---0---0---0~~~~~~-|
C#-0---0---0~~~~~~-0---0---0---0~~~~~~-0~~~~~~-0---0---0---0~~~~~~-|
Pm .   .   .       .   .   .   .       .       .   .   .   .

===================================================================

Guitar 2
D#-----------------------------------------------------------------|
A#-----------------------------------------------------------------|
F#-----------------------------------------------------------------|
C#-----------------------------4~~~~~~-----------------8-------7---|
G#---------------------3---5---------------------------------------|
C#-0---0~~~~~~~~~~-0-------------------0~~~~~~-0---0-------0-------|

===================================================================

Guitar 2
D#-----------------------------------------------------------------|
A#-----------------------------------------------------------------|
F#-----------------------------------------------------------------|
C#-----------------------------------------------------------------|
G#---------------------3---6---------------------------------------|
C#-0---0~~~~~~~~~~-0-----------4~~~~~~-5~~~~~~-0---1---0---3---7---|

===================================================================

Guitar 2
D#-----------------------------------------------------------------|
A#-----------------------------------------------------------------|
F#-----------------------------------------------------------------|
C#-----------------------------4~~~~~~-----------------10------12--|
G#---------------------3---5---------------------------------------|
C#-0---0---0~~~~~~-0-------------------0~~~~~~-0---0-------0-------|

===================================================================

Guitar 2
D#-----------------------------------------------------------------|
A#-----------------------------------------------------------------|
F#-----------------------------------------------------------------|
C#-0---0---0-------0---0---0---0-------0-------0---0---0---0-------|
G#-0---0---0-------0---0---0---0-------0-------0---0---0---0-------|
C#-0---0---0-------0---0---0---0-------0-------0---0---0---0-------|
Pm .   .   .       .   .   .   .       .       .   .   .   .

===================================================================

Guitar 2
D#-----------------------------------------------------------------|
A#-----------------------------------------------------------------|
F#-----------------------------------------------------------------|
C#-----------------------------4~~~~~~-----------------------------|
G#---------------------3---5---------------------------------------|
C#-0---0---0~~~~~~-0-------------------0~~~~~~-0---0---8---7---0---|

===================================================================

Guitar 2
D#-----------------------------------------------------------------|
A#-----------------------------------------------------------------|
F#-----------------3---2---0---------------------------------------|
C#-----------------------------4~~~~~~-5~~~~~~-------------0---0---|
G#---------------------------------------------0---3---5---0---0---|
C#-5---5---5~~~~~~-----------------------------------------0---0---|
Pm                                                         .   .

===================================================================

Guitar 2
D#-----------------------------------------------------------------|
A#-----------------------------------------------------------------|
F#-----------------------------------------------------------------|
C#-----------------------------4~~~~~~~b~~~~~~---------------------|
G#---------------------3---5-----------------------3~~~~~~-5~~~~~~-|
C#-0---0---0~~~~~~-0---------------------------0-------------------|
Pm                                             .

===================================================================

Guitar 2
D#-----------------------------------------------------------------|
A#-----------------------------------------------------------------|
F#-----------------------------------------------------------------|
C#-0---0---0~~~~~~-0---0---0---0~~~~~~-0~~~~~~-2---3---------------|
G#-0---0---0~~~~~~-0---0---0---0~~~~~~-0~~~~~~---------1---0~~~~~~-|
C#-0---0---0~~~~~~-0---0---0---0~~~~~~-0~~~~~~---------------------|
Pm .   .   .       .   .   .   .       .

===================================================================
===================================================================


Bridge 1

Guitar 2
D#-1~~~~-0~~~~-----------------------------------------------------|
A#-------------3-4-3-----------------------------------------------|
F#-------------------5~~~~~~~~~~~~~~~~~~~~~~~~~~~~~~-2-3-2-0-2-----|
C#-------------------------------------------------------------3~~-|
G#-----------------------------------------------------------------|
C#-----------------------------------------------------------------|

===================================================================

Guitar 2
D#-------------------------6-8-6-5-6-5-----------------------------|
A#-------3~~~~-------------------------------------5-6-5---5-------|
F#-------------5~~~~-3~~~~-------------7~\~~~~-----------7---7-5~~-|
C#-4~~~~-----------------------------------------------------------|
G#-----------------------------------------------------------------|
C#-----------------------------------------------------------------|

===================================================================

Guitar 2
D#-6~~~-5~~~--------------------------8-10-10-11-10----11-10-------|
A#-----------8~-6~~~-8-6-5--------------------------13-------13-11-|
F#-------------------------7-5~-7~-5~------------------------------|
C#-----------------------------------------------------------------|
G#-----------------------------------------------------------------|
C#-----------------------------------------------------------------|

===================================================================

Guitar 2
D#-----------------------------------------------------------------|
A#-10~~~-----------------------------------------------------------|
F#-------11~~~-----------------------------------------------------|
C#-------------13~~~-----------------------------------------------|
G#-------------------13~~~-12~~~~~-12~~~~~-13-13-13-13-13-13-13-13-|
C#-----------------------------------------------------------------|

===================================================================
===================================================================


Breakdown 1

Guitar 2
D#-----------------------------------------------------------------|
A#-----------------------------------------------------------------|
F#-----------------------------------------------------------------|
C#-----------------------------------------------------------------|
G#-12~~b~~~r~~~b~~~r~~~b~~~r~~~b~~~r~~~b~~~r~~~b~~~r~~~b~~~r~~~b~~-
C#-----------------------------------------------------------------

===================================================================

Guitar 2
D#-----------------------------------------------------------------|
A#-----------------------------------------------------------------|
F#-----------------------------------------------------------------|
C#-----0---0-------0-0---0-0---0-------------------0-0---0-0-------|
G#-----0---0-------0-0---0-0---0-------------------0-0---0-0-------|
C#-----0---0-------0-0---0-0---0-------------------0-0---0-0-------|
Pm     .   .       . .   . .   .                   . .   . .

===================================================================

Guitar 2
D#-----------------------------------------------------------------|
A#-----------------------------------------------------------------|
F#-----------------------------------------------------------------|
C#-0-------0~~~~~~-0-0-0-0-0---0---0---0-------0---0-0---0-0-0-0---|
G#-0-------0~~~~~~-0-0-0-0-0---0---0---0-------0---0-0---0-0-0-0---|
C#-0-------0~~~~~~-0-0-0-0-0---0---0---0-------0---0-0---0-0-0-0---|
Pm                 . . . . .   .       .       .   . .   . . . .

===================================================================

Guitar 2
D#---------------------------------------------------3~~~~~~~~~~~~-|
A#-----------------------------------------------------------------|
F#---------------------------------2-3-2-0-2-----------------------|
C#-x-x-----0---0---0-0---0-0---0-------------3~~-2~~~~~~~~~~~~~~~~-|
G#-x-x-----0---0---0-0---0-0---0-----------------------------------|
C#-x-x-----0---0---0-0---0-0---0-----------------------------------|
Pm             .   . .   . .   .

===================================================================
===================================================================


Chorus 1

Guitar 2
D#-----------------------------------------------------------------|
A#---------------------------10~~~~~~~~~~~~~~~-10-11-10~~~---------|
F#-------------------11--12--------------------------------12--10--|
C#-12~~~~~~~~~~~~~~~-----------------------------------------------|
G#-----------------------------------------------------------------|
C#-----------------------------------------------------------------|

===================================================================

Guitar 2
D#-----------------------------------------------------------------|
A#-----------------------------------------------------------------|
F#-12-14-12----------12-14-12--------------------------------------|
C#----------14-12~~~----------14-12~~~-14~~~~~~~~~-15~~~~~-14~~~~~-|
G#-----------------------------------------------------------------|
C#-----------------------------------------------------------------|

===================================================================

Guitar 2
D#-----------------------------------------------------------------|
A#-----------------------------------------------------------------|
F#---------------------------------9~~~~~~~~~~~~~~-----------------|
C#-10~~~~~~~~~~~~~~~~~~~~~~~~~~~~~-----------------10~~~~~~~~~~~~~-|
G#-----------------------------------------------------------------|
C#-----------------------------------------------------------------|

===================================================================

Guitar 2
D#-----------------------------------------------------------------|
A#-----------------------------------------------------10~~~~~~~~~-|
F#-----11------12------11------11--11------11-12-11----------------|
C#-12------12------12------12----------12-----------12-------------|
G#-----------------------------------------------------------------|
C#-----------------------------------------------------------------|

===================================================================

Guitar 2
D#-----------------------------------------------------------------|
A#---------------------------10~~~~~~~~~~~~~~~-10-11-10~~~---------|
F#-------------------11--12--------------------------------12--10--|
C#-12~~~~~~~~~~~~~~~-----------------------------------------------|
G#-----------------------------------------------------------------|
C#-----------------------------------------------------------------|

===================================================================

Guitar 2
D#-----------------------------------------------------------------|
A#-----------------------------------------------------------------|
F#-12-14-12----------12-14-12--------------------------------------|
C#----------14-12~~~----------14-12~~~-14~~~~~~~~~-15~~~~~-14~~~~~-|
G#-----------------------------------------------------------------|
C#-----------------------------------------------------------------|

===================================================================

Guitar 2
D#-----------------------------------------------------------------|
A#-----------------------------------------------------------------|
F#---------------------------------9~~~~~~~~~~~~~~-----------------|
C#-10~~~~~~~~~~~~~~~~~~~~~~~~~~~~~-----------------10~~~~~~~~~~~~~-|
G#-----------------------------------------------------------------|
C#-----------------------------------------------------------------|

===================================================================

Guitar 2
D#-------------------------------------------------10--8---10--8---|
A#---------------------------------7-8-7---------------------------|
F#-----11------12------11--11------------7-5-----------------------|
C#-12------12------12----------12------------7-4~~-----------------|
G#-----------------------------------------------------------------|
C#-----------------------------------------------------------------|

===================================================================
===================================================================


Verse 2

Guitar 2
D#-----------------------------------------------------------------|
A#-----------------------------------------------------------------|
F#-----------------------------------------------------------------|
C#-----------------------------4~~~~~~-----------------8-------7---|
G#---------------------3---5---------------------------------------|
C#-0---0~~~~~~~~~~-0-------------------0~~~~~~-0---0-------0-------|

===================================================================

Guitar 2
D#-----------------------------------------------------------------|
A#-----------------------------------------------------------------|
F#-----------------------------------------------------------------|
C#-----------------------------------------------------------------|
G#---------------------3---6---------------------------------------|
C#-0---0~~~~~~~~~~-0-----------4~~~~~~-5~~~~~~-0---1---0---3---7---|

===================================================================

Guitar 2
D#-----------------------------------------------------------------|
A#-----------------------------------------------------------------|
F#-----------------------------------------------------------------|
C#-----------------------------4~~~~~~-----------------10------12--|
G#---------------------3---5---------------------------------------|
C#-0---0---0~~~~~~-0-------------------0~~~~~~-0---0-------0-------|

===================================================================

Guitar 2
D#-----------------------------------------------------------------|
A#-----------------------------------------------------------------|
F#-----------------------------------------------------------------|
C#-0---0---0-------0---0---0---0-------0-------0---0---0---0-------|
G#-0---0---0-------0---0---0---0-------0-------0---0---0---0-------|
C#-0---0---0-------0---0---0---0-------0-------0---0---0---0-------|
Pm .   .   .       .   .   .   .       .       .   .   .   .

===================================================================

Guitar 2
D#-----------------------------------------------------------------|
A#-----------------------------------------------------------------|
F#-----------------------------------------------------------------|
C#-----------------------------4~~~~~~-----------------------------|
G#---------------------3---5---------------------------------------|
C#-0---0---0~~~~~~-0-------------------0~~~~~~-0---0---8---7---0---|

===================================================================

Guitar 2
D#-----------------------------------------------------------------|
A#-----------------------------------------------------------------|
F#-----------------3---2---0---------------------------------------|
C#-----------------------------4~~~~~~-5~~~~~~-------------0---0---|
G#---------------------------------------------0---3---5---0---0---|
C#-5---5---5~~~~~~-----------------------------------------0---0---|
Pm                                                         .   .

===================================================================

Guitar 2
D#-----------------------------------------------------------------|
A#-----------------------------------------------------------------|
F#-----------------------------------------------------------------|
C#-----------------------------4~~~~~~~b~~~~~~---------------------|
G#---------------------3---5-----------------------3~~~~~~-5~~~~~~-|
C#-0---0---0~~~~~~-0---------------------------0-------------------|
Pm                                             .

===================================================================

Guitar 2
D#-----------------------------------------------------------------|
A#-----------------------------------------------------------10-11-|
F#-----------------------------------------------------------------|
C#-0---0---0~~~~~~-0---0---0---0~~~~~~-0~~~~~~-0---0---0-----------|
G#-0---0---0~~~~~~-0---0---0---0~~~~~~-0~~~~~~-0---0---0-----------|
C#-0---0---0~~~~~~-0---0---0---0~~~~~~-0~~~~~~-0---0---0-----------|
Pm .   .   .       .   .   .   .       .       .   .   .

===================================================================
===================================================================


Bridge 2

Guitar 2
D#-------------------------------------------|
A#-10----------------------10-11-10----------|
F#----12-10----------10-12----------12-10-12-|
C#----------13-12-13-------------------------|
G#-------------------------------------------|
C#-------------------------------------------|

Guitar 2 continued
D#-------------------------------8-10-11-10-8-10-11-10-|
A#-10-11-13-11-13-11-10----10-11-----------------------|
F#----------------------12-----------------------------|
C#-----------------------------------------------------|
G#-----------------------------------------------------|
C#-----------------------------------------------------|

===================================================================

Guitar 2
D#-----------------------------------------------------------------|
A#-------------------------11~~~~~-10~~~~~~~~~~~~~-10~~~~~~~~~~~~~-|
F#-11~~~~~~~~~~~~~~~~~~~~~-----------------------------------------|
C#-----------------------------------------------------------------|
G#-----------------------------------------------------------------|
C#-----------------------------------------------------------------|

===================================================================

Guitar 2
D#-----------------------------------------------------------------|
A#-15--15--15--15--15--13----------13--13--13--13--11--11--11--11--|
F#-------------------------15--14----------------------------------|
C#-----------------------------------------------------------------|
G#-----------------------------------------------------------------|
C#-----------------------------------------------------------------|

===================================================================

Guitar 2
D#-----------------------------------------------------------------|
A#---------------------------------11--11--11--12--11~~~~~~~~~~~~~-|
F#-11~~~~~~~~~~~~~~~~~~~~~~~~~~~~~---------------------------------|
C#-----------------------------------------------------------------|
G#-----------------------------------------------------------------|
C#-----------------------------------------------------------------|

===================================================================
===================================================================


Breakdown 2

Guitar 2 (x4)
D#----------------------------------------------------|
A#-10h11p10-----10h11p10-----10h11p10-----10h11p10----|
F#----------------------------------------------------|
C#----------12-------------------------------------12-|
G#----------------------------------------------------|
C#----------------------------------------------------|

===================================================================

Guitar 2
D#-----------------------------------------------------------------|
A#-----------------------------------------------------------------|
F#-----------------------------------------------------------------|
C#-0-0-0~~-0-0~~-0-0~~-0-0~~-0-0~~~~-0-0-0~~-0-0~~-----------------|
G#-0-0-0~~-0-0~~-0-0~~-0-0~~-0-0~~~~-0-0-0~~-0-0~~-1~~~~-1~~~~-1---|
C#-0-0-0~~-0-0~~-0-0~~-0-0~~-0-0~~~~-0-0-0~~-0-0~~-0~~~~-0~~~~-0---|
Pm . . .   . .   . .   . .   . .     . . .   . .   .     .     .

===================================================================

Guitar 2                                           (Fade In)
D#-----------------------------------------------------------------|
A#-----------------------------------------------------------------|
F#-----------------------------------------------------------------|
C#-0-0-0---0-0---0-0---0-0---0-0-----0-0-0---0-0---0~~~~~~~~~~~~~~-|
G#-0-0-0---0-0---0-0---0-0---0-0-----0-0-0---0-0---0~~~~~~~~~~~~~~-|
C#-0-0-0---0-0---0-0---0-0---0-0-----0-0-0---0-0---0~~~~~~~~~~~~~~-|
Pm . . .   . .   . .   . .   . .     . . .   . .

===================================================================
===================================================================


Chorus 2

Guitar 2
D#-----------------------------------------------------------------|
A#---------------------------10~~~~~~~~~~~~~~~-10-11-10~~~---------|
F#-------------------11--12--------------------------------12--10--|
C#-12~~~~~~~~~~~~~~~-----------------------------------------------|
G#-----------------------------------------------------------------|
C#-----------------------------------------------------------------|

===================================================================

Guitar 2
D#-----------------------------------------------------------------|
A#-----------------------------------------------------------------|
F#-12-14-12----------12-14-12--------------------------------------|
C#----------14-12~~~----------14-12~~~-14~~~~~~~~~-15~~~~~-14~~~~~-|
G#-----------------------------------------------------------------|
C#-----------------------------------------------------------------|

===================================================================

Guitar 2
D#-----------------------------------------------------------------|
A#-----------------------------------------------------------------|
F#---------------------------------9~~~~~~~~~~~~~~-----------------|
C#-10~~~~~~~~~~~~~~~~~~~~~~~~~~~~~-----------------10~~~~~~~~~~~~~-|
G#-----------------------------------------------------------------|
C#-----------------------------------------------------------------|

===================================================================

Guitar 2
D#-----------------------------------------------------------------|
A#-----------------------------------------------------10~~~~~~~~~-|
F#-----11------12------11------11--11------11-12-11----------------|
C#-12------12------12------12----------12-----------12-------------|
G#-----------------------------------------------------------------|
C#-----------------------------------------------------------------|

===================================================================

Guitar 2
D#-----------------------------------------------------------------|
A#---------------------------10~~~~~~~~~~~~~~~-10-11-10~~~---------|
F#-------------------11--12--------------------------------12--10--|
C#-12~~~~~~~~~~~~~~~-----------------------------------------------|
G#-----------------------------------------------------------------|
C#-----------------------------------------------------------------|

===================================================================

Guitar 2
D#-----------------------------------------------------------------|
A#-----------------------------------------------------------------|
F#-12-14-12----------12-14-12--------------------------------------|
C#----------14-12~~~----------14-12~~~-14~~~~~~~~~-15~~~~~-14~~~~~-|
G#-----------------------------------------------------------------|
C#-----------------------------------------------------------------|

===================================================================

Guitar 2
D#-----------------------------------------------------------------|
A#-----------------------------------------------------------------|
F#---------------------------------9~~~~~~~~~~~~~~-----------------|
C#-10~~~~~~~~~~~~~~~~~~~~~~~~~~~~~-----------------10~~~~~~~~~~~~~-|
G#-----------------------------------------------------------------|
C#-----------------------------------------------------------------|

===================================================================

Guitar 2
D#-------------------------------------------------10--8---10--8---|
A#---------------------------------7-8-7---------------------------|
F#-----11------12------11--11------------7-5-----------------------|
C#-12------12------12----------12------------7-4~~-----------------|
G#-----------------------------------------------------------------|
C#-----------------------------------------------------------------|

===================================================================
===================================================================


Chorus 3

Guitar 2
D#-----------------------------------------------------------------|
A#-----------------------------------------------------------------|
F#-----------------------------------------------------------------|
C#-0-0-0-0-0---------0-0-0---------0-0-------x-x-x-0~~~~-0~~~~-0---|
G#-0-0-0-0-0---------0-0-0---------0-0-------x-x-x-0~~~~-0~~~~-0---|
C#-0-0-0-0-0---------0-0-0---------0-0-------x-x-x-0~~~~-0~~~~-0---|
Pm . . . . .         . . .         . .                   .     .

===================================================================

Guitar 2
D#-----------------------------------------------------------------|
A#-----------------------------------------------------------------|
F#-----------------------------------------------------------------|
C#-10-10-10-10-10--------------------------x-x-x-x-10~~~-10~~~-10--|
G#-8--8--8--8--8---------------------------x-x-x-x-8~~~~-8~~~~-8---|
C#-8--8--8--8--8---------------------------x-x-x-x-8~~~~-8~~~~-8---|
Pm .  .  .  .  .                                         .     .

===================================================================

Guitar 2
D#-----------------------------------------------------------------|
A#-----------------------------------------------------------------|
F#-----------------------------------------------------------------|
C#-12-12-12-12-12----------------------------12-12-12~-------------|
G#-10-10-10-10-10----------------------------10-10-10~---8~~---5~~-|
C#-10-10-10-10-10----------------------------10-10-10~-0-----0-----|
Pm .  .  .  .  .                             .  .      .     .

===================================================================

Guitar 2
D#-----------------------------------------------------------------|
A#-------------------------------------------------6~~~~~~-5~~~~~~-|
F#-----------------------------------------------------------------|
C#-0-0-0-0-0~~-0-0-----0-------0-4-0-4-5-4-------------------------|
G#-0-0-0-0-0~~-0-0-5~~-0-3-5~~-0-----------3-1-0~~-----------------|
C#-0-0-0-0-0~~-0-0-----0-------0-----------------------------------|
Pm . . . .     . .     .       .

===================================================================

Guitar 2
D#-------------------------------------------------2-----2-----2---|
A#-------------------------------------------------3-----3-----3---|
F#-------------------------------------------------2-----2-----2---|
C#-0-0-0-0-0-----------0-0---------0-0-------x-x-x-----------------|
G#-0-0-0-0-0-----------0-0---------0-0-------x-x-x-----------------|
C#-0-0-0-0-0-----------0-0---------0-0-------x-x-x-----------------|
Pm . . . . .           . .         . .

===================================================================

Guitar 2
D#-----------------------------------------------------------------|
A#-----------------------------------------------------------------|
F#-----------------------------------------------------------------|
C#-10-10-10-10-10----------------------------------10~~~-10~~~-10--|
G#-8--8--8--8--8-----------------------------------8~~~~-8~~~~-8---|
C#-8--8--8--8--8-----------------------------------8~~~~-8~~~~-8---|
Pm .  .  .  .  .                                         .     .

===================================================================

Guitar 2
D#-----------------------------------------------------------------|
A#-----------------------------------------------------------------|
F#-----------------3*----3*----3*----------------------------------|
C#-12-12-12-12-12--3*----3*----3*--3*----3*\-12-12-12~-------------|
G#-10-10-10-10-10------------------3*----3*\-10-10-10~---8~~---5~~-|
C#-10-10-10-10-10----------------------------10-10-10~-0-----0-----|
Pm .  .  .  .  .                             .  .      .     .

===================================================================

Guitar 2
D#-----------------------------------------------------------------|
A#-------------------------------------------------6~~~~~~-5~~~~~~-|
F#-----------------------------------------------------------------|
C#-0-0-0-0-0~~-0-0-----0-------0-4-0-4-5-4-------------------------|
G#-0-0-0-0-0~~-0-0-5~~-0-3-5~~-0-----------3-1-0~~-----------------|
C#-0-0-0-0-0~~-0-0-----0-------0-----------------------------------|
Pm . . . .     . .     .       .

===================================================================
===================================================================


Chorus 4

Guitar 2
D#-----------------------------------------------------------------|
A#---------------------------10~~~~~~~~~~~~~~~-10-11-10~~~---------|
F#-------------------11--12--------------------------------12--10--|
C#-12~~~~~~~~~~~~~~~-----------------------------------------------|
G#-----------------------------------------------------------------|
C#-----------------------------------------------------------------|

===================================================================

Guitar 2
D#-----------------------------------------------------------------|
A#-----------------------------------------------------------------|
F#-12-14-12----------12-14-12--------------------------------------|
C#----------14-12~~~----------14-12~~~-14~~~~~~~~~-15~~~~~-14~~~~~-|
G#-----------------------------------------------------------------|
C#-----------------------------------------------------------------|

===================================================================

Guitar 2
D#-----------------------------------------------------------------|
A#-----------------------------------------------------------------|
F#---------------------------------9~~~~~~~~~~~~~~-----------------|
C#-10~~~~~~~~~~~~~~~~~~~~~~~~~~~~~-----------------10~~~~~~~~~~~~~-|
G#-----------------------------------------------------------------|
C#-----------------------------------------------------------------|

===================================================================

Guitar 2
D#-----------------------------------------------------------------|
A#-----------------------------------------------------10~~~~~~~~~-|
F#-----11------12------11------11--11------11-12-11----------------|
C#-12------12------12------12----------12-----------12-------------|
G#-----------------------------------------------------------------|
C#-----------------------------------------------------------------|

===================================================================

Guitar 2
D#-----------------------------------------------------------------|
A#---------------------------10~~~~~~~~~~~~~~~-10-11-10~~~---------|
F#-------------------11--12--------------------------------12--10--|
C#-12~~~~~~~~~~~~~~~-----------------------------------------------|
G#-----------------------------------------------------------------|
C#-----------------------------------------------------------------|

===================================================================

Guitar 2
D#-----------------------------------------------------------------|
A#-----------------------------------------------------------------|
F#-12-14-12----------12-14-12--------------------------------------|
C#----------14-12~~~----------14-12~~~-14~~~~~~~~~-15~~~~~-14~~~~~-|
G#-----------------------------------------------------------------|
C#-----------------------------------------------------------------|

===================================================================

Guitar 2
D#-----------------------------------------------------------------|
A#-----------------------------------------------------------------|
F#---------------------------------9~~~~~~~~~~~~~~-----------------|
C#-10~~~~~~~~~~~~~~~~~~~~~~~~~~~~~-----------------10~~~~~~~~~~~~~-|
G#-----------------------------------------------------------------|
C#-----------------------------------------------------------------|

===================================================================

Guitar 2
D#-------------------------------------------------10--8---10--8---|
A#---------------------------------7-8-7---------------------------|
F#-----11------12------11--11------------7-5-----------------------|
C#-12------12------12----------12------------7-4~~-----------------|
G#-----------------------------------------------------------------|
C#-----------------------------------------------------------------|

===================================================================
===================================================================


Outro

Guitar 2 (Fade Out)
D#-10--8---10--8---10--8---10--8---10--8---10--8---10--8---10--8---|
A#-----------------------------------------------------------------|
F#-----------------------------------------------------------------|
C#-----------------------------------------------------------------|
G#-----------------------------------------------------------------|
C#-----------------------------------------------------------------|

===================================================================
===================================================================
===================================================================


Tab Legend
h  - hammer-on
p  - pull-off
/  - slide up
\  - slide down
ps/- pickslide up
ps\- pickslide down
~  - let ring
pm.- palm mute
b  - bend
r  - return from bend
t  - finger tapping
*  - harmonic
x  - dead note
^  - Whammy bar
^\ - Whammy bar (hold down)
^/ - Whammy bar (release)

That is all! I hope this helped, and be sure to check out my cover if you are
having problems with the tab. Thanks, oh and one last thing... ROCK OUT!!!!
comments
print report bad tab
I want to post or [tab]
guest
You may want to rate the tab now too:
select rating
Please do not post tabs as comments. Select "correction" instead!