Oops, an error
Loading. Please wait.

Grenade Tab

8,922 views 63 this week
1 commentread comment
1 2 3 4 5
excellent!
x 11
Autoscroll
+/-
esc
set tempo
stop
Contributor
Difficulty
Tuning
intermediate
C# G# C# F# A# D#
WARNING: You are trying to view
                                    content from Ultimate-Guitar.com
                                    in an unauthorized application,
                                    which is prohibited.

                                    Please use an official Ultimate
                                    Guitar Tabs application for iPhone,
                                    iPad or Android to access legitimate
                                    chords, guitar, bass, and drum tabs
                                    from Ultimate-Guitar.com database.

                                    Type "ultimate guitar tabs" in Apple
                                    App Store's or Android Market's
                                    search to find the application.
----------------------------------------------------------------------------
                               Grenade
                           Memphis May Fire
----------------------------------------------------------------------------

Thank you Bruno Mars for making a song that Memphis May Fire could perfect to the
very last detail. You can tell it is MMF because it has those sophisticated guitar
riffs, difficult drum parts, “vocal bass”, and Matty’s incredible voice. It’s just
a phenomenal creation that makes pop look like slop. Enjoy!

Username: dkm817 (same on X box live)
Youtube Cover: http://www.youtube.com/watch?v=It31cGoRMiM
Email: guitardrums@rockfan.com

Guitar 1 Rhythmic (C# G# C# F# A# D#)
Guitar 2 Lead     (C# G# C# F# A# D#)

Tab Guide...
===================================================================
(end of measures)

===================================================================
===================================================================
(end of parts)

===================================================================
===================================================================
===================================================================
(end of song)
(If there is a “continued” it is because the numbers could not
fit on 1 line or connecting times played.)


===================================================================
Guitar 1
===================================================================


Intro

Guitar 1
D#-13~~~~~~~~~-13~~~~~~~~~-13~~~~~-13~~~~~~~~~-13~~~~~~~~~-13~~~~~-|
A#-----15~~~~~~~~~-15~~~~~~~~~-15~~~~~-15~~~~~~~~~-15~~~~~~~~~-15~-|
F#---------14~~~~~~~~~-14~~~~~~~~~~~~~~~~~-14~~~~~~~~~-14~~~~~~~~~-|
C#-----------------------------------------------------------------|
G#-----------------------------------------------------------------|
C#-----------------------------------------------------------------|

===================================================================

Guitar 1
D#-12~~~~~~~~~-12~~~~~~~~~-12~~~~~-12~~~~~~~~~-12~~~~~~~~~-12~~~~~-|
A#-----13~~~~~~~~~-13~~~~~~~~~-13~~~~~-13~~~~~~~~~-13~~~~~~~~~-13~-|
F#---------14~~~~~~~~~-14~~~~~~~~~~~~~~~~~-14~~~~~~~~~-14~~~~~~~~~-|
C#-----------------------------------------------------------------|
G#-----------------------------------------------------------------|
C#-----------------------------------------------------------------|

===================================================================

Guitar 1
D#-13~~~~~~~~~-13~~~~~~~~~-13~~~~~-13~~~~~~~~~-13~~~~~~~~~-13~~~~~-|
A#-----15~~~~~~~~~-15~~~~~~~~~-15~~~~~-15~~~~~~~~~-15~~~~~~~~~-15~-|
F#---------14~~~~~~~~~-14~~~~~~~~~~~~~~~~~-14~~~~~~~~~-14~~~~~~~~~-|
C#-----------------------------------------------------------------|
G#-----------------------------------------------------------------|
C#-----------------------------------------------------------------|

===================================================================

Guitar 1
D#-12~~~~~~~~~-12~~~~~~~~~-12~~~~~---------------------------------|
A#-----13~~~~~~~~~-13~~~~~~~~~-13~---------------------------------|
F#---------14~~~~~~~~~-14~~~~~~~~~---------------------------------|
C#-----------------------------------------------------------------|
G#-----------------------------------------------------------------|
C#-----------------------------------------------------------------|

===================================================================
===================================================================


Verse 1

Guitar 1
D#-----------------------------------------------------------------|
A#-----------------------------------------------------------------|
F#-----------------------------------------------------------------|
C#-----------------------------------------------------------------|
G#-------------------------------13~---10~---10-12-----------------|
C#-12~-0~-15-0-19-0~-14-15-14-0~-----0-----0-------15-0-0~-0-2-3-5-|
Pm                                   .     .               . . . .

===================================================================

Guitar 1
D#-----------------------------------------------------------------|
A#-----------------------------------------------------------------|
F#-----------------------------------------------------------------|
C#-----------------------------------------------------------------|
G#-3~~~---0~~~-------3-0~~~-------------------3-0~~~---------------|
C#------0------0-3-5--------5~~~-0-3~~~-0-3-5--------8~-0-5-7-0-3~-|
Pm      .      . . .             .      . . .           .     .

===================================================================

Guitar 1
D#-----------------------------------------------------------------|
A#-----------------------------------------------------------------|
F#-----------------------------------------------------------------|
C#-----------------------------------------------------------------|
G#-------------------------------13~---10~---10-12-----------------|
C#-12~-0~-15-0-19-0~-14-15-14-0~-----0-----0-------15-0-0~-0-2-3-5-|
Pm                                   .     .               . . . .

===================================================================

Guitar 1
D#-----------------------------------------------------------------|
A#-----------------------------------------------------------------|
F#-----------------------------------------------------------------|
C#-8-8-8-8-8-8-8-8-8-8-8-8-8-8-8-8-10\~----------------------------|
G#-8-8-8-8-8-8-8-8-8-8-8-8-8-8-8-8-10\~----------------------------|
C#-8-8-8-8-8-8-8-8-8-8-8-8-8-8-8-8-10\~----------------------------|

===================================================================
===================================================================


Chorus 1

Guitar 1
D#-----------------------------------------------------------------|
A#-----------------------------------------------------------------|
F#-7-7-7-7-7-7-7-7---------------------------------5-5-5-5-5-5-5-5-|
C#-7-7-7-7-7-7-7-7-8-8-8-8-8-8-8-8-3-3-3-3-3-3-3-3-5-5-5-5-5-5-5-5-|
G#-5-5-5-5-5-5-5-5-8-8-8-8-8-8-8-8-3-3-3-3-3-3-3-3-3-3-3-3-3-3-3-3-|
C#-----------------8-8-8-8-8-8-8-8-3-3-3-3-3-3-3-3-----------------|

===================================================================

Guitar 1
D#-----------------------------------------------------------------------|
A#-----------------------------------------------------------------------|
F#-7-7-7-7-7-7-7-7-------------------------------------------------------|
C#-7-7-7-7-7-7-7-7-8-8-8-8-8-8-8-8-3-3-3-3-3-3-3-3-10-12-10----8-10-8----|
G#-5-5-5-5-5-5-5-5-8-8-8-8-8-8-8-8-3-3-3-3-3-3-3-3----------12--------10-|
C#-----------------8-8-8-8-8-8-8-8-3-3-3-3-3-3-3-3-----------------------|

===================================================================

Guitar 1
D#-----------------------------------------------------------------|
A#-----------------------------------------------------------------|
F#-------------------------------------------------5-5-5-5-5-5-5-5-|
C#---------0-0-0-0-8-8-8-8-8-8-8-8-3-3-3-3-3-3-3-3-5-5-5-5-5-5-5-5-|
G#-12\~~---0-0-0-0-8-8-8-8-8-8-8-8-3-3-3-3-3-3-3-3-3-3-3-3-3-3-3-3-|
C#---------0-0-0-0-8-8-8-8-8-8-8-8-3-3-3-3-3-3-3-3-----------------|

===================================================================

Guitar 1
D#-----------------------------------------------------------------|
A#-----------------------------------------------------------------|
F#-------------------------------------------------5-5-5-5-5-5-5-5-|
C#-0-0-0-0-0-0-0-0-8-8-8-8-8-8-8-8-3-3-3-3-3-3-3-3-5-5-5-5-5-5-5-5-|
G#-0-0-0-0-0-0-0-0-8-8-8-8-8-8-8-8-3-3-3-3-3-3-3-3-3-3-3-3-3-3-3-3-|
C#-0-0-0-0-0-0-0-0-8-8-8-8-8-8-8-8-3-3-3-3-3-3-3-3-----------------|

===================================================================

Guitar 1
D#-----------------------------------------------------------------|
A#-----------------------------------------------------------------|
F#-3-3-3-3-3-3-3-3-3-3-3-3-3-3-3-3-5-5-5-5-5-5-5-5-5-5-5-5-5-5-5-5-|
C#-3-3-3-3-3-3-3-3-3-3-3-3-3-3-3-3-5-5-5-5-5-5-5-5-5-5-5-5-5-5-5-5-|
G#-1-1-1-1-1-1-1-1-1-1-1-1-1-1-1-1-3-3-3-3-3-3-3-3-3-3-3-3-3-3-3-3-|
C#-----------------------------------------------------------------|

===================================================================

Guitar 1
D#-----------------------------------------------------------------|
A#-----------------------------------------------------------------|
F#-9-10-10-10-9-10-9-7-7-9-9-10-9-7-9-10---------------------------|
C#---------------------------------------0-0-0-0-7~~~~-5~~~~-------|
G#---------------------------------------0-0-0-0-------------7~~~~-|
C#---------------------------------------0-0-0-0-------------------|

===================================================================

Guitar 1
D#-9-10-9----------------------------------------------------------|
A#--------11-10-11-10----10-11-10----------------------------------|
F#--------------------10----------12-10-12-10----------------------|
C#--------------------------------------------12-11~\~-------------|
G#-----------------------------------------------------------------|
C#-----------------------------------------------------------------|

===================================================================
===================================================================


Bridge 1

Guitar 1
D#-----------------------------------------------------------------|
A#-----------------------------------------------------------------|
F#-----------------------------------------------------------------|
C#-0~~~~~~-0-0-0-0-0~~~~~~-0~~~~~~-----0~~~~~~-0---0~~~~~~-0~~~~~~-|
G#-0~~~~~~-0-0-0-0-0~~~~~~-0~~~~~~-----0~~~~~~-0---0~~~~~~-0~~~~~~-|
C#-0~~~~~~-0-0-0-0-0~~~~~~-0~~~~~~-----0~~~~~~-0---0~~~~~~-0~~~~~~-|
Pm .       . . . . .       .           .       .   .       .

===================================================================

Guitar 1
D#-----------------------------------------------------------------|
A#-----------------------------------------------------------------|
F#-----------------------------------------------------------------|
C#-----0---0---0---0~~~~~~-0~~~~~~-----0---0---0---0~~~~~~-0~~~~~~-|
G#-----0---0---0---0~~~~~~-0~~~~~~-----0---0---0---0~~~~~~-0~~~~~~-|
C#-----0---0---0---0~~~~~~-0~~~~~~-----0---0---0---0~~~~~~-0~~~~~~-|
Pm     .   .   .   .       .           .   .   .   .       .

===================================================================

Guitar 1
D#-----------------------------------------------------------------|
A#-----------------------------------------------------------------|
F#-----------------------------------------------------------------|
C#-----------------------------------------------------------------|
G#-0~~~~~~~~~~-0~~~~~~~~~~-0~~~~~~-0---0---------------------------|
C#-2~~~~~~~~~~-2~~~~~~~~~~-2~~~~~~-2---2---------------------------|
Pm .           .           .       .   .

===================================================================

Guitar 1
D#-----------------------------------------------------------------|
A#-----------------------------------------------------------------|
F#-----------------------------------------------------------------|
C#-----------------------------------------------------------------|
G#-----0---0---0---0~~~~~~-0~~~~~~-0---0---------------------------|
C#-----2---2---2---2~~~~~~-2~~~~~~-2---2-------7---8---7---0~~~~~~-|
Pm     .   .   .   .       .       .   .

===================================================================

Guitar 1
D#-----------------------------------------------------------------|
A#-----------------------------------------------------------------|
F#-----------------------------------------------------------------|
C#-0~~~~~~-0-0-0-0-0~~~~~~-0~~~~~~-----0~~~~~~-0---0~~~~~~-0~~~~~~-|
G#-0~~~~~~-0-0-0-0-0~~~~~~-0~~~~~~-----0~~~~~~-0---0~~~~~~-0~~~~~~-|
C#-0~~~~~~-0-0-0-0-0~~~~~~-0~~~~~~-----0~~~~~~-0---0~~~~~~-0~~~~~~-|
Pm .       . . . . .       .           .       .   .       .

===================================================================

Guitar 1
D#-----------------------------------------------------------------|
A#-----------------------------------------------------------------|
F#-----------------------------------------------------------------|
C#-----0---0---0---0~~~~~~-0~~~~~~-----0---0---0---0~~~~~~-0~~~~~~-|
G#-----0---0---0---0~~~~~~-0~~~~~~-----0---0---0---0~~~~~~-0~~~~~~-|
C#-----0---0---0---0~~~~~~-0~~~~~~-----0---0---0---0~~~~~~-0~~~~~~-|
Pm     .   .   .   .       .           .   .   .   .       .

===================================================================

Guitar 1
D#-----------------------------------------------------------------|
A#-----------------------------------------------------------------|
F#-----------------------------------------------------------------|
C#-----------------------------------------------------------------|
G#-0~~~~~~~~~~-0~~~~~~~~~~-0~~~~~~-0---0---------------------------|
C#-2~~~~~~~~~~-2~~~~~~~~~~-2~~~~~~-2---2---------------------------|
Pm .           .           .       .   .

===================================================================

Guitar 1
D#-----------------------------------------------------------------|
A#-----------------------------------------------------------------|
F#-----------------------------------------------------------------|
C#-----------------------------------------------------------------|
G#-----0---0---0---0~~~~~~-0~~~~~~---------------------------------|
C#-----2---2---2---2~~~~~~-2~~~~~~-x-x-x---x---x-x-x---x---x---x---|
Pm     .   .   .   .       .

===================================================================
===================================================================


Verse 2

Guitar 1
D#-----------------------------------------------------------------|
A#-----------------------------------------------------------------|
F#-----------------------------------------------------------------|
C#-----------------------------------------------------------------|
G#-------------------------------13~---10~---10-12-----------------|
C#-12~-0~-15-0-19-0~-14-15-14-0~-----0-----0-------15-0-0~-0-2-3-5-|
Pm                                   .     .               . . . .

===================================================================

Guitar 1
D#-----------------------------------------------------------------|
A#-----------------------------------------------------------------|
F#-----------------------------------------------------------------|
C#-----------------------------------------------------------------|
G#-3~~~---0~~~-------3-0~~~-------------------3-0~~~---------------|
C#------0------0-3-5--------5~~~-0-3~~~-0-3-5--------8~-0-5-7-0-3~-|
Pm      .      . . .             .      . . .           .     .

===================================================================

Guitar 1
D#-----------------------------------------------------------------|
A#-----------------------------------------------------------------|
F#-----------------------------------------------------------------|
C#-----------------------------------------------------------------|
G#-------------------------------13~---10~---10-12-----------------|
C#-12~-0~-15-0-19-0~-14-15-14-0~-----0-----0-------15-0-0~-0-2-3-5-|
Pm                                   .     .               . . . .

===================================================================

Guitar 1
D#-----------------------------------------------------------------|
A#-----------------------------------------------------------------|
F#---------------------------------------------------------0*~~~~~-|
C#-7\~~------------------------------------------------0*~~~~~~~~~-|
G#-7\~~--------------------------------------------0*~~~~~~~~~~~~~-|
C#-7\~~------------------------------------------------------------|

===================================================================

Guitar 1
D#-----------------------------------------------------------------|
A#-----------------------------------------------------------------|
F#-----------------------------------------------------------------|
C#-----------------------------------------------------------------|
G#-------------------------------13~---10~---10-12-----------------|
C#-12~-0~-15-0-19-0~-14-15-14-0~-----0-----0-------15-0-0~-0-2-3-5-|
Pm                                   .     .               . . . .

===================================================================

Guitar 1
D#-----------------------------------------------------------------|
A#-----------------------------------------------------------------|
F#-----------------------------------------------------------------|
C#-----------------------------------------------------------------|
G#-3~~~---0~~~-------3-0~~~-------------------3-0~~~---------------|
C#------0------0-3-5--------5~~~-0-3~~~-0-3-5--------8~-0-5-7-0-3~-|
Pm      .      . . .             .      . . .           .     .

===================================================================

Guitar 1
D#-----------------------------------------------------------------|
A#-----------------------------------------------------------------|
F#-----------------------------------------------------------------|
C#-----------------------------------------------------------------|
G#-------------------------------13~---10~---10-12-----------------|
C#-12~-0~-15-0-19-0~-14-15-14-0~-----0-----0-------15-0-0~-0-2-3-5-|
Pm                                   .     .               . . . .

===================================================================

Guitar 1
D#-----------------------------------------------------------------|
A#-----------------------------------------------------------------|
F#-----------------------------------------------------------------|
C#---------------------------------7\~~----------------------------|
G#---------------------------------7\~~----------------------------|
C#-8-8-8-8-8-8-8-8-8-8-8-8-8-8-8-8-7\~~----------------------------|

===================================================================
===================================================================


Chorus 2

Guitar 1
D#-----------------------------------------------------------------|
A#-----------------------------------------------------------------|
F#-7-7-7-7-7-7-7-7---------------------------------5-5-5-5-5-5-5-5-|
C#-7-7-7-7-7-7-7-7-8-8-8-8-8-8-8-8-3-3-3-3-3-3-3-3-5-5-5-5-5-5-5-5-|
G#-5-5-5-5-5-5-5-5-8-8-8-8-8-8-8-8-3-3-3-3-3-3-3-3-3-3-3-3-3-3-3-3-|
C#-----------------8-8-8-8-8-8-8-8-3-3-3-3-3-3-3-3-----------------|

===================================================================

Guitar 1
D#-----------------------------------------------------------------------|
A#-----------------------------------------------------------------------|
F#-7-7-7-7-7-7-7-7-------------------------------------------------------|
C#-7-7-7-7-7-7-7-7-8-8-8-8-8-8-8-8-3-3-3-3-3-3-3-3-10-12-10----8-10-8----|
G#-5-5-5-5-5-5-5-5-8-8-8-8-8-8-8-8-3-3-3-3-3-3-3-3----------12--------10-|
C#-----------------8-8-8-8-8-8-8-8-3-3-3-3-3-3-3-3-----------------------|

===================================================================

Guitar 1
D#-----------------------------------------------------------------|
A#-----------------------------------------------------------------|
F#-------------------------------------------------5-5-5-5-5-5-5-5-|
C#---------0-0-0-0-8-8-8-8-8-8-8-8-3-3-3-3-3-3-3-3-5-5-5-5-5-5-5-5-|
G#-12\~~---0-0-0-0-8-8-8-8-8-8-8-8-3-3-3-3-3-3-3-3-3-3-3-3-3-3-3-3-|
C#---------0-0-0-0-8-8-8-8-8-8-8-8-3-3-3-3-3-3-3-3-----------------|

===================================================================

Guitar 1
D#-----------------------------------------------------------------|
A#-----------------------------------------------------------------|
F#-------------------------------------------------5-5-5-5-5-5-5-5-|
C#-0-0-0-0-0-0-0-0-8-8-8-8-8-8-8-8-3-3-3-3-3-3-3-3-5-5-5-5-5-5-5-5-|
G#-0-0-0-0-0-0-0-0-8-8-8-8-8-8-8-8-3-3-3-3-3-3-3-3-3-3-3-3-3-3-3-3-|
C#-0-0-0-0-0-0-0-0-8-8-8-8-8-8-8-8-3-3-3-3-3-3-3-3-----------------|

===================================================================

Guitar 1
D#-----------------------------------------------------------------|
A#-----------------------------------------------------------------|
F#-3-3-3-3-3-3-3-3-3-3-3-3-3-3-3-3-5-5-5-5-5-5-5-5-5-5-5-5-5-5-5-5-|
C#-3-3-3-3-3-3-3-3-3-3-3-3-3-3-3-3-5-5-5-5-5-5-5-5-5-5-5-5-5-5-5-5-|
G#-1-1-1-1-1-1-1-1-1-1-1-1-1-1-1-1-3-3-3-3-3-3-3-3-3-3-3-3-3-3-3-3-|
C#-----------------------------------------------------------------|

===================================================================

Guitar 1
D#-----------------------------------------------------------------|
A#-----------------------------------------------------------------|
F#-9-10-10-10-9-10-9-7-7-9-9-10-9-7-9-10---------------------------|
C#---------------------------------------0~-0~-0-7~~~~-5~~~~-------|
G#---------------------------------------0~-0~-0-------------7~~~~-|
C#---------------------------------------0~-0~-0-------------------|

===================================================================

Guitar 1
D#-----------------------------------------------------------------|
A#-----------------------------------------------------------------|
F#-2-3-2-0---------------------------------------------------------|
C#---------2-3-2-------------------7\~-----------------------------|
G#---------------0-3-5-3-0---------7\~-----------------------------|
C#-------------------------7-8-7-5-7\~-----0-2-3-------x-x-3-3-5~~-|

===================================================================
===================================================================


Interlude

Guitar 1
D#-----------------------------------------------------------------|
A#-----------------------------------------------------------------|
F#-------------------7~~~~-5~~-------------------------------------|
C#-8~~~~-7~~~~-----------------7~~-------7~~~~-5~~~~---------------|
G#---------------------------------------------------7~~~~---------|
C#-------------5~~~~---------------5~~~~-------------------x-0-x-x-|

===================================================================

Guitar 1
D#-----------------------------------------------------------------|
A#-----------------------------------------------------------------|
F#-----------------------------------------------------------------|
C#-----------------------------7-8---------------------------------|
G#-------5~~~~-7~~~~-8~~~~-------------------------5-5-5-5-7-7-3-3-|
C#-0~~~~-------------------0-0-----0-0~~-0-0-0~~-0-----------------|

===================================================================

Guitar 1
D#-----------------------------------------------------------------|
A#-----------------------------------------------------------------|
F#-------------------7~~~~-5~~-------------------------------------|
C#-8~~~~-7~~~~-----------------7~~-------7~~~~-5~~~~---------------|
G#---------------------------------------------------7~~~~-----3-5-|
C#-------------5~~~~---------------5~~~~-------------------3-5-----|

===================================================================

Guitar 1
D#-----------------------------------------------------------------|
A#-----------------------------------------------------------------|
F#-----------------------------------------------------------------|
C#/7\~~----7~~~---/12\~----7~~~---/14\~----7~~~----5-7-5-0-3-5-3-2-|
G#---------7~~~------------7~~~------------7~~~----5-7-5-0-3-5-3-2-|
C#---------7~~~------------7~~~------------7~~~----5-7-5-0-3-5-3-2-|
Pm                                                 . . . . . . . .

===================================================================
===================================================================


Break Off 1

Guitar 1
D#-----------------------------------------------------------------|
A#-----------------------------------------------------------------|
F#-----------------------------------------------------------------|
C#-0---------------------------------------------------------------|
G#-0---------------------------------------------------------------|
C#-0---------------------------------------------------------------|

===================================================================
===================================================================


Breakdown

Guitar 1
D#-----------------------------------------------------------------|
A#-----------------------------------------------------------------|
F#-----------------------------------------------------------------|
C#-0---0---0-------0-------0---0---0---0---0-------0-0-0-0-0-------|
G#-0---0---0-------0-------0---0---0---0---0-------0-0-0-0-0-------|
C#-0---0---0-------0-------0---0---0---0---0-------0-0-0-0-0-------|
Pm .   .   .       .       .   .   .   .   .       . . . . .

===================================================================

Guitar 1
D#-----------------------------------------------------------------|
A#-----------------------------------------------------------------|
F#-----------------------------------------------------------------|
C#-----------------------------------------------------------------|
G#---------------------------------0~~~~~~~~~~-0~~~~~~~~~~-0~~~~~~-|
C#-2b~-----0---0-------2b~-0---0---1~~~~~~~~~~-1~~~~~~~~~~-1~~~~~~-|
Pm         .   .           .   .               .

===================================================================

Guitar 1
D#-----------------------------------------------------------------|
A#-----------------------------------------------------------------|
F#-----------------------------------------------------------------|
C#-----------------------------------------------------------------|
G#-----------------------------------------------------------------|
C#-0~~~~-0~~~~-0~~~~-0~~~~-0~~~~-0~~~~-0~~~~-0~~~~-0~~~~-1~~-3*b~~-|

===================================================================

Guitar 1
D#-----------------------------------------------------------------|
A#-----------------------------------------------------------------|
F#-----------------------------------------------------------------|
C#-0-------0---0---------------------------------------------------|
G#-0-------0---0-------------------------------7---8-------5~~~~~~-|
C#-0-------0---0-------0~~~~~~~~~~-5---7---0-----------0-----------|
Pm .       .   .                           .           .

===================================================================

Guitar 1
D#-----------------------------------------------------------------|
A#-----------------------------------------------------------------|
F#-----------------------------------------------------------------|
C#-0---0---0-------0-------0---0---0---0---0-------0-0-0-0-0-------|
G#-0---0---0-------0-------0---0---0---0---0-------0-0-0-0-0-------|
C#-0---0---0-------0-------0---0---0---0---0-------0-0-0-0-0-------|
Pm .   .   .       .       .   .   .   .   .       . . . . .

===================================================================

Guitar 1
D#-----------------------------------------------------------------|
A#-----------------------------------------------------------------|
F#-----------------------------------------------------------------|
C#-----------------------------------------------------------------|
G#---------------------------------0~~~~~~~~~~-0~~~~~~~~~~-0~~~~~~-|
C#-2b~-----0---0-------2b~-0---0---3~~~~~~~~~~-3~~~~~~~~~~-3~~~~~~-|
Pm         .   .           .   .               .

===================================================================

Guitar 1
D#-----------------------------------------------------------------|
A#-----------------------------------------------------------------|
F#-----------------------------------------------------------------|
C#-----------------------------------------------------------------|
G#-----------------------------------------------------------------|
C#-0~~~~-0~~~~-0~~~~-0~~~~------------0~~~-10~~-12~~-12~~-10~~-8~~-|

===================================================================

Guitar 1
D#-----------------------------------------------------------------|
A#-----------------------------------------------------------------|
F#-----------------------------------------------------------------|
C#-0-------0---0-------0-------0---3~~~-0~~~-8~~~-7~~~-5~~~-0------|
G#-0-------0---0-------0-------0---3~~~-0~~~-8~~~-7~~~-5~~~-0------|
C#-0-------0---0-------0-------0---3~~~-0~~~-8~~~-7~~~-5~~~-0------|
Pm .       .   .       .       .   .    .    .    .    .    .

===================================================================
===================================================================


Bridge 2

Guitar 1
D#-13~~~~~~~~~-13~~~~~~~~~-13~~~~~-13~~~~~~~~~-13~~~~~~~~~-13~~~~~-|
A#-----15~~~~~~~~~-15~~~~~~~~~-15~~~~~-15~~~~~~~~~-15~~~~~~~~~-15~-|
F#---------14~~~~~~~~~-14~~~~~~~~~~~~~~~~~-14~~~~~~~~~-14~~~~~~~~~-|
C#-----------------------------------------------------------------|
G#-----------------------------------------------------------------|
C#-----------------------------------------------------------------|

===================================================================

Guitar 1
D#-13~~~~~~~~~-13~~~~~~~~~-13~~~~~-12~~~~~~~~~-12~~~~~-------------|
A#-----15~~~~~~~~~-15~~~~~~~~~-15~~~~~-13~~~~~~~~~-13~-------------|
F#---------15~~~~~~~~~-15~~~~~~~~~~~~~~~~~-14~~~~~~~~~-------------|
C#-----------------------------------------------------------------|
G#-----------------------------------------------------------------|
C#-----------------------------------------------------------------|

===================================================================
===================================================================


Chorus 1

Guitar 1
D#-----------------------------------------------------------------|
A#-----------------------------------------------------------------|
F#-7-7-7-7-7-7-7-7---------------------------------5-5-5-5-5-5-5-5-|
C#-7-7-7-7-7-7-7-7-8-8-8-8-8-8-8-8-3-3-3-3-3-3-3-3-5-5-5-5-5-5-5-5-|
G#-5-5-5-5-5-5-5-5-8-8-8-8-8-8-8-8-3-3-3-3-3-3-3-3-3-3-3-3-3-3-3-3-|
C#-----------------8-8-8-8-8-8-8-8-3-3-3-3-3-3-3-3-----------------|

===================================================================

Guitar 1
D#-----------------------------------------------------------------------|
A#-----------------------------------------------------------------------|
F#-7-7-7-7-7-7-7-7-------------------------------------------------------|
C#-7-7-7-7-7-7-7-7-8-8-8-8-8-8-8-8-3-3-3-3-3-3-3-3-10-12-10----8-10-8----|
G#-5-5-5-5-5-5-5-5-8-8-8-8-8-8-8-8-3-3-3-3-3-3-3-3----------12--------10-|
C#-----------------8-8-8-8-8-8-8-8-3-3-3-3-3-3-3-3-----------------------|

===================================================================

Guitar 1
D#-----------------------------------------------------------------|
A#-----------------------------------------------------------------|
F#-------------------------------------------------5-5-5-5-5-5-5-5-|
C#---------0-0-0-0-8-8-8-8-8-8-8-8-3-3-3-3-3-3-3-3-5-5-5-5-5-5-5-5-|
G#-12\~~---0-0-0-0-8-8-8-8-8-8-8-8-3-3-3-3-3-3-3-3-3-3-3-3-3-3-3-3-|
C#---------0-0-0-0-8-8-8-8-8-8-8-8-3-3-3-3-3-3-3-3-----------------|

===================================================================

Guitar 1
D#-----------------------------------------------------------------|
A#-----------------------------------------------------------------|
F#-------------------------------------------------5-5-5-5-5-5-5-5-|
C#-0-0-0-0-0-0-0-0-8-8-8-8-8-8-8-8-3-3-3-3-3-3-3-3-5-5-5-5-5-5-5-5-|
G#-0-0-0-0-0-0-0-0-8-8-8-8-8-8-8-8-3-3-3-3-3-3-3-3-3-3-3-3-3-3-3-3-|
C#-0-0-0-0-0-0-0-0-8-8-8-8-8-8-8-8-3-3-3-3-3-3-3-3-----------------|

===================================================================

Guitar 1
D#-----------------------------------------------------------------|
A#-----------------------------------------------------------------|
F#-3-3-3-3-3-3-3-3-3-3-3-3-3-3-3-3-5-5-5-5-5-5-5-5-5-5-5-5-5-5-5-5-|
C#-3-3-3-3-3-3-3-3-3-3-3-3-3-3-3-3-5-5-5-5-5-5-5-5-5-5-5-5-5-5-5-5-|
G#-1-1-1-1-1-1-1-1-1-1-1-1-1-1-1-1-3-3-3-3-3-3-3-3-3-3-3-3-3-3-3-3-|
C#-----------------------------------------------------------------|

===================================================================

Guitar 1
D#-----------------------------------------------------------------|
A#-----------------------------------------------------------------|
F#-9-10-10-10-9-10-9-7-7-9-9-10-9-7-9-10---------------------------|
C#---------------------------------------0~-0~-0-7~~~~-5~~~~-------|
G#---------------------------------------0~-0~-0-------------7~~~~-|
C#---------------------------------------0~-0~-0-------------------|

===================================================================

Guitar 1
D#-9-10-9----------------------------------------------------------|
A#--------11-10-11-10----10-11-10----------------------------------|
F#--------------------10----------12-10-12-10----------------------|
C#--------------------------------------------12-11~\~-------------|
G#-----------------------------------------------------------------|
C#-----------------------------------------------------------------|

===================================================================
===================================================================


Outro

Guitar 1
D#-----------------------------------------------------------------|
A#-----------------------------------------------------------------|
F#-----------------------------------------------------------------|
C#-----------------------------------------------------------------|
G#-------------------------------13~---10~---10-12-----------------|
C#-12~-0~-0-0-0-0~~~~~~~~~~~~~~~~~~~-0-----0-------15-0~~~-0-2-3-5-|
Pm        . .                        .     .               . . . .

===================================================================

Guitar 1
D#--------------------------0~~~~~~~~~~~---------------------------|
A#--------------------------0~~~~~~~~~~~---------------------------|
F#-----------------------------------------------------------------|
C#-----------------------------------------------------------------|
G#-3~~~---0~~~-------3-0~~~~~~~~~~~~~~~~---------------------------|
C#------0------0-3-5---------------------8-0-0-5-7~~-8~-0-5-7-0-3~-|
Pm      .      . . .                                    .     .

===================================================================

Guitar 1
D#-----------------------------------------------------------------|
A#-----------------------------------------------------------------|
F#-----------------------------------------------------------------|
C#-----------------------------------------------------------------|
G#-------------------------------13~---10~---10-12-----------------|
C#-12~-0~-0-0-0-0~~~~~~~~~~~~~~~~~~~-0-----0-------15-0~~~-0-2-3-5-|
Pm        . .                        .     .               . . . .

===================================================================

Guitar 1
D#--------------------------0~~~~~~~~~~----------------------------|
A#--------------------------0~~~~~~~~~~----------------------------|
F#-----------------------------------------------------------------|
C#-----------------------------------------------------------------|
G#-3~~~---0~~~-------3-0~~~~~~~~~~~~~~~----------------------------|
C#------0------0-3-5--------------------8-0-0-5-7~~-8~-0-5-7-0-3-0-|
Pm      .      . . .                                   .     .

===================================================================

Guitar 1
D#-----------------------------------------------------------------|
A#-----------------------------------------------------------------|
F#-----------------------------------------------------------------|
C#-0---------------------------------------------------------------|
G#-0---------------------------------------------------------------|
C#-0---------------------------------------------------------------|
Pm .

===================================================================
===================================================================
===================================================================


===================================================================
Guitar 2
===================================================================


Intro

===================================================================
Rest
===================================================================


===================================================================
===================================================================



Verse 1

Guitar 2
D#-----------------------------------------------------------------|
A#-----------------------------------------------------------------|
F#-----------------------------------------------------------------|
C#-----------------------------------------------------------------|
G#-------------------------------13~---10~---10-12-----------------|
C#-12~-0~-15-0-19-0~-14-15-14-0~-----0-----0-------15-0-0~-0-2-3-5-|
Pm                                   .     .               . . . .

===================================================================

Guitar 2
D#-----------------------------------------------------------------|
A#-----------------------------------------------------------------|
F#-----------------------------------------------------------------|
C#-----------------------------------------------------------------|
G#-3~~~---0~~~-------3-0~~~-------------------3-0~~~---------------|
C#------0------0-3-5--------5~~~-0-3~~~-0-3-5--------8~-0-5-7-0-3~-|
Pm      .      . . .             .      . . .           .     .

===================================================================

Guitar 2
D#-----------------------------------------------------------------|
A#-----------------------------------------------------------------|
F#-----------------------------------------------------------------|
C#-----------------------------------------------------------------|
G#-------------------------------13~---10~---10-12-----------------|
C#-12~-0~-15-0-19-0~-14-15-14-0~-----0-----0-------15-0-0~-0-2-3-5-|
Pm                                   .     .               . . . .

===================================================================

Guitar 2
D#-----------------------------------------------------------------|
A#-----------------------------------------------------------------|
F#-----------------------------------------------------------------|
C#-8-8-8-8-8-8-8-8-8-8-8-8-8-8-8-8-10\~----------------------------|
G#-8-8-8-8-8-8-8-8-8-8-8-8-8-8-8-8-10\~----------------------------|
C#-8-8-8-8-8-8-8-8-8-8-8-8-8-8-8-8-10\~----------------------------|

===================================================================
===================================================================


Chorus 1

Guitar 2
D#-----------------------------------------------------------------|
A#-----------------------------------------------------------------|
F#-7-7-7-7-7-7-7-7---------------------------------5-5-5-5-5-5-5-5-|
C#-7-7-7-7-7-7-7-7-8-8-8-8-8-8-8-8-3-3-3-3-3-3-3-3-5-5-5-5-5-5-5-5-|
G#-5-5-5-5-5-5-5-5-8-8-8-8-8-8-8-8-3-3-3-3-3-3-3-3-3-3-3-3-3-3-3-3-|
C#-----------------8-8-8-8-8-8-8-8-3-3-3-3-3-3-3-3-----------------|

===================================================================

Guitar 2
D#-----------------------------------------------------------------------|
A#-----------------------------------------------------------------------|
F#-7-7-7-7-7-7-7-7---------------------------------10-12-10----9-10-9----|
C#-7-7-7-7-7-7-7-7-8-8-8-8-8-8-8-8-3-3-3-3-3-3-3-3----------12--------10-|
G#-5-5-5-5-5-5-5-5-8-8-8-8-8-8-8-8-3-3-3-3-3-3-3-3-----------------------|
C#-----------------8-8-8-8-8-8-8-8-3-3-3-3-3-3-3-3-----------------------|

===================================================================

Guitar 2
D#-----------------------------------------------------------------|
A#-----------------------------------------------------------------|
F#-------------------------------------------------5-5-5-5-5-5-5-5-|
C#-12\~~---0-0-0-0-8-8-8-8-8-8-8-8-3-3-3-3-3-3-3-3-5-5-5-5-5-5-5-5-|
G#---------0-0-0-0-8-8-8-8-8-8-8-8-3-3-3-3-3-3-3-3-3-3-3-3-3-3-3-3-|
C#---------0-0-0-0-8-8-8-8-8-8-8-8-3-3-3-3-3-3-3-3-----------------|

===================================================================

Guitar 2
D#-----------------------------------------------------------------|
A#-----------------------------------------------------------------|
F#-------------------------------------------------5-5-5-5-5-5-5-5-|
C#-0-0-0-0-0-0-0-0-8-8-8-8-8-8-8-8-3-3-3-3-3-3-3-3-5-5-5-5-5-5-5-5-|
G#-0-0-0-0-0-0-0-0-8-8-8-8-8-8-8-8-3-3-3-3-3-3-3-3-3-3-3-3-3-3-3-3-|
C#-0-0-0-0-0-0-0-0-8-8-8-8-8-8-8-8-3-3-3-3-3-3-3-3-----------------|

===================================================================

Guitar 2
D#-----------------------------------------------------------------|
A#-----------------------------------------------------------------|
F#-3-3-3-3-3-3-3-3-3-3-3-3-3-3-3-3-5-5-5-5-5-5-5-5-5-5-5-5-5-5-5-5-|
C#-3-3-3-3-3-3-3-3-3-3-3-3-3-3-3-3-5-5-5-5-5-5-5-5-5-5-5-5-5-5-5-5-|
G#-1-1-1-1-1-1-1-1-1-1-1-1-1-1-1-1-3-3-3-3-3-3-3-3-3-3-3-3-3-3-3-3-|
C#-----------------------------------------------------------------|

===================================================================

Guitar 2
D#-----------------------------------------------------------------|
A#-----------------------------------------------------------------|
F#-9-10-10-10-9-10-9-7-7-9-9-10-9-7-9-10---------5-5-5-5-5-5-5-5-5-|
C#---------------------------------------0-0-0-0-5-5-5-5-5-5-5-5-5-|
G#---------------------------------------0-0-0-0-3-3-3-3-3-3-3-3-3-|
C#---------------------------------------0-0-0-0-------------------|

===================================================================

Guitar 2
D#-12-13-12--------------------------------------------------------|
A#----------15-14-15-14----14-15-14--------------------------------|
F#----------------------14----------15-14-15-14----14\~------------|
C#----------------------------------------------17-----------------|
G#-----------------------------------------------------------------|
C#-----------------------------------------------------------------|

===================================================================
===================================================================


Bridge 1

Guitar 2
D#-----------------------------------------------------------------|
A#-----------------------------------------------------------------|
F#-----------------------------------------------------------------|
C#-0~~~~~~-0-0-0-0-0~~~~~~-0~~~~~~-----0~~~~~~-0---0~~~~~~-0~~~~~~-|
G#-0~~~~~~-0-0-0-0-0~~~~~~-0~~~~~~-----0~~~~~~-0---0~~~~~~-0~~~~~~-|
C#-0~~~~~~-0-0-0-0-0~~~~~~-0~~~~~~-----0~~~~~~-0---0~~~~~~-0~~~~~~-|
Pm .       . . . . .       .           .       .   .       .

===================================================================

Guitar 2
D#-----------------------------------------------------------------|
A#-----------------------------------------------------------------|
F#-----------------------------------------------------------------|
C#-----0---0---0---0~~~~~~-0~~~~~~-----0---0---0---0~~~~~~-0~~~~~~-|
G#-----0---0---0---0~~~~~~-0~~~~~~-----0---0---0---0~~~~~~-0~~~~~~-|
C#-----0---0---0---0~~~~~~-0~~~~~~-----0---0---0---0~~~~~~-0~~~~~~-|
Pm     .   .   .   .       .           .   .   .   .       .

===================================================================

Guitar 2
D#-----------------------------------------------------------------|
A#-----------------------------------------------------------------|
F#-----------------------------------------------------------------|
C#-----------------------------------------------------------------|
G#-0~~~~~~~~~~-0~~~~~~~~~~-0~~~~~~-0---0---------------------------|
C#-2~~~~~~~~~~-2~~~~~~~~~~-2~~~~~~-2---2---------------------------|
Pm .           .           .       .   .

===================================================================

Guitar 2
D#-----------------------------------------------------------------|
A#-----------------------------------------------------------------|
F#-----------------------------------------------------------------|
C#-----------------------------------------------------------------|
G#-----0---0---0---0~~~~~~-0~~~~~~-0---0---------------------------|
C#-----2---2---2---2~~~~~~-2~~~~~~-2---2-------7---8---7---0~~~~~~-|
Pm     .   .   .   .       .       .   .

===================================================================

Guitar 2
D#-----------------------------------------------------------------|
A#-----------------------------------------------------------------|
F#-----------------------------------------------------------------|
C#-0~~~~~~-0-0-0-0-0~~~~~~-0~~~~~~-----0~~~~~~-0---0~~~~~~-0~~~~~~-|
G#-0~~~~~~-0-0-0-0-0~~~~~~-0~~~~~~-----0~~~~~~-0---0~~~~~~-0~~~~~~-|
C#-0~~~~~~-0-0-0-0-0~~~~~~-0~~~~~~-----0~~~~~~-0---0~~~~~~-0~~~~~~-|
Pm .       . . . . .       .           .       .   .       .

===================================================================

Guitar 2
D#-----------------------------------------------------------------|
A#-----------------------------------------------------------------|
F#-----------------------------------------------------------------|
C#-----0---0---0---0~~~~~~-0~~~~~~-----0---0---0---0~~~~~~-0~~~~~~-|
G#-----0---0---0---0~~~~~~-0~~~~~~-----0---0---0---0~~~~~~-0~~~~~~-|
C#-----0---0---0---0~~~~~~-0~~~~~~-----0---0---0---0~~~~~~-0~~~~~~-|
Pm     .   .   .   .       .           .   .   .   .       .

===================================================================

Guitar 2
D#-----------------------------------------------------------------|
A#-----------------------------------------------------------------|
F#-----------------------------------------------------------------|
C#-----------------------------------------------------------------|
G#-0~~~~~~~~~~-0~~~~~~~~~~-0~~~~~~-0---0---------------------------|
C#-2~~~~~~~~~~-2~~~~~~~~~~-2~~~~~~-2---2---------------------------|
Pm .           .           .       .   .

===================================================================

Guitar 2
D#-----------------------------------------------------------------|
A#-----------------------------------------------------------------|
F#-----------------------------------------------------------------|
C#-----------------------------------------------------------------|
G#-----0---0---0---0~~~~~~-0~~~~~~---------------------------------|
C#-----2---2---2---2~~~~~~-2~~~~~~-x-x-x---x---x-x-x---x---x---x---|
Pm     .   .   .   .       .

===================================================================
===================================================================


Verse 2

Guitar 2
D#-----------------------------------------------------------------|
A#-----------------------------------------------------------------|
F#-----------------------------------------------------------------|
C#-----------------------------------------------------------------|
G#-------------------------------13~---10~---10-12-----------------|
C#-12~-0~-15-0-19-0~-14-15-14-0~-----0-----0-------15-0-0~-0-2-3-5-|
Pm                                   .     .               . . . .

===================================================================

Guitar 2
D#-----------------------------------------------------------------|
A#-----------------------------------------------------------------|
F#-----------------------------------------------------------------|
C#-----------------------------------------------------------------|
G#-3~~~---0~~~-------3-0~~~-------------------3-0~~~---------------|
C#------0------0-3-5--------5~~~-0-3~~~-0-3-5--------8~-0-5-7-0-3~-|
Pm      .      . . .             .      . . .           .     .

===================================================================

Guitar 2
D#-----------------------------------------------------------------|
A#-----------------------------------------------------------------|
F#-----------------------------------------------------------------|
C#-----------------------------------------------------------------|
G#-------------------------------13~---10~---10-12-----------------|
C#-12~-0~-15-0-19-0~-14-15-14-0~-----0-----0-------15-0-0~-0-2-3-5-|
Pm                                   .     .               . . . .

===================================================================

Guitar 2
D#-----------------------------------------------------------------|
A#-----------------------------------------------------------------|
F#---------------------------------------------------------0*~~~~~-|
C#-7\~~------------------------------------------------0*~~~~~~~~~-|
G#-7\~~--------------------------------------------0*~~~~~~~~~~~~~-|
C#-7\~~------------------------------------------------------------|

===================================================================

Guitar 2
D#-----------------------------------------------------------------|
A#-----------------------------------------------------------------|
F#-----------------------------------------------------------------|
C#-----------------------------------------------------------------|
G#-------------------------------13~---10~---10-12-----------------|
C#-12~-0~-15-0-19-0~-14-15-14-0~-----0-----0-------15-0-0~-0-2-3-5-|
Pm                                   .     .               . . . .

===================================================================

Guitar 2
D#-----------------------------------------------------------------|
A#-----------------------------------------------------------------|
F#-----------------------------------------------------------------|
C#-----------------------------------------------------------------|
G#-3~~~---0~~~-------3-0~~~-------------------3-0~~~---------------|
C#------0------0-3-5--------5~~~-0-3~~~-0-3-5--------8~-0-5-7-0-3~-|
Pm      .      . . .             .      . . .           .     .

===================================================================

Guitar 2
D#-----------------------------------------------------------------|
A#-----------------------------------------------------------------|
F#-----------------------------------------------------------------|
C#-----------------------------------------------------------------|
G#-------------------------------13~---10~---10-12-----------------|
C#-12~-0~-15-0-19-0~-14-15-14-0~-----0-----0-------15-0-0~-0-2-3-5-|
Pm                                   .     .               . . . .

===================================================================

Guitar 2
D#-----------------------------------------------------------------|
A#-----------------------------------------------------------------|
F#-----------------------------------------------------------------|
C#---------------------------------7\~~----------------------------|
G#---------------------------------7\~~----------------------------|
C#-8-8-8-8-8-8-8-8-8-8-8-8-8-8-8-8-7\~~----------------------------|

===================================================================
===================================================================


Chorus 2

Guitar 2
D#-----------------------------------------------------------------|
A#-----------------------------------------------------------------|
F#-7-7-7-7-7-7-7-7---------------------------------5-5-5-5-5-5-5-5-|
C#-7-7-7-7-7-7-7-7-8-8-8-8-8-8-8-8-3-3-3-3-3-3-3-3-5-5-5-5-5-5-5-5-|
G#-5-5-5-5-5-5-5-5-8-8-8-8-8-8-8-8-3-3-3-3-3-3-3-3-3-3-3-3-3-3-3-3-|
C#-----------------8-8-8-8-8-8-8-8-3-3-3-3-3-3-3-3-----------------|

===================================================================

Guitar 2
D#-----------------------------------------------------------------------|
A#-----------------------------------------------------------------------|
F#-7-7-7-7-7-7-7-7---------------------------------10-12-10----9-10-9----|
C#-7-7-7-7-7-7-7-7-8-8-8-8-8-8-8-8-3-3-3-3-3-3-3-3----------12--------10-|
G#-5-5-5-5-5-5-5-5-8-8-8-8-8-8-8-8-3-3-3-3-3-3-3-3-----------------------|
C#-----------------8-8-8-8-8-8-8-8-3-3-3-3-3-3-3-3-----------------------|

===================================================================

Guitar 2
D#-----------------------------------------------------------------|
A#-----------------------------------------------------------------|
F#-------------------------------------------------5-5-5-5-5-5-5-5-|
C#-12\~~---0-0-0-0-8-8-8-8-8-8-8-8-3-3-3-3-3-3-3-3-5-5-5-5-5-5-5-5-|
G#---------0-0-0-0-8-8-8-8-8-8-8-8-3-3-3-3-3-3-3-3-3-3-3-3-3-3-3-3-|
C#---------0-0-0-0-8-8-8-8-8-8-8-8-3-3-3-3-3-3-3-3-----------------|

===================================================================

Guitar 2
D#-----------------------------------------------------------------|
A#-----------------------------------------------------------------|
F#-------------------------------------------------5-5-5-5-5-5-5-5-|
C#-0-0-0-0-0-0-0-0-8-8-8-8-8-8-8-8-3-3-3-3-3-3-3-3-5-5-5-5-5-5-5-5-|
G#-0-0-0-0-0-0-0-0-8-8-8-8-8-8-8-8-3-3-3-3-3-3-3-3-3-3-3-3-3-3-3-3-|
C#-0-0-0-0-0-0-0-0-8-8-8-8-8-8-8-8-3-3-3-3-3-3-3-3-----------------|

===================================================================

Guitar 2
D#-----------------------------------------------------------------|
A#-----------------------------------------------------------------|
F#-3-3-3-3-3-3-3-3-3-3-3-3-3-3-3-3-5-5-5-5-5-5-5-5-5-5-5-5-5-5-5-5-|
C#-3-3-3-3-3-3-3-3-3-3-3-3-3-3-3-3-5-5-5-5-5-5-5-5-5-5-5-5-5-5-5-5-|
G#-1-1-1-1-1-1-1-1-1-1-1-1-1-1-1-1-3-3-3-3-3-3-3-3-3-3-3-3-3-3-3-3-|
C#-----------------------------------------------------------------|

===================================================================

Guitar 2
D#-------------------------------------------------------|
A#-------------------------------------------------------|
F#-9-10-10-10-9-10-9-7-7-9-9-10-9-7-9-10---------5~-5~-5-|
C#---------------------------------------0~-0~-0-5~-5~-5-|
G#---------------------------------------0~-0~-0-3~-3~-3-|
C#---------------------------------------0~-0~-0---------|

===================================================================

Guitar 2
D#-----------------------------------------------------------------|
A#-----------------------------------------------------------------|
F#-2-3-2-0---------------------------------------------------------|
C#---------2-3-2-------------------7\~-----------------------------|
G#---------------0-3-5-3-0---------7\~-------------3-3-------------|
C#-------------------------7-8-7-5-7\~-2-2-------2-----x-x-3-3-5~~-|

===================================================================
===================================================================


Interlude

Guitar 2
D#-----------------------------------------------------------------|
A#-----------------------------------------------------------------|
F#-----------------------------------------------------------------|
C#-5~~~~-------------8~~~~-7~~-----------7~~~~-5~~~~---------------|
G#-------8~~~~-----------------5~~-------------------7~~~~---------|
C#-------------5~~~~---------------5~~~~-------------------x-0-x-x-|

===================================================================

Guitar 2
D#-----------------------------------------------------------------|
A#-----------------------------------------------------------------|
F#-----------------------------6-7---------------------------------|
C#-------7~~~~-5~~~~-----------------------------------------------|
G#-------------------7~~~~-------------------------5-5-5-5-7-7-3-3-|
C#-0~~~~-------------------0-0-----0-0~~-0-0-0~~-0-----------------|

===================================================================

Guitar 2
D#-----------------------------------------------------------------|
A#-----------------------------------------------------------------|
F#-----------------------------------------------------------------|
C#-5~~~~-------------8~~~~-7~~-----------7~~~~-5~~~~---------------|
G#-------8~~~~-----------------5~~-------------------7~~~~-----3-5-|
C#-------------5~~~~---------------5~~~~-------------------3-5-----|

===================================================================

Guitar 2
D#-----------------------------------------------------------------|
A#-----------------------------------------------------------------|
F#-----------------------------------------------------------------|
C#/7\~~----7~~~---/12\~----7~~~---/14\~----7~~~----5-7-5-0-3-5-3-2-|
G#---------7~~~------------7~~~------------7~~~----5-7-5-0-3-5-3-2-|
C#---------7~~~------------7~~~------------7~~~----5-7-5-0-3-5-3-2-|
Pm                                                 . . . . . . . .

===================================================================
===================================================================


Break Off 1

Guitar 2
D#-----------------------------------------------------------------|
A#-----------------------------------------------------------------|
F#-----------------------------------------------------------------|
C#-0---------------------------------------------------------------|
G#-0---------------------------------------------------------------|
C#-0---------------------------------------------------------------|

===================================================================
===================================================================


Breakdown

Guitar 2
D#-----------------------------------------------------------------|
A#-----------------------------------------------------------------|
F#-----------------------------------------------------------------|
C#-0---0---0-------0-------0---0---0---0---0-------0-0-0-0-0-------|
G#-0---0---0-------0-------0---0---0---0---0-------0-0-0-0-0-------|
C#-0---0---0-------0-------0---0---0---0---0-------0-0-0-0-0-------|
Pm .   .   .       .       .   .   .   .   .       . . . . .

===================================================================

Guitar 2
D#-----------------------------------------------------------------|
A#-----------------------------------------------------------------|
F#-----------------------------------------------------------------|
C#-----------------------------------------------------------------|
G#---------------------------------0~~~~~~~~~~-0~~~~~~~~~~-0~~~~~~-|
C#-2b~-----0---0-------2b~-0---0---1~~~~~~~~~~-1~~~~~~~~~~-1~~~~~~-|
Pm         .   .           .   .               .

===================================================================

Guitar 2
D#-----------------------------------------------------------------|
A#-----------------------------------------------------------------|
F#-----------------------------------------------------------------|
C#-----------------------------------------------------------------|
G#-----------------------------------------------------------------|
C#-------------------0~~~~-0~~~~-0~~~~-0~~~~-0~~~~-0~~~~-1~~-3*b~~-|

===================================================================

Guitar 2
D#-----------------------------------------------------------------|
A#-----------------------------------------------------------------|
F#-----------------------------------------------------------------|
C#-0-------0---0-------0-------0-----------------------------------|
G#-0-------0---0-------0-------0---------------7---8-------5~~~~~~-|
C#-0-------0---0-------0-------0---5---7---0-----------0-----------|
Pm .       .   .       .       .           .           .

===================================================================

Guitar 2
D#-----------------------------------------------------------------|
A#-----------------------------------------------------------------|
F#-----------------------------------------------------------------|
C#-0---0---0-------0-------0---0---0---0---0-------0-0-0-0-0-------|
G#-0---0---0-------0-------0---0---0---0---0-------0-0-0-0-0-------|
C#-0---0---0-------0-------0---0---0---0---0-------0-0-0-0-0-------|
Pm .   .   .       .       .   .   .   .   .       . . . . .

===================================================================

Guitar 2
D#-----------------------------------------------------------------|
A#-----------------------------------------------------------------|
F#-----------------------------------------------------------------|
C#-----------------------------------------------------------------|
G#---------------------------------0~~~~~~~~~~-0~~~~~~~~~~-0~~~~~~-|
C#-2b~-----0---0-------2b~-0---0---3~~~~~~~~~~-3~~~~~~~~~~-3~~~~~~-|
Pm         .   .           .   .               .

===================================================================

Guitar 2
D#-----------------------------------------------------------------|
A#-----------------------------------------------------------------|
F#-----------------------------------------------------------------|
C#-----------------------------------------------------------------|
G#-----------------------------------------------------------------|
C#-0~~~~-0~~~~-0~~~~-0~~~~------------0~~~-0~~~-0~~~-0~~~-0~~~-0~~-|

===================================================================

Guitar 2
D#-----------------------------------------------------------------|
A#-----------------------------------------------------------------|
F#-----------------------------------------------------------------|
C#-0-------0---0-------0-------0---3~~~-0~~~-8~~~-7~~~-5~~~-7------|
G#-0-------0---0-------0-------0---3~~~-0~~~-8~~~-7~~~-5~~~-7------|
C#-0-------0---0-------0-------0---3~~~-0~~~-8~~~-7~~~-5~~~-7------|
Pm .       .   .       .       .   .    .    .    .    .    .

===================================================================
===================================================================


Bridge 2

Guitar 2
D#-----------------------------------------------------------------|
A#-----------------------------------------------------------------|
F#-----------------------------------------------------------------|
C#-0~~~~~~~~~~~~~~~~~~~~~~~~~~~~~~~~~~~~~~~~~~~~~~~~~~~~~~~~~~~~~~-
G#-0~~~~~~~~~~~~~~~~~~~~~~~~~~~~~~~~~~~~~~~~~~~~~~~~~~~~~~~~~~~~~~-
C#-0~~~~~~~~~~~~~~~~~~~~~~~~~~~~~~~~~~~~~~~~~~~~~~~~~~~~~~~~~~~~~~-

===================================================================
===================================================================


Chorus 3

Guitar 2
D#-----------------------------------------------------------------|
A#-----------------------------------------------------------------|
F#-7-7-7-7-7-7-7-7---------------------------------5-5-5-5-5-5-5-5-|
C#-7-7-7-7-7-7-7-7-8-8-8-8-8-8-8-8-3-3-3-3-3-3-3-3-5-5-5-5-5-5-5-5-|
G#-5-5-5-5-5-5-5-5-8-8-8-8-8-8-8-8-3-3-3-3-3-3-3-3-3-3-3-3-3-3-3-3-|
C#-----------------8-8-8-8-8-8-8-8-3-3-3-3-3-3-3-3-----------------|

===================================================================

Guitar 2
D#-----------------------------------------------------------------------|
A#-----------------------------------------------------------------------|
F#-7-7-7-7-7-7-7-7---------------------------------10-12-10----9-10-9----|
C#-7-7-7-7-7-7-7-7-8-8-8-8-8-8-8-8-3-3-3-3-3-3-3-3----------12--------10-|
G#-5-5-5-5-5-5-5-5-8-8-8-8-8-8-8-8-3-3-3-3-3-3-3-3-----------------------|
C#-----------------8-8-8-8-8-8-8-8-3-3-3-3-3-3-3-3-----------------------|

===================================================================

Guitar 2
D#-----------------------------------------------------------------|
A#-----------------------------------------------------------------|
F#-------------------------------------------------5-5-5-5-5-5-5-5-|
C#-12\~~---0-0-0-0-8-8-8-8-8-8-8-8-3-3-3-3-3-3-3-3-5-5-5-5-5-5-5-5-|
G#---------0-0-0-0-8-8-8-8-8-8-8-8-3-3-3-3-3-3-3-3-3-3-3-3-3-3-3-3-|
C#---------0-0-0-0-8-8-8-8-8-8-8-8-3-3-3-3-3-3-3-3-----------------|

===================================================================

Guitar 2
D#-----------------------------------------------------------------|
A#-------------------------------------
1 comment total.
0 reply
Ben Walter wrote on October 4 2013, 08:08 pm

Thnx for this tab its really accurate, you should make a tab-pro version.

I want to post or [tab]
guest
You may want to rate the tab now too:
select rating
Please do not post tabs as comments. Select "correction" instead!