Oops, an error
Loading. Please wait.

Jezebel Tab

ver1
ver1

Whole song

Interactive

More versions @911Tabs.com
8,082 views 45 this week
4 commentsread comments
1 2 3 4 5
excellent!
x 4
Autoscroll
+/-
esc
set tempo
stop
Contributor
Difficulty
intermediate
WARNING: You are trying to view
                                    content from Ultimate-Guitar.com
                                    in an unauthorized application,
                                    which is prohibited.

                                    Please use an official Ultimate
                                    Guitar Tabs application for iPhone,
                                    iPad or Android to access legitimate
                                    chords, guitar, bass, and drum tabs
                                    from Ultimate-Guitar.com database.

                                    Type "ultimate guitar tabs" in Apple
                                    App Store's or Android Market's
                                    search to find the application.
----------------------------------------------------------------------------
                               Jezebel
                           Memphis May Fire
----------------------------------------------------------------------------

This is my try out of different technique of tabbing that I have been suggested to do 
for a while. I thought it would be good to use it on an amazing, and very relatable, song 
from MMF. This one is to all the harlots out there. Enjoy!

Username: dkm817 (same on X box live)
Youtube Cover: http://www.youtube.com/watch?v=oMlO6j8Cbs0
Email: guitardrums@rockfan.com

Guitar 1 Rhythmic (G# D# G# C# F  A#)
Guitar 2 Lead     (G# D# G# C# F  A#)

Tab Guide...
===================================================================
(end of measures)

===================================================================
===================================================================
(end of parts)

===================================================================
===================================================================
===================================================================
(end of song)
(If there is a “continued” it is because the numbers could not
fit on 1 line or connecting times played.)

===================================================================
Guitar 1
===================================================================


Intro

Guitar 1 (Fade In)
A#-----------------------------------------------------------------|
F -----------------------------------------------------------------|
C#-----------------------------------------------------------------|
G#-----0-10-12-----------------------------------------------------|
D#----------------/12------8---------------------------------------|
G#-0-----------0-------0-------0---0-0-0---8-7-0---5-3-0---7-5-0---|
Pm                                 . .

===================================================================

Guitar 1
A#-----------------------------------------------------------------|
F -----------------------------------------------------------------|
C#-----------------------------------------------------------------|
G#-----0-10-12-----------------------------------------------------|
D#----------------/12------8---------------------------------------|
G#-0-----------0-------0-------0---0-0-0---8-7-0---5-3-0---7-5-0---|
Pm                                 . .

===================================================================
===================================================================


Verse 1

Guitar 1
A#-----------------------------------------------------------------|
F -----------------------------------------------------------------|
C#-----------------------------------------------------------------|
G#-----0-10-12-----------------------------------------------------|
D#----------------/12------8---------------------------------------|
G#-0-----------0-------0-------0---0-0-0---8-7-0---5-3-0---7-5-0---|
Pm                                 . .

===================================================================

Guitar 1
A#-----------------------------------------------------------------|
F -----------------------------------------------------------------|
C#-----------------------------------------------------------------|
G#-------------------------2-3-2-------0-0-0---0-0-0--9-10-9-7-----|
D#---------3-------0-1-0---------------0-0-0---0-0-0-----------10--|
G#-0---3-5-----0-----------------------0-0-0---0-0-0---------------|
Pm                                     . .     . .

===================================================================

Guitar 1
A#-----------------------------------------------------------------|
F -----------------------------------------------------------------|
C#-----------------------------------------------------------------|
G#-----0-3-5-----------8-------------------------------------------|
D#-------------------------------------1-----------------------0---|
G#-0-----------0---0-------0-0-0-----------3-2-0---0-0-2---3-------|
Pm                         . .                     . .

===================================================================

Guitar 1
A#-----------------------------------------------------------------|
F -----------------------------------------------------------------|
C#-----------------------------------------------------------------|
G#-8---8-8-8---8-8-----------------------------------------0-3~~~~-|
D#-8---8-8-8---8-8-------------------------------------------------|
G#-8---8-8-8---8-8-8---10--8---7~~~~~~-10--0~~~~~~-0---0-----------|
Pm     . .     . .

===================================================================

Guitar 1
A#-----------------------------------------------------------------|
F -----------------------------------------------------------------|
C#-----------------------------------------------------------------|
G#-----0-10-12-----------------------------------------------------|
D#----------------/12------8---------------------------------------|
G#-0-----------0-------0-------0---0-0-0---8-7-0---5-3-0---7-5-0---|
Pm                                 . .

===================================================================

Guitar 1
A#-----------------------------------------------------------------|
F -----------------------------------------------------------------|
C#-----------------------------------------------------------------|
G#-------------------------2-3-2-------0-0-0---0-0-0--9-10-9-7-----|
D#---------3-------0-1-0---------------0-0-0---0-0-0-----------10--|
G#-0---3-5-----0-----------------------0-0-0---0-0-0---------------|
Pm                                     . .     . .

===================================================================

Guitar 1
A#-----------------------------------------------------------------|
F -----------------------------------------------------------------|
C#-----------------------------------------------------------------|
G#-----0-3-5-----------8-------------------------------------------|
D#-------------------------------------1-----------------------0---|
G#-0-----------0---0-------0-0-0-----------3-2-0---0-0-2---3-------|
Pm                         . .                     . .

===================================================================

Guitar 1
A#-----------------------------------------------------------------|
F -----------------------------------------------------------------|
C#-----------------------------------------------------------------|
G#-8---8-8-8---8-8---------------------------------x---x-x-----x-x-|
D#-8---8-8-8---8-8---------------------------------x---x-x-----x-x-|
G#-8---8-8-8---8-8-8---10--8---7~~~~~~-10--0~~~~~~-x---x-x-----x-x-|
Pm     . .     . .

===================================================================
===================================================================


Pre Chorus 1

Guitar 1
A#-----------------------------------------------------------------|
F -----------------------------------------------------------------|
C#-----------------------------------------------------------------|
G#-0-------0-0-0-0-0---0-------0-0-0-0-0-0-0---0-0-----0---0-0-0-0-|
D#-0-------0-0-0-0-0---0-------0-0-0-0-0-0-0---0-0-----0---0-0-0-0-|
G#-0-------0-0-0-0-0---0-------0-0-0-0-0-0-0---0-0-----0---0-0-0-0-|
Pm .       . . . . .   .       . . . . . . .   . .     .   . . . .

===================================================================

Guitar 1
A#-----------------------------------------------------------------|
F -----------------------------------------------------------------|
C#-----------------------------------------------------------------|
G#-0-------7-8---8-7---0-------0-0-7-7---5-3---0-------0---0-0-0-0-|
D#-0-------7-8---8-7---0-------0-0-7-7---5-3---0-------0---0-0-0-0-|
G#-0-------7-8---8-7---0-------0-0-7-7---5-3---0-------0---0-0-0-0-|
Pm .                           . .                     .   . . . .

===================================================================

Guitar 1
A#-----------------------------------------------------------------|
F -----------------------------------------------------------------|
C#-----------------------------------------------------------------|
G#-0-------0-0-0-0-0---0-------0-0-0-0-0-0-0---0-0-----3---5---7---|
D#-0-------0-0-0-0-0---0-------0-0-0-0-0-0-0---0-0-----3---5---7---|
G#-0-------0-0-0-0-0---0-------0-0-0-0-0-0-0---0-0-----3---5---7---|
Pm .       . . . . .   .       . . . . . . .   . .

===================================================================

Guitar 1
A#-----------------------------------------------------------------|
F -----------------------------------------------------------------|
C#-----------------------------------------------------------------|
G#-7-7-7---8---7--7-7-7---8---7---7-7-7---8---7---10\~~~~----------|
D#-7-7-7---8---7--7-7-7---8---7---7-7-7---8---7---10\~~~~----------|
G#-7-7-7---8---7--7-7-7---8---7---7-7-7---8---7---10\~~~~----------|
Pm . .            . .             . .             .

===================================================================
===================================================================


Chorus

(x2)

Guitar 1
A#-----------------------------------------------------------------|
F -----------------------------------------------------------------|
C#-----------------------------------------------------------------|
G#-8~~~~-8-8~~-8~~~~-8-8-----8-8-10~~~-12~-0~~~~~~-0-0-0~~-0-0-0-0-|
D#-8~~~~-8-8~~-8~~~~-8-8-8~~-8-8-10~~~-12~-0~~~~~~-0-0-0~~-0-0-0-0-|
G#-8~~~~-8-8~~-8~~~~-8-8-----8-8-10~~~-12~-0~~~~~~-0-0-0~~-0-0-0-0-|
Pm                   . .     . .                   . .     . . . .

===================================================================

Guitar 1
A#-----------------------------------------------------------------|
F -----------------------------------------------------------------|
C#-------------------------------12~~~-12~-12~-12~-----------------|
G#-8~~~~-8-8~~-8~~~~-8-8-10~-8-8-10~~~-10~-10~-10~-x-x-x-x-x-x-x-x-|
D#-8~~~~-8-8~~-8~~~~-8-8-8~~-8-8-10~~~-10~-10~-10~-x-x-x-x-x-x-x-x-|
G#-8~~~~-8-8~~-8~~~~-8-8-8~~-8-8-10~~~-10~-10~-10~-x-x-x-x-x-x-x-x-|
Pm                   . .     . .                   . .     . . . .

===================================================================

Guitar 1
A#-----------------------------------------------------------------|
F -----------------------------------------------------------------|
C#-----------------------------------------------------------------|
G#-8~~~~-8-8~~-8~~~~-8-8-----8-8-10~~~-12~-0~~~~~~-0-0-0~~-0-0-0-0-|
D#-8~~~~-8-8~~-8~~~~-8-8-8~~-8-8-10~~~-12~-0~~~~~~-0-0-0~~-0-0-0-0-|
G#-8~~~~-8-8~~-8~~~~-8-8-----8-8-10~~~-12~-0~~~~~~-0-0-0~~-0-0-0-0-|
Pm                   . .     . .                   . .     . . . .

===================================================================

Guitar 1
A#-----------------------------------------------------------------|
F -----------------------------------------------------------------|
C#-------------------------------12~~~-12~-----7~~~~~~~~~~~~~~~~~~-|
G#-8~~~~-8-8~~-8~~~~-8-8-10~-8-8-10~~~-10~-0---0~~~~~~~~~~~~~~~~~~-|
D#-8~~~~-8-8~~-8~~~~-8-8-8~~-8-8-10~~~-10~-0---0~~~~~~~~~~~~~~~~~~-|
G#-8~~~~-8-8~~-8~~~~-8-8-8~~-8-8-10~~~-10~-0---0~~~~~~~~~~~~~~~~~~-|
Pm                   . .     . .           .

===================================================================
===================================================================


Break Off 1

Guitar 1
A#-----------------------------------------------------------------|
F -----------------------------------------------------------------|
C#-----------------------------------------------------------------|
G#-0---------------------------x---x---------------0~~~~~~~~~~~~~~-|
D#-0---------------------------x---x---------------0~~~~~~~~~~~~~~-|
G#-0---------------------------x---x---------------0~~~~~~~~~~~~~~-|
Pm .

===================================================================
===================================================================


Breakdown 1

Guitar 1
A#-----------------------------------------------------------------|
F -----------------------------------------------------------------|
C#-----------------------------------------------------------------|
G#-0~~~----0~~~----0~~~~-3~~~~-7~~~~-3~~-0-------------------------|
D#-0~~~----0~~~----0~~~~-3~~~~-7~~~~-3~~-0-------------------------|
G#-0~~~----0~~~----0~~~~-3~~~~-7~~~~-3~~-0---0-0-8---0-8---0-8-10--|
Pm                                           . .

===================================================================

Guitar 1
A#---------------------------------------------------------------------|
F ---------------------------------------------------------------------|
C#---------------------------------------------------------------------|
G#---------------------------------------------------------------------|
D#-----9-10-9--------------------------------------------------4-4-4-4-|
G#-0----------10-8-0-0-8---0-8---0-8---0-7---0-3---0-5---0-5-----------|
Pm .               . .     .     .     .     .     .     .

===================================================================

Guitar 1
A#-----------------------------------------------------------------|
F -----------------------------------------------------------------|
C#-----------------------------------------------------------------|
G#-0~~~----0~~~~~~-------------------------------------------------|
D#-0~~~----0~~~~~~-------------------------------------------------|
G#-0~~~----0~~~~~~-8~~~~-5~~~~-7~~~~-0---0---0-0-8---0-8---0-8-10--|
Pm                                           . .

===================================================================

Guitar 1
A#---------------------------------------------------------------------|
F ---------------------------------------------------------------------|
C#-----2-3-2-0---------------------------------------------------------|
G#-------------3-0-----------------------10----8-----5-----7---7-7-7-7-|
D#---------------------------------------------------------------------|
G#-0---------------0-0-0---0-10--0-12--0-----0-----0-----0-------------|
Pm .               . .     .     .     .     .     .     .

===================================================================

Guitar 1
A#-----------------------------------------------------------------|
F -----------------------------------------------------------------|
C#-----------------------------------------------------------------|
G#-0~~~----0~~~----0~~~~-3~~~~-7~~~~-3~~-0-------------------------|
D#-0~~~----0~~~----0~~~~-3~~~~-7~~~~-3~~-0-------------------------|
G#-0~~~----0~~~----0~~~~-3~~~~-7~~~~-3~~-0---0-0-8---0-8---0-8-10--|
Pm                                           . .

===================================================================

Guitar 1
A#---------------------------------------------------------------------|
F ---------------------------------------------------------------------|
C#---------------------------------------------------------------------|
G#---------------------------------------------------------------------|
D#-----9-10-9--------------------------------------------------4-4-4-4-|
G#-0----------10-8-0-0-8---0-8---0-8---0-7---0-3---0-5---0-5-----------|
Pm .               . .     .     .     .     .     .     .

===================================================================

Guitar 1
A#-----------------------------------------------------------------|
F -----------------------------------------------------------------|
C#-----------------------------------------------------------------|
G#-0~~~----0~~~~~~-------------------------------------------------|
D#-0~~~----0~~~~~~-------------------4b~---------------------------|
G#-0~~~----0~~~~~~-8~~~~-5~~~~-7~~~~-----0---0-0-8---0-8---0-8-10--|
Pm                                           . .

===================================================================

Guitar 1
A#---------------------------------------------------------------------|
F ---------------------------------------------------------------------|
C#-----2-3-2-0---------------------------------------------------------|
G#-------------3-0-----------------------------------------------------|
D#---------------------------10----12----13----10----12----13--8-8-8-8-|
G#-0---------------0-0-0---0-----0-----0-----0-----0-----0-------------|
Pm .               . .     .     .     .     .     .     .

===================================================================
===================================================================


Break Off 2

Guitar 1
A#-13-17-13-17-13-17-13-17-15-18-15-18-15-18-15-18-|
F -------------------------------------------------|
C#-------------------------------------------------|
G#-------------------------------------------------|
D#-------------------------------------------------|
G#-------------------------------------------------|

Guitar 1 continued
A#-20--17----------17--20--17----------------------|
F ---------20--20--------------20--17~~\~~~--------|
C#-------------------------------------------------|
G#-------------------------------------------------|
D#-------------------------------------------------|
G#-------------------------------------------------|

===================================================================
===================================================================


Verse 2

Guitar 1
A#-----------------------------------------------------------------|
F -----------------------------------------------------------------|
C#-----------------------------------------------------------------|
G#-----0-10-12-----------------------------------------------------|
D#----------------/12------8---------------------------------------|
G#-0-----------0-------0-------0---0-0-0---8-7-0---5-3-0---7-5-0---|
Pm                                 . .

===================================================================

Guitar 1
A#-----------------------------------------------------------------|
F -----------------------------------------------------------------|
C#-----------------------------------------------------------------|
G#-------------------------2-3-2-------0-0-0---0-0-0--9-10-9-7-----|
D#---------3-------0-1-0---------------0-0-0---0-0-0-----------10--|
G#-0---3-5-----0-----------------------0-0-0---0-0-0---------------|
Pm                                     . .     . .

===================================================================

Guitar 1
A#-----------------------------------------------------------------|
F -----------------------------------------------------------------|
C#-----------------------------------------------------------------|
G#-----0-3-5-----------8-------------------------------------------|
D#-------------------------------------1-----------------------0---|
G#-0-----------0---0-------0-0-0-----------3-2-0---0-0-2---3-------|
Pm                         . .                     . .

===================================================================

Guitar 1
A#-----------------------------------------------------------------|
F -----------------------------------------------------------------|
C#-----------------------------------------------------------------|
G#-8---8-8-8---8-8-----------------------------------------0-3~~~~-|
D#-8---8-8-8---8-8-------------------------------------------------|
G#-8---8-8-8---8-8-8---10--8---7~~~~~~-10--0~~~~~~-0---0-----------|
Pm     . .     . .

===================================================================
===================================================================


Breakdown 2

Guitar 1
A#-----------------------------------------------------------------|
F -----------------------------------------------------------------|
C#-----------------------------------------------------------------|
G#-0-------0---0-------0-------0---0-------0-------0-------0-0-0-0-|
D#-0-------0---0-------0-------0---0-------0-------0-------0-0-0-0-|
G#-0-------0---0-------0-------0---0-------0-------0-------0-0-0-0-|
Pm .       .   .       .       .   .       .       .       . . . .

===================================================================

Guitar 1
A#-----------------------------------------------------------------|
F ---------------------------------10------------------------------|
C#-----------------------------------------------------------------|
G#-----------------------------------------------------7---5---7---|
D#-----------------------------------------------------7---5---7---|
G#-------------------------------------0---7-7-5-------7---5---7---|

===================================================================

Guitar 1
A#-----------------------------------------------------------------|
F -----------------------------------------------------------------|
C#-----------------------------------------------------------------|
G#-0-------0---0-------0-------0---0-------0-------0-------0-0-0-0-|
D#-0-------0---0-------0-------0---0-------0-------0-------0-0-0-0-|
G#-0-------0---0-------0-------0---0-------0-------0-------0-0-0-0-|
Pm .       .   .       .       .   .       .       .       . . . .

===================================================================

Guitar 1
A#-----------------------------------------------------------------|
F -----------------------------------------------------------------|
C#---------------------------------3---2-3-2-0-----0---2-----------|
G#-8---8-8-8---8-8-----------------------------3-----------3-------|
D#-8---8-8-8---8-8---------------------------------------------4---|
G#-8---8-8-8---8-8-8---10--8---7-----------------------------------|
Pm     . .     . .

===================================================================
===================================================================


Pre Chorus 2

Guitar 1
A#---------------------------------------------------------22-22-22-|
F ------------------------------------------------------------------|
C#------------------------------------------------------------------|
G#-0~~~----0~~~----8---7---0-0-0---0---0-0-0-0-0---0---0------------|
D#-0~~~----0~~~----8---7---0-0-0---0---0-0-0-0-0---0---0------------|
G#-0~~~----0~~~----8---7---0-0-0---0---0-0-0-0-0---0---0------------|
Pm                         . . .   .   . . . . .   .   .

===================================================================

Guitar 1
A#-22-22-22--------------------------------------------------------|
F -----------------------------------------------------------------|
C#-----------------------------------------------------------------|
G#----------0-------0-0---0-0---0----------------------3---2-------|
D#----------0-------0-0---0-0---0--------------4---5-----------0---|
G#----------0-------0-0---0-0---0----------0-----------------------|
Pm          .       . .   . .   .

===================================================================

Guitar 1
A#---------------------------------------------------------22-22-22-|
F ------------------------------------------------------------------|
C#------------------------------------------------------------------|
G#-0~~~----0~~~~~~-8---7---0-0-0---0---0-0-0-0-0---0---0------------|
D#-0~~~----0~~~~~~-8---7---0-0-0---0---0-0-0-0-0---0---0------------|
G#-0~~~----0~~~~~~-8---7---0-0-0---0---0-0-0-0-0---0---0------------|
Pm                         . . .   .   . . . . .   .   .

===================================================================

Guitar 1
A#-22-22-22--------------------------------------------------------|
F -----------------------------------------------------------------|
C#-----------------------------------------------------------------|
G#----------0-------0-0---0-0---0----------------------------------|
D#----------0-------0-0---0-0---0--7---3---------------------------|
G#----------0-------0-0---0-0---0----------5---3---0---7---5---3---|
Pm          .       . .   . .   .

===================================================================
===================================================================


Chorus

(x2)

Guitar 1
A#-----------------------------------------------------------------|
F -----------------------------------------------------------------|
C#-----------------------------------------------------------------|
G#-8~~~~-8-8~~-8~~~~-8-8-----8-8-10~~~-12~-0~~~~~~-0-0-0~~-0-0-0-0-|
D#-8~~~~-8-8~~-8~~~~-8-8-8~~-8-8-10~~~-12~-0~~~~~~-0-0-0~~-0-0-0-0-|
G#-8~~~~-8-8~~-8~~~~-8-8-----8-8-10~~~-12~-0~~~~~~-0-0-0~~-0-0-0-0-|
Pm                   . .     . .                   . .     . . . .

===================================================================

Guitar 1
A#-----------------------------------------------------------------|
F -----------------------------------------------------------------|
C#-------------------------------12~~~-12~-12~-12~-----------------|
G#-8~~~~-8-8~~-8~~~~-8-8-10~-8-8-10~~~-10~-10~-10~-x-x-x-x-x-x-x-x-|
D#-8~~~~-8-8~~-8~~~~-8-8-8~~-8-8-10~~~-10~-10~-10~-x-x-x-x-x-x-x-x-|
G#-8~~~~-8-8~~-8~~~~-8-8-8~~-8-8-10~~~-10~-10~-10~-x-x-x-x-x-x-x-x-|
Pm                   . .     . .                   . .     . . . .

===================================================================

Guitar 1
A#-----------------------------------------------------------------|
F -----------------------------------------------------------------|
C#-----------------------------------------------------------------|
G#-8~~~~-8-8~~-8~~~~-8-8-----8-8-10~~~-12~-0~~~~~~-0-0-0~~-0-0-0-0-|
D#-8~~~~-8-8~~-8~~~~-8-8-8~~-8-8-10~~~-12~-0~~~~~~-0-0-0~~-0-0-0-0-|
G#-8~~~~-8-8~~-8~~~~-8-8-----8-8-10~~~-12~-0~~~~~~-0-0-0~~-0-0-0-0-|
Pm                   . .     . .                   . .     . . . .

===================================================================

Guitar 1
A#-----------------------------------------------------------------|
F -----------------------------------------------------------------|
C#-------------------------------12~~~-12~-----7~~~~~~~~~~~~~~~~~~-|
G#-8~~~~-8-8~~-8~~~~-8-8-10~-8-8-10~~~-10~-0---0~~~~~~~~~~~~~~~~~~-|
D#-8~~~~-8-8~~-8~~~~-8-8-8~~-8-8-10~~~-10~-0---0~~~~~~~~~~~~~~~~~~-|
G#-8~~~~-8-8~~-8~~~~-8-8-8~~-8-8-10~~~-10~-0---0~~~~~~~~~~~~~~~~~~-|
Pm                   . .     . .           .

===================================================================
===================================================================


Interlude 1

Guitar 1
A#-----------------------------------------------------------------|
F -----------------------------------------------------------------|
C#-----------------------------------------------------------------|
G#-----------------------------------------------------------------|
D#-12--12--12--12--12--12--12--12--12--12--12--12--12--12--12--12--|
G#-----------------------------------------------------------------|

===================================================================

Guitar 1
A#-----------------------------------------------------------------|
F -----------------------------------------------------------------|
C#-----------------------------------------------------------------|
G#-----------------------------------------------------------------|
D#-12--12--12--12--12--12--12--12--12--12--12--12--12--12--12--12--|
G#-----------------------------------------------------------------|

===================================================================

Guitar 1
A#-----------------------------------------------------------------|
F -----------------------------------------------------------------|
C#-----------------------------------------------------------------|
G#-----------------------------------------------------------------|
D#-11--11--11--11--11--11--11--11--11--11--11--11--11--11--11--11--|
G#-----------------------------------------------------------------|

===================================================================

Guitar 1
A#-----------------------------------------------------------------|
F -----------------------------------------------------------------|
C#-----------------------------------------------------------------|
G#-----------------------------------------------------------------|
D#-12--12--12--12--12--12--12--12--15--15--15--15--15--15--15--15--|
G#-----------------------------------------------------------------|

===================================================================

Guitar 1
A#-----------------------------------------------------------------|
F -----------------------------------------------------------------|
C#-----------------------------------------------------------------|
G#-----------------------------------------------------------------|
D#-12--12--12--12--12--12--12--12--12--12--12--12--12--12--12--12--|
G#-----------------------------------------------------------------|

===================================================================

Guitar 1
A#-----------------------------------------------------------------|
F -----------------------------------------------------------------|
C#-----------------------------------------------------------------|
G#-----------------------------------------------------------------|
D#-15--15--15--15--15--15--15--15--15--15--15--15--15--15--15--15--|
G#-----------------------------------------------------------------|

===================================================================

Guitar 1
A#-----------------------------------------------------------------|
F -----------------------------------------------------------------|
C#-----------------------------------------------------------------|
G#-----------------------------------------------------------------|
D#-15--15--15--15--15--15--15--15--15--15--15--15--15--15--15--15--|
G#-----------------------------------------------------------------|

===================================================================

Guitar 1
A#-----------------------------------------------------------------|
F -----------------------------------------------------------------|
C#-----------------------------------------------------------------|
G#-----------------------------------------------------------------|
D#-14--14--14--14--14--14--14--14--14--14--14--14--14--14--14--14--|
G#-----------------------------------------------------------------|

===================================================================
===================================================================


Interlude 2

Guitar 1
A#-----------------------------------------------------------------|
F -----------------------------------------------------------------|
C#-----------------------------------------------------------------|
G#-5~~~~-5-5~~-5~~-5-5-5~~-5-5-5~~-5-5---5-5---5~~-5-5-5~~-5-5-5~~-|
D#-5~~~~-5-5~~-5~~-5-5-5~~-5-5-5~~-5-5---5-5---5~~-5-5-5~~-5-5-5~~-|
G#-5~~~~-5-5~~-5~~-5-5-5~~-5-5-5~~-5-5---5-5---5~~-5-5-5~~-5-5-5~~-|
Pm                 . .     . .     . .   . .       . .     . .

===================================================================

Guitar 1
A#-----------------------------------------------------------------|
F -----------------------------------------------------------------|
C#-----------------------------------------------------------------|
G#-8~~~~-8-8~~-8~~-8-8-8~~-8-8-8~~-8-8---8-8---8~~-8-8-8~~-8-8-8~~-|
D#-8~~~~-8-8~~-8~~-8-8-8~~-8-8-8~~-8-8---8-8---8~~-8-8-8~~-8-8-8~~-|
G#-8~~~~-8-8~~-8~~-8-8-8~~-8-8-8~~-8-8---8-8---8~~-8-8-8~~-8-8-8~~-|
Pm                 . .     . .     . .   . .       . .     . .

===================================================================

Guitar 1
A#-----------------------------------------------------------------|
F -----------------------------------------------------------------|
C#-7~~~~-7-7~~-7~~-7-7-7~~-7-7-7~~-7-7---7-7---7~~-7-7-7~~-7-7-7~~-|
G#-7~~~~-7-7~~-7~~-7-7-7~~-7-7-7~~-7-7---7-7---7~~-7-7-7~~-7-7-7~~-|
D#-5~~~~-5-5~~-5~~-5-5-5~~-5-5-5~~-5-5---5-5---5~~-5-5-5~~-5-5-5~~-|
G#-----------------------------------------------------------------|
Pm                 . .     . .     . .   . .       . .     . .

===================================================================

Guitar 1
A#-----------------------------------------------------------------|
F -----------------------------------------------------------------|
C#-6~~~~-6-6~~-6~~-6-6-6~~-6-6-6~~-6-6---6-6---6~~-6-6-6~~-6-6-6~~-|
G#-6~~~~-6-6~~-6~~-6-6-6~~-6-6-6~~-6-6---6-6---6~~-6-6-6~~-6-6-6~~-|
D#-4~~~~-4-4~~-4~~-4-4-4~~-4-4-4~~-4-4---4-4---4~~-4-4-4~~-4-4-4~~-|
G#-----------------------------------------------------------------|
Pm                 . .     . .     . .   . .       . .     . .

===================================================================

Guitar 1
A#-----------------------------------------------------------------|
F -----------------------------------------------------------------|
C#-----------------------------------------------------------------|
G#-5~~~~-5-5~~-5~~-5-5-5~~-5-5-5~~-5-5---5-5---5~~-5-5-5~~-5-5-5~~-|
D#-5~~~~-5-5~~-5~~-5-5-5~~-5-5-5~~-5-5---5-5---5~~-5-5-5~~-5-5-5~~-|
G#-5~~~~-5-5~~-5~~-5-5-5~~-5-5-5~~-5-5---5-5---5~~-5-5-5~~-5-5-5~~-|
Pm                 . .     . .     . .   . .       . .     . .

===================================================================

Guitar 1
A#-----------------------------------------------------------------|
F -----------------------------------------------------------------|
C#-----------------------------------------------------------------|
G#-8~~~~-8-8~~-8~~-8-8-8~~-8-8-8~~-8-8---8-8---8~~-8-8-8~~-8-8-8~~-|
D#-8~~~~-8-8~~-8~~-8-8-8~~-8-8-8~~-8-8---8-8---8~~-8-8-8~~-8-8-8~~-|
G#-8~~~~-8-8~~-8~~-8-8-8~~-8-8-8~~-8-8---8-8---8~~-8-8-8~~-8-8-8~~-|
Pm                 . .     . .     . .   . .       . .     . .

===================================================================

Guitar 1
A#-----------------------------------------------------------------|
F -----------------------------------------------------------------|
C#-6~~~~-6-6~~-6~~-6-6-6~~-6-6-6~~-6-6---6-6---6~~-6-6-6~~-6-6-6~~-|
G#-6~~~~-6-6~~-6~~-6-6-6~~-6-6-6~~-6-6---6-6---6~~-6-6-6~~-6-6-6~~-|
D#-4~~~~-4-4~~-4~~-4-4-4~~-4-4-4~~-4-4---4-4---4~~-4-4-4~~-4-4-4~~-|
G#-----------------------------------------------------------------|
Pm                 . .     . .     . .   . .       . .     . .

===================================================================

Guitar 1
A#-----------------------------------------------------------------|
F -----------------------------------------------------------------|
C#-6~~~~-6-6~~-6~~-6-6-6~~-6-6-6~~-6-6---6-6---6-------------------|
G#-6~~~~-6-6~~-6~~-6-6-6~~-6-6-6~~-6-6---6-6---6-------------------|
D#-4~~~~-4-4~~-4~~-4-4-4~~-4-4-4~~-4-4---4-4---4-------------------|
G#-----------------------------------------------------------------|
Pm                 . .     . .     . .   . .   .

===================================================================
===================================================================


Breakdown 3

Guitar 1
A#-----------------------------------------------------------------|
F -----------------------------------------------------------------|
C#---------------------------------7-------------------------------|
G#-7---------------------------3-----------------------------------|
D#-------------3-------4-7-4-3-------------------------7-10-7-0-0--|
G#-----0-0-0-------0-------------------0-0-0---8---0---------------|
Pm     . .         .                   . .         .

===================================================================

Guitar 1
A#-----------------------------------------------------------------|
F -----------------------------------------------------------------|
C#-----------------------------------------------------------------|
G#-8-------------------------------6-------------------------------|
D#-------------7---------------5-----------------------------------|
G#-----0-0-0-------0-0-5---0-----------0-0-5---7---0---5-7-5-0-3-0-|
Pm     . .         . .                 . .

===================================================================

Guitar 1
A#-----------------------------------------------------------------|
F -----------------------------------------------------------------|
C#---------------------------------7-------------------------------|
G#-7---------------------------3-----------------------------------|
D#-------------3-------4-7-4-3-------------------------7-10-7-0-0--|
G#-----0-0-0-------0-------------------0-0-0---8---0---------------|
Pm     . .         .                   . .         .

===================================================================

Guitar 1
A#-----------------------------------------------------------------|
F -----------------------------------------------------------------|
C#-----------------------------------------------------------------|
G#-8-------------------------------6---------------x-x-x-x-x-x-x-x-|
D#-------------7---------------5-------------------x-x-x-x-x-x-x-x-|
G#-----0-0-0-------0-0-5---0-----------0-0-5---7---x-x-x-x-x-x-x-x-|
Pm     . .         . .                 . .

===================================================================
===================================================================


Outro

Guitar 1
A#---------------------------------------------------------22-22-22-|
F ------------------------------------------------------------------|
C#------------------------------------------------------------------|
G#-0~~~----0~~~----8---7---0-0-0---0---0-0-0-0-0---0---0------------|
D#-0~~~----0~~~----8---7---0-0-0---0---0-0-0-0-0---0---0------------|
G#-0~~~----0~~~----8---7---0-0-0---0---0-0-0-0-0---0---0------------|
Pm                         . . .   .   . . . . .   .   .

===================================================================

Guitar 1
A#-22-22-22--------------------------------------------------------|
F -----------------------------------------------------------------|
C#-----------------------------------------------------------------|
G#----------0-------0-0---0-0---0----------------------3---2-------|
D#----------0-------0-0---0-0---0--------------4---5-----------0---|
G#----------0-------0-0---0-0---0----------0-----------------------|
Pm          .       . .   . .   .

===================================================================

Guitar 1
A#---------------------------------------------------------22-22-22-|
F ------------------------------------------------------------------|
C#------------------------------------------------------------------|
G#-0~~~----0~~~~~~-8---7---0-0-0---0---0-0-0-0-0---0---0------------|
D#-0~~~----0~~~~~~-8---7---0-0-0---0---0-0-0-0-0---0---0------------|
G#-0~~~----0~~~~~~-8---7---0-0-0---0---0-0-0-0-0---0---0------------|
Pm                         . . .   .   . . . . .   .   .

===================================================================

Guitar 1
A#-22-22-22---------------------------------------------------------|
F ------------------------------------------------------------------|
C#------------------------------------------------------------------|
G#----------0~~~~~~-8---7---0-0-0-----------------------------------|
D#----------0~~~~~~-8---7---0-0-0---------------------------4-4-4-4-|
G#----------0~~~~~~-8---7---0-0-0---0---0-3-5-5-5-5-7-7-7-7---------|
Pm                          . . .

===================================================================
===================================================================
===================================================================


===================================================================
Guitar 2
===================================================================

Intro

Guitar 2 (Fade In)
A#-----------------------------------------------------------------|
F -----------------------------------------------------------------|
C#-----------------------------------------------------------------|
G#-----0-10-12-----------------------------------------------------|
D#----------------/12------8---------------------------------------|
G#-0-----------0-------0-------0---0-0-0---8-7-0---5-3-0---7-5-0---|
Pm                                 . .

===================================================================

Guitar 2
A#-----------------------------------------------------------------|
F -----------------------------------------------------------------|
C#-----------------------------------------------------------------|
G#-----0-10-12-----------------------------------------------------|
D#----------------/12------8---------------------------------------|
G#-0-----------0-------0-------0---0-0-0---8-7-0---5-3-0---7-5-0---|
Pm                                 . .

===================================================================
===================================================================


Verse 1

Guitar 2
A#-----------------------------------------------------------------|
F -----------------------------------------------------------------|
C#-----------------------------------------------------------------|
G#-----0-10-12-----------------------------------------------------|
D#----------------/12------8---------------------------------------|
G#-0-----------0-------0-------0---0-0-0---8-7-0---5-3-0---7-5-0---|
Pm                                 . .

===================================================================

Guitar 2
A#-----------------------------------------------------------------|
F -----------------------------------------------------------------|
C#-----------------------------------------------------------------|
G#-------------------------2-3-2-------0-0-0---0-0-0--9-10-9-7-----|
D#---------3-------0-1-0---------------0-0-0---0-0-0-----------10--|
G#-0---3-5-----0-----------------------0-0-0---0-0-0---------------|
Pm                                     . .     . .

===================================================================

Guitar 2
A#-----------------------------------------------------------------|
F -----------------------------------------------------------------|
C#-----------------------------------------------------------------|
G#-----0-3-5-----------8-------------------------------------------|
D#-------------------------------------1-----------------------0---|
G#-0-----------0---0-------0-0-0-----------3-2-0---0-0-2---3-------|
Pm                         . .                     . .

===================================================================

Guitar 2
A#-----------------------------------------------------------------|
F -----------------------------------------------------------------|
C#-----------------------------------------------------------------|
G#-8---8-8-8---8-8-----------------------------------------0-3~~~~-|
D#-8---8-8-8---8-8-------------------------------------------------|
G#-8---8-8-8---8-8-8---10--8---7~~~~~~-10--0~~~~~~-0---0-----------|
Pm     . .     . .

===================================================================

Guitar 2
A#-----------------------------------------------------------------|
F -----------------------------------------------------------------|
C#-----------------------------------------------------------------|
G#-----0-10-12-----------------------------------------------------|
D#----------------/12------8---------------------------------------|
G#-0-----------0-------0-------0---0-0-0---8-7-0---5-3-0---7-5-0---|
Pm                                 . .

===================================================================

Guitar 2
A#-----------------------------------------------------------------|
F -----------------------------------------------------------------|
C#-----------------------------------------------------------------|
G#-------------------------2-3-2-------0-0-0---0-0-0--9-10-9-7-----|
D#---------3-------0-1-0---------------0-0-0---0-0-0-----------10--|
G#-0---3-5-----0-----------------------0-0-0---0-0-0---------------|
Pm                                     . .     . .

===================================================================

Guitar 2
A#-----------------------------------------------------------------|
F -----------------------------------------------------------------|
C#-----------------------------------------------------------------|
G#-----0-3-5-----------8-------------------------------------------|
D#-------------------------------------1-----------------------0---|
G#-0-----------0---0-------0-0-0-----------3-2-0---0-0-2---3-------|
Pm                         . .                     . .

===================================================================

Guitar 2
A#-----------------------------------------------------------------|
F -----------------------------------------------------------------|
C#-----------------------------------------------------------------|
G#-8---8-8-8---8-8-------------------------------------x-x---x-x---|
D#-8---8-8-8---8-8-------------------------------------x-x---x-x---|
G#-8---8-8-8---8-8-8---10--8---7~~~~~~-10--0~~~~~~-----x-x---x-x---|
Pm     . .     . .

===================================================================
===================================================================


Pre Chorus 1

Guitar 2
A#-----------------------------------------------------------------|
F -----------------------------------------------------------------|
C#-----------------------------------------------------------------|
G#-0-------0-0-0-0-0---0-------0-0-0-0-0-0-0---0-0-----0---0-0-0-0-|
D#-0-------0-0-0-0-0---0-------0-0-0-0-0-0-0---0-0-----0---0-0-0-0-|
G#-0-------0-0-0-0-0---0-------0-0-0-0-0-0-0---0-0-----0---0-0-0-0-|
Pm .       . . . . .   .       . . . . . . .   . .     .   . . . .

===================================================================

Guitar 2
A#-----------------------------------------------------------------|
F -----------------------------------------------------------------|
C#-----------------------------------------------------------------|
G#-0-------7-8---8-7---0-------0-0-7-7---5-3---0-------0---0-0-0-0-|
D#-0-------7-8---8-7---0-------0-0-7-7---5-3---0-------0---0-0-0-0-|
G#-0-------7-8---8-7---0-------0-0-7-7---5-3---0-------0---0-0-0-0-|
Pm .                           . .                     .   . . . .

===================================================================

Guitar 2
A#-----------------------------------------------------------------|
F -----------------------------------------------------------------|
C#-----------------------------------------------------------------|
G#-0-------0-0-0-0-0---0-------0-0-0-0-0-0-0---0-0-----3---5---7---|
D#-0-------0-0-0-0-0---0-------0-0-0-0-0-0-0---0-0-----3---5---7---|
G#-0-------0-0-0-0-0---0-------0-0-0-0-0-0-0---0-0-----3---5---7---|
Pm .       . . . . .   .       . . . . . . .   . .

===================================================================

Guitar 2
A#-----------------------------------------------------------------|
F -----------------------------------------------------------------|
C#-----------------------------------------------------------------|
G#-7-7-7---8---7--7-7-7---8---7---7-7-7---8---7---10\~~~~----------|
D#-7-7-7---8---7--7-7-7---8---7---7-7-7---8---7---10\~~~~----------|
G#-7-7-7---8---7--7-7-7---8---7---7-7-7---8---7---10\~~~~----------|
Pm . .            . .             . .             .

===================================================================
===================================================================


Chorus

(x2)

Guitar 2
A#-----------------------------------------------------------------|
F -----------------------------------------------------------------|
C#-----------------------------------------------------------------|
G#-8~~~~-8-8~~-8~~~~-8-8-10~-8-8-10~~~-----0~~~~~~-0-0-0~~-0-0-0-0-|
D#-8~~~~-8-8~~-8~~~~-8-8-8~~-8-8-10~~~-8~~-0~~~~~~-0-0-0~~-0-0-0-0-|
G#-8~~~~-8-8~~-8~~~~-8-8-8~~-8-8-10~~~-----0~~~~~~-0-0-0~~-0-0-0-0-|
Pm                   . .     . .                   . .     . . . .

===================================================================

Guitar 2
A#-----------------------------------------------------------------|
F -----------------------------------------------------------------|
C#-------------------------------12~~~-12~-12~-12~-----------------|
G#-8~~~~-8-8~~-8~~~~-8-8-10~-8-8-10~~~-10~-10~-10~-x-x-x-x-x-x-x-x-|
D#-8~~~~-8-8~~-8~~~~-8-8-8~~-8-8-10~~~-10~-10~-10~-x-x-x-x-x-x-x-x-|
G#-8~~~~-8-8~~-8~~~~-8-8-8~~-8-8-10~~~-10~-10~-10~-x-x-x-x-x-x-x-x-|
Pm                   . .     . .                   . .     . . . .

===================================================================

Guitar 2
A#-----------------------------------------------------------------|
F -----------------------------------------------------------------|
C#-----------------------------------------------------------------|
G#-8~~~~-8-8~~-8~~~~-8-8-10~-8-8-10~~~-----0~~~~~~-0-0-0~~-0-0-0-0-|
D#-8~~~~-8-8~~-8~~~~-8-8-8~~-8-8-10~~~-8~~-0~~~~~~-0-0-0~~-0-0-0-0-|
G#-8~~~~-8-8~~-8~~~~-8-8-8~~-8-8-10~~~-----0~~~~~~-0-0-0~~-0-0-0-0-|
Pm                   . .     . .                   . .     . . . .

===================================================================

Guitar 2
A#-----------------------------------------------------------------|
F -----------------------------------------------------------------|
C#-------------------------------12~~~-12~-----7~~~~~~~~~~~~~~~~~~-|
G#-8~~~~-8-8~~-8~~~~-8-8-10~-8-8-10~~~-10~-0---0~~~~~~~~~~~~~~~~~~-|
D#-8~~~~-8-8~~-8~~~~-8-8-8~~-8-8-10~~~-10~-0---0~~~~~~~~~~~~~~~~~~-|
G#-8~~~~-8-8~~-8~~~~-8-8-8~~-8-8-10~~~-10~-0---0~~~~~~~~~~~~~~~~~~-|
Pm                   . .     . .           .

===================================================================
===================================================================


Break Off 1

Guitar 2
A#-----------------------------------------------------------------|
F -------------------------------------------------13/-15~~~~~~~~~-|
C#-------------------------------------------------16~~b~~~~~~~~~~-|
G#-0---------------x---x---x-----------x---------------------------|
D#-0---------------x---x---x-----------x---------------------------|
G#-0---------------x---x---x-----------x---------------------------|
Pm .

===================================================================
===================================================================


Breakdown 1

Guitar 2
A#-----------------------------------------------------------------|
F -----------------------------------------------------------------|
C#-----------------------------------------------------------------|
G#-0~~~----0~~~--------------------------0-------------------------|
D#-0~~~----0~~~--------------------------0-------------------------|
G#-0~~~----0~~~----8~~~~-8~~~~-11~~~-7~~-0---0-0-8---0-8---0-8-10--|
Pm                                           . .

===================================================================

Guitar 2
A#---------------------------------------------------------------------|
F ---------------------------------------------------------------------|
C#---------------------------------------------------------------------|
G#---------------------------------------------------------------------|
D#-----9-10-9----------------------------------------------------------|
G#-0----------10-8-0-0-12--0-12--0-12--0-10--0-8---0-5---0-5---7-7-7-7-|
Pm .               . .     .     .     .     .     .     .

===================================================================

Guitar 2
A#-----------------------------------------------------------------|
F -----------------------------------------------------------------|
C#-----------------------------------------------------------------|
G#-0~~~----0~~~~~~-------------------------------------------------|
D#-0~~~----0~~~~~~-------------------4b~---------------------------|
G#-0~~~----0~~~~~~-8~~~~-5~~~~-7~~~~-----0---0-0-8---0-8---0-8-10--|
Pm                                           . .

===================================================================

Guitar 2
A#---------------------------------------------------------------------|
F ---------------------------------------------------------------------|
C#-----2-3-2-0---------------------------------------------------------|
G#-------------3-0-----------------------10----8-----5-----7-----------|
D#---------------------------------------------------------------------|
G#-0---------------0-0-0---0-10--0-12--0-----0-----0-----0-----3-3-3-3-|
Pm .               . .     .     .     .     .     .     .

===================================================================

Guitar 2
A#-----------------------------------------------------------------|
F -----------------------------------------------------------------|
C#-----------------------------------------------------------------|
G#-0~~~----0~~~--------------------------0-------------------------|
D#-0~~~----0~~~--------------------------0-------------------------|
G#-0~~~----0~~~----8~~~~-8~~~~-11~~~-7~~-0---0-0-8---0-8---0-8-10--|
Pm                                           . .

===================================================================

Guitar 2
A#---------------------------------------------------------------------|
F ---------------------------------------------------------------------|
C#---------------------------------------------------------------------|
G#---------------------------------------------------------------------|
D#-----9-10-9----------------------------------------------------------|
G#-0----------10-8-0-0-12--0-12--0-12--0-10--0-8---0-5---0-5---7-7-7-7-|
Pm .               . .     .     .     .     .     .     .

===================================================================

Guitar 2
A#------------------------------------------------------------------|
F ------------------------------------------------------------------|
C#------------------------------------------------------------------|
G#-0~~-0~~~~~~------------------------------------------------------|
D#-0~~-0~~~~~~------------------------------------------------------|
G#-0~~-0~~~~~~-----8~~~~-5~~~~-7~~~~-0---0---0-0-8---0-8---0-8-10---|
Pm                                           . .

===================================================================

Guitar 2
A#---------------------------------------------------------------------|
F ---------------------------------------------------------------------|
C#-----2-3-2-0---------------------------------------------------------|
G#-------------3-0-----------------------------------------------------|
D#---------------------------7-----8-----------4-----------------------|
G#-0---------------0-0-0---0-----0-----0-8---0-----0-7---0-8---3-3-3-3-|
Pm .               . .     .     .     .     .     .     .

===================================================================
===================================================================


Break Off 2

Guitar 2
A#-------------------------------------------------|
F -15-18-15-18-15-18-15-18-17-20-17-20-17-20-17-20-|
C#-------------------------------------------------|
G#-------------------------------------------------|
D#-------------------------------------------------|
G#-------------------------------------------------|

Guitar 2 continued
A#-17--13----------13--17--13----------------------|
F ---------17--17--------------17--13~~\~~~--------|
C#-------------------------------------------------|
G#-------------------------------------------------|
D#-------------------------------------------------|
G#-------------------------------------------------|

===================================================================
===================================================================


Verse 2

Guitar 2
A#-----------------------------------------------------------------|
F -----------------------------------------------------------------|
C#-----------------------------------------------------------------|
G#-----0-10-12-----------------------------------------------------|
D#----------------/12------8---------------------------------------|
G#-0-----------0-------0-------0---0-0-0---8-7-0---5-3-0---7-5-0---|
Pm                                 . .

===================================================================

Guitar 2
A#-----------------------------------------------------------------|
F -----------------------------------------------------------------|
C#-----------------------------------------------------------------|
G#-------------------------2-3-2-------0-0-0---0-0-0--9-10-9-7-----|
D#---------3-------0-1-0---------------0-0-0---0-0-0-----------10--|
G#-0---3-5-----0-----------------------0-0-0---0-0-0---------------|
Pm                                     . .     . .

===================================================================

Guitar 2
A#-----------------------------------------------------------------|
F -----------------------------------------------------------------|
C#-----------------------------------------------------------------|
G#-----0-3-5-----------8-------------------------------------------|
D#-------------------------------------1-----------------------0---|
G#-0-----------0---0-------0-0-0-----------3-2-0---0-0-2---3-------|
Pm                         . .                     . .

===================================================================

Guitar 2
A#-----------------------------------------------------------------|
F -----------------------------------------------------------------|
C#-----------------------------------------------------------------|
G#-8---8-8-8---8-8-----------------------------------------0-3~~~~-|
D#-8---8-8-8---8-8-------------------------------------------------|
G#-8---8-8-8---8-8-8---10--8---7~~~~~~-10--0~~~~~~-0---0-----------|
Pm     . .     . .

===================================================================
===================================================================


Breakdown 2

Guitar 2
A#-----------------------------------------------------------------|
F -----------------------------------------------------------------|
C#-----------------------------------------------------------------|
G#-0-------0---0-------0-------0---0-------0-------0-------0-0-0-0-|
D#-0-------0---0-------0-------0---0-------0-------0-------0-0-0-0-|
G#-0-------0---0-------0-------0---0-------0-------0-------0-0-0-0-|
Pm .       .   .       .       .   .       .       .       . . . .

===================================================================

Guitar 2
A#-----------------------------------------------------------------|
F ---------------------------------10------------------------------|
C#-----------------------------------------------------------------|
G#-----------------------------------------------------7---5---7---|
D#-----------------------------------------------------7---5---7---|
G#-------------------------------------0---7-7-5-------7---5---7---|

===================================================================

Guitar 2
A#-----------------------------------------------------------------|
F -----------------------------------------------------------------|
C#-----------------------------------------------------------------|
G#-0-------0---0-------0-------0---0-------0-------0-------0-0-0-0-|
D#-0-------0---0-------0-------0---0-------0-------0-------0-0-0-0-|
G#-0-------0---0-------0-------0---0-------0-------0-------0-0-0-0-|
Pm .       .   .       .       .   .       .       .       . . . .

===================================================================

Guitar 2
A#-----------------------------------------------------------------|
F -----------------------------------------------------------------|
C#---------------------------------3---2-3-2-0-----0---2-----------|
G#---------------------------------------------3-----------3-------|
D#-5---5-5-5---5-5-5---7---5---4-------------------------------4---|
G#-----------------------------------------------------------------|
Pm     . .     . .

===================================================================
===================================================================


Pre Chorus 2

Guitar 2
A#------------------------------------------------------------------|
F ------------------------------------------------------------------|
C#------------------------------------------------------------------|
G#-0~~~----0~~~----8---7---0-0-0---0---0-0-0-0-0---0---0------------|
D#-0~~~----0~~~----8---7---0-0-0---0---0-0-0-0-0---0---0------------|
G#-0~~~----0~~~----8---7---0-0-0---0---0-0-0-0-0---0---0------------|
Pm                         . . .   .   . . . . .   .   .

===================================================================

Guitar 2
A#-----------------------------------------------------------------|
F -----------------------------------------------------------------|
C#-----------------------------------------------------------------|
G#----------0-------0-0---0-0---0----------------------7---5-------|
D#----------0-------0-0---0-0---0--------------4---5-----------7---|
G#----------0-------0-0---0-0---0----------0-----------------------|
Pm          .       . .   . .   .

===================================================================

Guitar 2
A#------------------------------------------------------------------|
F ------------------------------------------------------------------|
C#------------------------------------------------------------------|
G#-0~~~----0~~~~~~-8---7---0-0-0---0---0-0-0-0-0---0---0------------|
D#-0~~~----0~~~~~~-8---7---0-0-0---0---0-0-0-0-0---0---0------------|
G#-0~~~----0~~~~~~-8---7---0-0-0---0---0-0-0-0-0---0---0------------|
Pm                         . . .   .   . . . . .   .   .

===================================================================

Guitar 2
A#-----------------------------------------------------------------|
F -----------------------------------------------------------------|
C#----------------------------------------------5~~~~~-------------|
G#----------0-------0-0---0-0---0---5---3---5----------7---7---7---|
D#----------0-------0-0---0-0---0----------------------------------|
G#----------0-------0-0---0-0---0----------------------------------|
Pm          .       . .   . .   .

===================================================================
===================================================================


Chorus

(x2)

Guitar 2
A#-----------------------------------------------------------------|
F -----------------------------------------------------------------|
C#-----------------------------------------------------------------|
G#-8~~~~-8-8~~-8~~~~-8-8-10~-8-8-10~~~-----0~~~~~~-0-0-0~~-0-0-0-0-|
D#-8~~~~-8-8~~-8~~~~-8-8-8~~-8-8-10~~~-8~~-0~~~~~~-0-0-0~~-0-0-0-0-|
G#-8~~~~-8-8~~-8~~~~-8-8-8~~-8-8-10~~~-----0~~~~~~-0-0-0~~-0-0-0-0-|
Pm                   . .     . .                   . .     . . . .

===================================================================

Guitar 2
A#-----------------------------------------------------------------|
F -----------------------------------------------------------------|
C#-------------------------------12~~~-12~-12~-12~-----------------|
G#-8~~~~-8-8~~-8~~~~-8-8-10~-8-8-10~~~-10~-10~-10~-x-x-x-x-x-x-x-x-|
D#-8~~~~-8-8~~-8~~~~-8-8-8~~-8-8-10~~~-10~-10~-10~-x-x-x-x-x-x-x-x-|
G#-8~~~~-8-8~~-8~~~~-8-8-8~~-8-8-10~~~-10~-10~-10~-x-x-x-x-x-x-x-x-|
Pm                   . .     . .                   . .     . . . .

===================================================================

Guitar 2
A#-----------------------------------------------------------------|
F -----------------------------------------------------------------|
C#-----------------------------------------------------------------|
G#-8~~~~-8-8~~-8~~~~-8-8-10~-8-8-10~~~-----0~~~~~~-0-0-0~~-0-0-0-0-|
D#-8~~~~-8-8~~-8~~~~-8-8-8~~-8-8-10~~~-8~~-0~~~~~~-0-0-0~~-0-0-0-0-|
G#-8~~~~-8-8~~-8~~~~-8-8-8~~-8-8-10~~~-----0~~~~~~-0-0-0~~-0-0-0-0-|
Pm                   . .     . .                   . .     . . . .

===================================================================

Guitar 2
A#-----------------------------------------------------------------|
F -----------------------------------------------------------------|
C#-------------------------------12~~~-12~-----7~~~~~~~~~~~~~~~~~~-|
G#-8~~~~-8-8~~-8~~~~-8-8-10~-8-8-10~~~-10~-0---0~~~~~~~~~~~~~~~~~~-|
D#-8~~~~-8-8~~-8~~~~-8-8-8~~-8-8-10~~~-10~-0---0~~~~~~~~~~~~~~~~~~-|
G#-8~~~~-8-8~~-8~~~~-8-8-8~~-8-8-10~~~-10~-0---0~~~~~~~~~~~~~~~~~~-|
Pm                   . .     . .           .

===================================================================
===================================================================


Interlude 1

Guitar 2
A#-----------------------------------------------------------------|
F -----------------------------------------------------------------|
C#-14--14--14--14--14--14--14--14--14--14--14--14--14--14--14--14--|
G#-----------------------------------------------------------------|
D#-----------------------------------------------------------------|
G#-----------------------------------------------------------------|

===================================================================

Guitar 2
A#-----------------------------------------------------------------|
F -11--11--11--11--11--11--11--11--11--11--11--11--11--11--11--11--|
C#-14--14--14--14--14--14--14--14--14--14--14--14--14--14--14--14--|
G#-----------------------------------------------------------------|
D#-----------------------------------------------------------------|
G#-----------------------------------------------------------------|

===================================================================

Guitar 2
A#-----------------------------------------------------------------|
F -10--10--10--10--10--10--10--10--10--10--10--10--10--10--10--10--|
C#-13--13--13--13--13--13--13--13--13--13--13--13--13--13--13--13--|
G#-----------------------------------------------------------------|
D#-----------------------------------------------------------------|
G#-----------------------------------------------------------------|

===================================================================

Guitar 2
A#-----------------------------------------------------------------|
F -15--15--15--15--15--15--15--15--11--11--11--11--11--11--11--11--|
C#-14--14--14--14--14--14--14--14--14--14--14--14--14--14--14--14--|
G#-----------------------------------------------------------------|
D#-----------------------------------------------------------------|
G#-----------------------------------------------------------------|

===================================================================

Guitar 2
A#-----------------------------------------------------------------|
F -----------------------------------------------------------------|
C#-14--14--14--14--14--14--14--14--14--14--14--14--14--14--14--14--|
G#-----------------------------------------------------------------|
D#-----------------------------------------------------------------|
G#-----------------------------------------------------------------|

===================================================================

Guitar 2
A#-----------------------------------------------------------------|
F -13--13--13--13--13--13--13--13--13--13--13--13--13--13--13--13--|
C#-12--12--12--12--12--12--12--12--12--12--12--12--12--12--12--12--|
G#-----------------------------------------------------------------|
D#-----------------------------------------------------------------|
G#-----------------------------------------------------------------|

===================================================================

Guitar 2
A#-----------------------------------------------------------------|
F -15--15--15--15--15--15--15--15--15--15--15--15--15--15--15--15--|
C#-14--14--14--14--14--14--14--14--14--14--14--14--14--14--14--14--|
G#-----------------------------------------------------------------|
D#-----------------------------------------------------------------|
G#-----------------------------------------------------------------|

===================================================================

Guitar 2
A#-----------------------------------------------------------------|
F -17--17--17--17--17--17--17--17--17--17--17--17--17--17--17--17--|
C#-14--14--14--14--14--14--14--14--14--14--14--14--14--14--14--14--|
G#-----------------------------------------------------------------|
D#-----------------------------------------------------------------|
G#-----------------------------------------------------------------|

===================================================================
===================================================================


Interlude 2

Guitar 2
A#-----------------------------------------------------------------|
F -----------------------------------------------------------------|
C#-----------------------------------------------------------------|
G#-5~~~~-5-5~~-5~~-5-5-5~~-5-5-5~~-5-5---5-5---5~~-5-5-5~~-5-5-5~~-|
D#-5~~~~-5-5~~-5~~-5-5-5~~-5-5-5~~-5-5---5-5---5~~-5-5-5~~-5-5-5~~-|
G#-5~~~~-5-5~~-5~~-5-5-5~~-5-5-5~~-5-5---5-5---5~~-5-5-5~~-5-5-5~~-|
Pm                 . .     . .     . .   . .       . .     . .

===================================================================

Guitar 2
A#-----------------------------------------------------------------|
F -----------------------------------------------------------------|
C#-----------------------------------------------------------------|
G#-8~~~~-8-8~~-8~~-8-8-8~~-8-8-8~~-8-8---8-8---8~~-8-8-8~~-8-8-8~~-|
D#-8~~~~-8-8~~-8~~-8-8-8~~-8-8-8~~-8-8---8-8---8~~-8-8-8~~-8-8-8~~-|
G#-8~~~~-8-8~~-8~~-8-8-8~~-8-8-8~~-8-8---8-8---8~~-8-8-8~~-8-8-8~~-|
Pm                 . .     . .     . .   . .       . .     . .

===================================================================

Guitar 2
A#-----------------------------------------------------------------|
F -----------------------------------------------------------------|
C#-7~~~~-7-7~~-7~~-7-7-7~~-7-7-7~~-7-7---7-7---7~~-7-7-7~~-7-7-7~~-|
G#-7~~~~-7-7~~-7~~-7-7-7~~-7-7-7~~-7-7---7-7---7~~-7-7-7~~-7-7-7~~-|
D#-5~~~~-5-5~~-5~~-5-5-5~~-5-5-5~~-5-5---5-5---5~~-5-5-5~~-5-5-5~~-|
G#-----------------------------------------------------------------|
Pm                 . .     . .     . .   . .       . .     . .

===================================================================

Guitar 2
A#-----------------------------------------------------------------|
F -----------------------------------------------------------------|
C#-6~~~~-6-6~~-6~~-6-6-6~~-6-6-6~~-6-6---6-6---6~~-6-6-6~~-6-6-6~~-|
G#-6~~~~-6-6~~-6~~-6-6-6~~-6-6-6~~-6-6---6-6---6~~-6-6-6~~-6-6-6~~-|
D#-4~~~~-4-4~~-4~~-4-4-4~~-4-4-4~~-4-4---4-4---4~~-4-4-4~~-4-4-4~~-|
G#-----------------------------------------------------------------|
Pm                 . .     . .     . .   . .       . .     . .

===================================================================

Guitar 2
A#-----------------------------------------------------------------|
F -----------------------------------------------------------------|
C#-----------------------------------------------------------------|
G#-5~~~~-5-5~~-5~~-5-5-5~~-5-5-5~~-5-5---5-5---5~~-5-5-5~~-5-5-5~~-|
D#-5~~~~-5-5~~-5~~-5-5-5~~-5-5-5~~-5-5---5-5---5~~-5-5-5~~-5-5-5~~-|
G#-5~~~~-5-5~~-5~~-5-5-5~~-5-5-5~~-5-5---5-5---5~~-5-5-5~~-5-5-5~~-|
Pm                 . .     . .     . .   . .       . .     . .

===================================================================

Guitar 2
A#-----------------------------------------------------------------|
F -----------------------------------------------------------------|
C#-----------------------------------------------------------------|
G#-8~~~~-8-8~~-8~~-8-8-8~~-8-8-8~~-8-8---8-8---8~~-8-8-8~~-8-8-8~~-|
D#-8~~~~-8-8~~-8~~-8-8-8~~-8-8-8~~-8-8---8-8---8~~-8-8-8~~-8-8-8~~-|
G#-8~~~~-8-8~~-8~~-8-8-8~~-8-8-8~~-8-8---8-8---8~~-8-8-8~~-8-8-8~~-|
Pm                 . .     . .     . .   . .       . .     . .

===================================================================

Guitar 2
A#-----------------------------------------------------------------|
F -----------------------------------------------------------------|
C#-6~~~~-6-6~~-6~~-6-6-6~~-6-6-6~~-6-6---6-6---6~~-6-6-6~~-6-6-6~~-|
G#-6~~~~-6-6~~-6~~-6-6-6~~-6-6-6~~-6-6---6-6---6~~-6-6-6~~-6-6-6~~-|
D#-4~~~~-4-4~~-4~~-4-4-4~~-4-4-4~~-4-4---4-4---4~~-4-4-4~~-4-4-4~~-|
G#-----------------------------------------------------------------|
Pm                 . .     . .     . .   . .       . .     . .

===================================================================

Guitar 2
A#-----------------------------------------------------------------|
F -----------------------------------------------------------------|
C#-6~~~~-6-6~~-6~~-6-6-6~~-6-6-6~~-6-6---6-6---6-------------------|
G#-6~~~~-6-6~~-6~~-6-6-6~~-6-6-6~~-6-6---6-6---6-------------------|
D#-4~~~~-4-4~~-4~~-4-4-4~~-4-4-4~~-4-4---4-4---4-------------------|
G#-----------------------------------------------------------------|
Pm                 . .     . .     . .   . .   .

===================================================================
===================================================================


Breakdown 3

Guitar 2
A#-----------------------------------------------------------------|
F -----------------------------------------------------------------|
C#---------------------------------7-------------------------------|
G#-7---------------------------3-----------------------------------|
D#-------------3-------4-7-4-3-------------------------7-10-7-0-0--|
G#-----0-0-0-------0-------------------0-0-0---8---0---------------|
Pm     . .         .                   . .         .

===================================================================

Guitar 2
A#-----------------------------------------------------------------|
F -----------------------------------------------------------------|
C#-----------------------------------------------------------------|
G#-8-------------------------------6-------------------------------|
D#-------------7---------------5-----------------------------------|
G#-----0-0-0-------0-0-5---0-----------0-0-5---7---0---5-7-5-0-3-0-|
Pm     . .         . .                 . .

===================================================================

Guitar 2
A#-----------------------------------------------------------------|
F -----------------------------------------------------------------|
C#---------------------------------7-------------------------------|
G#-7---------------------------3-----------------------------------|
D#-------------3-------4-7-4-3-------------------------7-10-7-0-0--|
G#-----0-0-0-------0-------------------0-0-0---8---0---------------|
Pm     . .         .                   . .         .

===================================================================

Guitar 2
A#-----------------------------------------------------------------|
F -----------------------------------------------------------------|
C#-----------------------------------------------------------------|
G#-8-------------------------------6---------------x-x-x-x-x-x-x-x-|
D#-------------7---------------5-------------------x-x-x-x-x-x-x-x-|
G#-----0-0-0-------0-0-5---0-----------0-0-5---7---x-x-x-x-x-x-x-x-|
Pm     . .         . .                 . .

===================================================================
===================================================================


Outro

Guitar 2
A#------------------------------------------------------------------|
F ------------------------------------------------------------------|
C#------------------------------------------------------------------|
G#-0~~~----0~~~----8---7---0-0-0---0---0-0-0-0-0---0---0------------|
D#-0~~~----0~~~----8---7---0-0-0---0---0-0-0-0-0---0---0------------|
G#-0~~~----0~~~----8---7---0-0-0---0---0-0-0-0-0---0---0------------|
Pm                         . . .   .   . . . . .   .   .

===================================================================

Guitar 2
A#-----------------------------------------------------------------|
F -----------------------------------------------------------------|
C#-----------------------------------------------------------------|
G#----------0-------0-0---0-0---0----------------------7---5-------|
D#----------0-------0-0---0-0---0--------------4---5-----------7---|
G#----------0-------0-0---0-0---0----------0-----------------------|
Pm          .       . .   . .   .

===================================================================

Guitar 2
A#------------------------------------------------------------------|
F ------------------------------------------------------------------|
C#------------------------------------------------------------------|
G#-0~~~----0~~~~~~-8---7---0-0-0---0---0-0-0-0-0---0---0------------|
D#-0~~~----0~~~~~~-8---7---0-0-0---0---0-0-0-0-0---0---0------------|
G#-0~~~----0~~~~~~-8---7---0-0-0---0---0-0-0-0-0---0---0------------|
Pm                         . . .   .   . . . . .   .   .

===================================================================

Guitar 2
A#------------------------------------------------------------------|
F ------------------------------------------------------------------|
C#------------------------------------------------------------------|
G#----------0~~~~~~-8---7---0-0-0-----------------------------------|
D#----------0~~~~~~-8---7---0-0-0---------------------------4-4-4-4-|
G#----------0~~~~~~-8---7---0-0-0---0---0-3-5-5-5-5-7-7-7-7---------|
Pm                          . . .

===================================================================
===================================================================
===================================================================


Tab Legend
h  - hammer-on
p  - pull-off
/  - slide up
\  - slide down
ps/- pickslide up
ps\- pickslide down
~  - let ring
pm.- palm mute
b  - bend
r  - return from bend
t  - finger tapping
*  - harmonic
x  - dead note
^  - Whammy bar
^\ - Whammy bar (hold down)

That is it! I hope this helped, and be sure to check out my cover if you are
having problems with the tab. Thanks, oh and one last thing... ROCK OUT!!!!
comments
print report bad tab
4 comments total. Showing first comments.
0 reply
AdamGuion wrote on August 11 2012, 12:23 pm

Awesome tab. Thanks for trying out a different style, I appreciate it. :)

0 reply
MusicLover2169 wrote on January 22 2013, 10:13 pm

why is it messed up isnt it c#

0 reply
Hardlycore wrote on April 19 2013, 10:54 pm

^ Drop G# brah

I want to post or [tab]
guest
You may want to rate the tab now too:
select rating
Please do not post tabs as comments. Select "correction" instead!