Oops, an error
Loading. Please wait.

Legacy Tab

ver1
ver1

Whole song

Interactive

More versions @911Tabs.com
5,186 views 21 this week
no commentswrite comment
1 2 3 4 5
excellent!
x 1
Autoscroll
+/-
esc
set tempo
stop
Contributor
Difficulty
intermediate
Hey! There's an official Ultimate Guitar app which is ideal
for learning songs when you're away from computer. Get the app
WARNING: You are trying to view
                                    content from Ultimate-Guitar.com
                                    in an unauthorized application,
                                    which is prohibited.

                                    Please use an official Ultimate
                                    Guitar Tabs application for iPhone,
                                    iPad or Android to access legitimate
                                    chords, guitar, bass, and drum tabs
                                    from Ultimate-Guitar.com database.

                                    Type "ultimate guitar tabs" in Apple
                                    App Store's or Android Market's
                                    search to find the application.
----------------------------------------------------------------------------
                                Legacy
                           Memphis May Fire
----------------------------------------------------------------------------

When I hear interlude in this song, it makes me believe. The passion in the piece is
just expediential. I feel the interlude in this song is the climax to the whole album. It
hits hard, it makes you want to shout out the lyrics and creates chills. Just brilliant 
writing by the infamous Memphis May Fire. Enjoy!

Username: dkm817 (same on X box live)
Youtube Cover: http://www.youtube.com/watch?v=YvfVbGRdmmU
Email: guitardrums@rockfan.com

Guitar 1 Rhythmic (G# D# G# C# F  A#)
Guitar 2 Lead     (G# D# G# C# F  A#)

Tab Guide...
===================================================================
(end of measures)

===================================================================
===================================================================
(end of parts)

===================================================================
===================================================================
===================================================================
(end of song)
(If there is a “continued” it is because the numbers could not
fit on 1 line or connecting times played.)

===================================================================
Guitar 1
===================================================================


Intro


===================================================================
Rest
===================================================================


Guitar 1
A#-----------------------------------------------------------------|
F -----------------------------------------------------------------|
C#-----------------------------------------------------------------|
G#-------------------------------------7---5-------5---3-----------|
D#---------------------------------0-----------0-----------4-------|
G#-------------------------------------------------------------3---|
Pm                                 .           .

===================================================================
===================================================================


Verse 1

(x2)

Guitar 1
A#-----------------------------------------------------------------|
F -----------------------------------------------------------------|
C#-------------------------------------------------------------7---|
G#-------------7-------------------3-------------------7---10------|
D#-------------------------------------3---0-----------------------|
G#-0---0---0-------0---8---7---8---------------3---0---------------|

===================================================================

Guitar 1
A#-----------------------------------------------------------------|
F -----------------------------------------------------------------|
C#-----------------------------------------------------------------|
G#-----10------7---------------12----------------------------------|
D#-----------------------------------------------------------------|
G#-0-------0-------0---12--10------8---8---8---10--7---7---7---5---|

===================================================================

Guitar 1
A#-----------------------------------------------------------------|
F -----------------------------------------------------------------|
C#-------------------------------------------------------------7---|
G#-------------7-------------------3-------------------7---10------|
D#-------------------------------------3---0-----------------------|
G#-0---0---0-------0---8---7---8---------------3---0---------------|

===================================================================

Guitar 1
A#-----------------------------------------------------------------|
F -----------------------------------------------------------------|
C#-----------------------------------------------------------------|
G#-------------------------------------7---5-------5---3-----------|
D#---------------------------------0-----------0-----------4-------|
G#-0---7---0---6---0---5---3---0-------------------------------3---|
Pm                                 .           .

===================================================================
===================================================================


Break Off 1

Guitar 1
A#---------------------------------|
F ---------------------------------|
C#---------------------------------|
G#-----------------0-0-0-0-0-------|
D#-----------------0-0-0-0-0-------|
G#-----------------0-0-0-0-0-------|
Pm                 . . . . .

===================================================================
===================================================================


Pre Chorus 1

Guitar 1
A#-----------------------------------------------------------------|
F -----------------------------------------------------------------|
C#-----------------------------------------------------------------|
G#-0---0---0---0---0---0---0~~~~~~-0~~~~~~-0---0~~~~~~-------------|
D#-0---0---0---0---0---0---0~~~~~~-0~~~~~~-0---0~~~~~~-------------|
G#-0---0---0---0---0---0---0~~~~~~-0~~~~~~-0---0~~~~~~-8---10--7---|
Pm .   .   .   .   .   .   .       .       .   .

===================================================================

Guitar 1
A#-----------------------------------------------------------------|
F#-----------------------------------------------------------------|
C#-----------------------------------------------------------------|
G#-0~~~~~~~~~~~~~~-0~~~~~~-0---0---0~~~~~~-0~~~~~~-----------------|
D#-0~~~~~~~~~~~~~~-0~~~~~~-0---0---0~~~~~~-0~~~~~~-----8---10--12--|
G#-0~~~~~~~~~~~~~~-0~~~~~~-0---0---0~~~~~~-0~~~~~~-0---------------|
Pm .               .       .   .   .       .       .

===================================================================

Guitar 1
A#-----------------22~~~~~-----------------22~~~~~---------22b~~~~-|
F -----------------------------------------------------------------|
C#-----------------------------------------------------------------|
G#-0~~~~~~-0---0-----------0~~~~~~-0---0-----------0~~~~~~---------|
D#-0~~~~~~-0---0-----------0~~~~~~-0---0-----------0~~~~~~---------|
G#-0~~~~~~-0---0-----------0~~~~~~-0---0-----------0~~~~~~---------|
Pm .       .   .           .       .   .           .

===================================================================

Guitar 1
A#-22~~~~~-----------------20~~~~~---------------------------------|
F -----------------------------------------------------------------|
C#-----------------------------------------------------------------|
G#---------0~~~~~~-0---0-------------------------------------------|
D#---------0~~~~~~-0---0-----------12--13--12--10--9---10--9-------|
G#---------0~~~~~~-0---0---------------------------------------12--|
Pm         .       .   .

===================================================================

Guitar 1
A#-----------------------------------------------------------------|
F -----------------------------------------------------------------|
C#-----------------------------------------------------------------|
G#-0---0---0---0---0---0---0~~~~~~-0~~~~~~-0---0~~~~~~-------------|
D#-0---0---0---0---0---0---0~~~~~~-0~~~~~~-0---0~~~~~~-------------|
G#-0---0---0---0---0---0---0~~~~~~-0~~~~~~-0---0~~~~~~-8---10--7---|
Pm .   .   .   .   .   .   .       .       .   .

===================================================================

Guitar 1
A#-----------------------------------------------------------------|
F#-----------------------------------------------------------------|
C#-----------------------------------------------------------------|
G#-0~~~~~~~~~~~~~~-0~~~~~~-0---0---0~~~~~~-0~~~~~~-----------------|
D#-0~~~~~~~~~~~~~~-0~~~~~~-0---0---0~~~~~~-0~~~~~~-----8---10--12--|
G#-0~~~~~~~~~~~~~~-0~~~~~~-0---0---0~~~~~~-0~~~~~~-0---------------|
Pm .               .       .   .   .       .       .

===================================================================

Guitar 1
A#-----------------------------------------------------------------|
F -----------------------------------------------------------------|
C#-----------------------------------------------------------------|
G#-0~~~~~~-0---0-----------0~~~~~~-0---0-----------0~~~~~~-0---0---|
D#-0~~~~~~-0---0-----------0~~~~~~-0---0-----------0~~~~~~-0---0---|
G#-0~~~~~~-0---0-----------0~~~~~~-0---0-----------0~~~~~~-0---0---|
Pm .       .   .           .       .   .           .       .   .

===================================================================

Guitar 1
A#-----------------------------------------------------------------|
F -----------------------------------------------------------------|
C#-----------------------------------------------------------------|
G#---------0~~~~~~-0---0-----------8~~~~~~-------------------------|
D#---------0~~~~~~-0---0-----------------------10~~~~~-----9~~~~~~-|
G#---------0~~~~~~-0---0-------------------0-----------0-----------|
Pm         .       .   .                   .           .

===================================================================
===================================================================


Chorus

Guitar 1
A#-----------------------------------------------------------------|
F -----------------------------------------------------------------|
C#-----------------------------------------------------------------|
G#-8---8---8---8---8---8---8---8---8---8---8---8---8---8---8---8---|
D#-8---8---8---8---8---8---8---8---8---8---8---8---8---8---8---8---|
G#-8---8---8---8---8---8---8---8---8---8---8---8---8---8---8---8---|

===================================================================

Guitar 1
A#-----------------------------------------------------------------|
F -----------------------------------------------------------------|
C#-----------------------------------------------------------------|
G#-0---0---0---0---3---3---3---3---5---5---5---5---5---5---5---5---|
D#-0---0---0---0---3---3---3---3---5---5---5---5---5---5---5---5---|
G#-0---0---0---0---3---3---3---3---5---5---5---5---5---5---5---5---|

===================================================================

Guitar 1
A#-----------------------------------------------------------------|
F -----------------------------------------------------------------|
C#-----------------------------------------------------------------|
G#-8---8---8---8---8---8---8---8---8---8---8---8---8---8---8---8---|
D#-8---8---8---8---8---8---8---8---8---8---8---8---8---8---8---8---|
G#-8---8---8---8---8---8---8---8---8---8---8---8---8---8---8---8---|

===================================================================

Guitar 1
A#-----------------------------------------------------------------|
F -----------------------------------------------------------------|
C#-----------------------------------------------------------------|
G#-----------------------------------------------------------------|
D#-12--12--12--12--8---8---8---8---10--10--10--10--7---7---7---7---|
G#-----------------------------------------------------------------|

===================================================================

Guitar 1
A#-----------------------------------------------------------------|
F -----------------------------------------------------------------|
C#-----------------------------------------------------------------|
G#-8---8---8---8---8---8---8---8---8---8---8---8---8---8---8---8---|
D#-8---8---8---8---8---8---8---8---8---8---8---8---8---8---8---8---|
G#-8---8---8---8---8---8---8---8---8---8---8---8---8---8---8---8---|

===================================================================

Guitar 1
A#-----------------------------------------------------------------|
F -----------------------------------------------------------------|
C#-----------------------------------------------------------------|
G#-----------------------------------------------------------------|
D#---------------------------------0---0---0---1---1---1---3---3---|
G#-0---0---0---3---3---3---5---5-----------------------------------|

===================================================================

Guitar 1
A#-----------------------------------------------------------------|
F -----------------------------------------------------------------|
C#-----------------------------------------------------------------|
G#-8---8---8---8---8---8---8---8---8---8---8---8---8---8---8---8---|
D#-8---8---8---8---8---8---8---8---8---8---8---8---8---8---8---8---|
G#-8---8---8---8---8---8---8---8---8---8---8---8---8---8---8---8---|

===================================================================

Guitar 1
A#-----------------------------------------------------------------|
F -----------------------------------------------------------------|
C#---------------------------------5---5---5---5---5---5---5---5---|
G#-0---0---0---0---0---0---0---0---5---5---5---5---5---5---5---5---|
D#-0---0---0---0---0---0---0---0---3---3---3---3---3---3---3---3---|
G#-0---0---0---0---0---0---0---0-----------------------------------|

===================================================================
===================================================================


Break Off 2

Guitar 1
A#-----------------------------------------------------------------|
F -----------------------------------------------------------------|
C#-----------------------------------------------------------------|
G#-0~~~~~~~~~~~~~~~~~~~~~~-0~~~~~~-0~~~~~~~~~~~~~~-0---------------|
D#-0~~~~~~~~~~~~~~~~~~~~~~-0~~~~~~-0~~~~~~~~~~~~~~-0---------------|
G#-0~~~~~~~~~~~~~~~~~~~~~~-0~~~~~~-0~~~~~~~~~~~~~~-0---------------|

===================================================================
===================================================================


Verse 2

Guitar 1
A#-----------------------------------------------------------------|
F -----------------------------------------------------------------|
C#-------------------------------------------------------------7---|
G#-------------7-------------------3-------------------7---10------|
D#-------------------------------------3---0-----------------------|
G#-0---0---0-------0---8---7---8---------------3---0---------------|

===================================================================

Guitar 1
A#-----------------------------------------------------------------|
F -----------------------------------------------------------------|
C#-----------------------------------------------------------------|
G#-----10------7---------------12----------------------------------|
D#-----------------------------------------------------------------|
G#-0-------0-------0---12--10------8---8---8---10--7---7---7---5---|

===================================================================

Guitar 1
A#-----------------------------------------------------------------|
F -----------------------------------------------------------------|
C#-------------------------------------------------------------7---|
G#-------------7-------------------3-------------------7---10------|
D#-------------------------------------3---0-----------------------|
G#-0---0---0-------0---8---7---8---------------3---0---------------|

===================================================================

Guitar 1
A#-----------------------------------------------------------------|
F -----------------------------------------------------------------|
C#-----------------------------------------------------------------|
G#-------------------------------------7---5-------5---3-----------|
D#---------------------------------0-----------0-----------4-------|
G#-0---7---0---6---0---5---3---0-------------------------------3---|
Pm                                 .           .

===================================================================
===================================================================


Break Off 3


===================================================================
Rest
===================================================================


===================================================================
===================================================================


Pre Chorus 2

Guitar 1
A#-----------------------------------------------------------------|
F -----------------------------------------------------------------|
C#-----------------------------------------------------------------|
G#-0-0-0-0-----0-0-0-0-----0~~-0-0-----0~~-0-0-----0-0-0-0---0-0-0-|
D#-0-0-0-0-----0-0-0-0-----0~~-0-0-----0~~-0-0-----0-0-0-0---0-0-0-|
G#-0-0-0-0-----0-0-0-0-----0~~-0-0-----0~~-0-0-----0-0-0-0---0-0-0-|
Pm . . . .     . . . .     .   . .     .   . .     . . . .   . . .

===================================================================

Guitar 1
A#-----------------------------------------------------------------|
F -----------------------------------------------------------------|
C#-----------------------------------------------------------------|
G#-0-0-0-0-----0-0-0-0-----0~~-0-0-----0~~-0-0-----0-0-0-0---x-x-x-|
D#-0-0-0-0-----0-0-0-0-----0~~-0-0-----0~~-0-0-----0-0-0-0---x-x-x-|
G#-0-0-0-0-----0-0-0-0-----0~~-0-0-----0~~-0-0-----0-0-0-0---x-x-x-|
Pm . . . .     . . . .     .   . .     .   . .     . . . .

===================================================================

Guitar 1
A#-----------------------------------------------------------------|
F -----------------------------------------------------------------|
C#-----------------------------------------------------------------|
G#-0-0-0-0~~~~-0-0-0-0~~~~-0~~-0-0~~~~-0~~-0-0~~~~-0-0-0-0~~-0~~-0-|
D#-0-0-0-0~~~~-0-0-0-0~~~~-0~~-0-0~~~~-0~~-0-0~~~~-0-0-0-0~~-0~~-0-|
G#-0-0-0-0~~~~-0-0-0-0~~~~-0~~-0-0~~~~-0~~-0-0~~~~-0-0-0-0~~-0~~-0-|
Pm . . . .     . . . .     .   . .     .   . .     . . . .   .   .

===================================================================

Guitar 1
A#-----------------------------------------------------------------|
F -----------------------------------------------------------------|
C#-----------------------------------------------------------------|
G#-0-0-0-0-----------------0~~-0-0-----------------8~~-------------|
D#-0-0-0-0-----------------0~~-0-0-----------------------10~---9~~-|
G#-0-0-0-0-----0~~-0-0-----0~~-0-0-----0~~-0-0---------0-----0-----|
Pm . . . .                 .   . .                     .     .

===================================================================
===================================================================


Chorus

Guitar 1
A#-----------------------------------------------------------------|
F -----------------------------------------------------------------|
C#-----------------------------------------------------------------|
G#-8---8---8---8---8---8---8---8---8---8---8---8---8---8---8---8---|
D#-8---8---8---8---8---8---8---8---8---8---8---8---8---8---8---8---|
G#-8---8---8---8---8---8---8---8---8---8---8---8---8---8---8---8---|

===================================================================

Guitar 1
A#-----------------------------------------------------------------|
F -----------------------------------------------------------------|
C#-----------------------------------------------------------------|
G#-0---0---0---0---3---3---3---3---5---5---5---5---5---5---5---5---|
D#-0---0---0---0---3---3---3---3---5---5---5---5---5---5---5---5---|
G#-0---0---0---0---3---3---3---3---5---5---5---5---5---5---5---5---|

===================================================================

Guitar 1
A#-----------------------------------------------------------------|
F -----------------------------------------------------------------|
C#-----------------------------------------------------------------|
G#-8---8---8---8---8---8---8---8---8---8---8---8---8---8---8---8---|
D#-8---8---8---8---8---8---8---8---8---8---8---8---8---8---8---8---|
G#-8---8---8---8---8---8---8---8---8---8---8---8---8---8---8---8---|

===================================================================

Guitar 1
A#-----------------------------------------------------------------|
F -----------------------------------------------------------------|
C#-----------------------------------------------------------------|
G#-----------------------------------------------------------------|
D#-12--12--12--12--8---8---8---8---10--10--10--10--7---7---7---7---|
G#-----------------------------------------------------------------|

===================================================================

Guitar 1
A#-----------------------------------------------------------------|
F -----------------------------------------------------------------|
C#-----------------------------------------------------------------|
G#-8---8---8---8---8---8---8---8---8---8---8---8---8---8---8---8---|
D#-8---8---8---8---8---8---8---8---8---8---8---8---8---8---8---8---|
G#-8---8---8---8---8---8---8---8---8---8---8---8---8---8---8---8---|

===================================================================

Guitar 1
A#-----------------------------------------------------------------|
F -----------------------------------------------------------------|
C#-----------------------------------------------------------------|
G#-----------------------------------------------------------------|
D#---------------------------------0---0---0---1---1---1---3---3---|
G#-0---0---0---3---3---3---5---5-----------------------------------|

===================================================================

Guitar 1
A#-----------------------------------------------------------------|
F -----------------------------------------------------------------|
C#-----------------------------------------------------------------|
G#-8---8---8---8---8---8---8---8---8---8---8---8---8---8---8---8---|
D#-8---8---8---8---8---8---8---8---8---8---8---8---8---8---8---8---|
G#-8---8---8---8---8---8---8---8---8---8---8---8---8---8---8---8---|

===================================================================

Guitar 1
A#-----------------------------------------------------------------|
F -----------------------------------------------------------------|
C#---------------------------------5---5---5---5---5---5---5---5---|
G#-0---0---0---0---0---0---0---0---5---5---5---5---5---5---5---5---|
D#-0---0---0---0---0---0---0---0---3---3---3---3---3---3---3---3---|
G#-0---0---0---0---0---0---0---0-----------------------------------|

===================================================================
===================================================================


Break Off 2

Guitar 1
A#-----------------------------------------------------------------|
F -----------------------------------------------------------------|
C#-----------------------------------------------------------------|
G#-0~~~~~~~~~~~~~~-0~~~~~~-0~~~~~~~~~~~~~~-------------------------|
D#-0~~~~~~~~~~~~~~-0~~~~~~-0~~~~~~~~~~~~~~-------------7b~~~~~~~~~-|
G#-0~~~~~~~~~~~~~~-0~~~~~~-0~~~~~~~~~~~~~~-7~~~~~~~~~~-------------|

===================================================================
===================================================================


Interlude 1

(x2)

Guitar 1 (Delay Effect)
A#-----------------------------------------------------------------|
F -----------------------------------------------------------------|
C#-7---------------7---------------5---------------5---------------|
G#-----------------------------------------------------------------|
D#-----------------------------------------------------------------|
G#-----------------------------------------------------------------|

===================================================================

Guitar 1
A#-----------------------------------------------------------------|
F -----------------------------------------------------------------|
C#-------------------------------------------------5---------------|
G#-5---------------5---------------8-------------------------------|
D#-----------------------------------------------------------------|
G#-----------------------------------------------------------------|

===================================================================
===================================================================


Interlude 2

Guitar 1
A#-----------------------------------------------------------------|
F -----------------------------------------------------------------|
C#-----------------------------------------------------------------|
G#-12~~~~~-12--12--------------------------------------------------|
D#-12~~~~~-12--12--------------------------------------------------|
G#-12~~~~~-12--12--------------------------------------------------|

===================================================================

Guitar 1
A#-----------------------------------------------------------------|
F -----------------------------------------------------------------|
C#-----------------------------------------------------------------|
G#-10--10--10--10--------------------------------------10--10--10--|
D#-10--10--10--10--------------------------------------10--10--10--|
G#-10--10--10--10--------------------------------------10--10--10--|

===================================================================

Guitar 1
A#-----------------------------------------------------------------|
F -----------------------------------------------------------------|
C#-----------------------------------------------------------------|
G#-5---5---5---5-----------5---5---5---5---------------1*/~~~~~~~~-|
D#-5---5---5---5-----------5---5---5---5---------------1*/~~~~~~~~-|
G#-5---5---5---5-----------5---5---5---5---------------1*/~~~~~~~~-|

===================================================================

Guitar 1
A#-----------------------------------------------------------------|
F -----------------------------------------------------------------|
C#-----------------------------------------------------------------|
G#-8---8---8---8---8---8---8---8---10--10--10--10--10--10--10--10--|
D#-8---8---8---8---8---8---8---8---10--10--10--10--10--10--10--10--|
G#-8---8---8---8---8---8---8---8---10--10--10--10--10--10--10--10--|

===================================================================

Guitar 1
A#-----------------------------------------------------------------|
F -----------------------------------------------------------------|
C#-----------------------------------------------------------------|
G#-15--15--15--15--15--15--15--15--15--15--15--15--15--15--15--15--|
D#-12--12--12--12--12--12--12--12--12--12--12--12--12--12--12--12--|
G#-12--12--12--12--12--12--12--12--12--12--12--12--12--12--12--12--|

===================================================================

Guitar 1
A#-----------------------------------------------------------------|
F -----------------------------------------------------------------|
C#-----------------------------------------------------------------|
G#-14--14--14--14--14--14--14--14--14--14--14--14--14--14--14--14--|
D#-10--10--10--10--10--10--10--10--10--10--10--10--10--10--10--10--|
G#-10--10--10--10--10--10--10--10--10--10--10--10--10--10--10--10--|

===================================================================

Guitar 1
A#-----------------------------------------------------------------|
F -----------------------------------------------------------------|
C#-----------------------------------------------------------------|
G#-8---8---8---8---8---8---8---8---8---8---8---8---8---8---8---8---|
D#-5---5---5---5---5---5---5---5---5---5---5---5---5---5---5---5---|
G#-5---5---5---5---5---5---5---5---5---5---5---5---5---5---5---5---|

===================================================================

Guitar 1 (Fade In)
A#-----------------------------------------------------------------|
F -----------------------------------------------------------------|
C#-----------------------------------------------------------------|
G#-------------------------------------------------0~~~~~~~~~~~~~~-|
D#-------------------------------------------------0~~~~~~~~~~~~~~-|
G#-------------------------------------------------0~~~~~~~~~~~~~~-|

===================================================================
===================================================================


Breakdown

Guitar 1
A#-----------------------------------------------------------------|
F -----------------------------------------------------------------|
C#-----------------------------------------------------------------|
G#-0-----------0---0-------0-------------------0---0-------0-------|
D#-0-----------0---0-------0-------------------0---0-------0-------|
G#-0-----------0---0-------0-------------------0---0-------0-------|
Pm .           .   .       .                   .   .       .

===================================================================

Guitar 1
A#-----------------------------------------------------------------|
F -----------------------------------------------------------------|
C#-----------------------------------------------------------------|
G#-----------------0-0-0-0-0-------0---0-------0---0---------------|
D#-----------------0-0-0-0-0-------0---0-------0---0---3---3~~~~~~-|
G#-----------------0-0-0-0-0-------0---0-------0---0---------------|
Pm                 . . . . .       .   .       .   .

===================================================================

Guitar 1
A#-----------------------------------------------------------------|
F -----------------------------------------------------------------|
C#-----------------------------------------------------------------|
G#-0---0---0-----------0---0---------------------------------------|
D#-0---0---0-----------0---0-------1~~~~~~~~~~-3~~~~~~~~~~-5~~~~~~-|
G#-0---0---0-----------0---0-------0~~~~~~~~~~-0~~~~~~~~~~-0~~~~~~-|
Pm .   .   .           .   .       .           .           .

===================================================================

Guitar 1
A#-----------------------------------------------------------------|
F -----------------------------------------------------------------|
C#-----------------------------------------------------------------|
G#-----------------------------------------------------------------|
D#-----5---5---5---5-----------------------------------------------|
G#---------------------8---8---8---8---5---5---5---5---7---7---7---|

===================================================================

Guitar 1
A#-----------------------------------------------------------------|
F ---------------------------------10~~~~~~~~~-------------10~~~~~-|
C#---------------------------------13~~~~~~~~~-------------13~~~~~-|
G#-0~~~~~~~~~~~~~~~~~~~~~~-0-------------------0-------------------|
D#-0~~~~~~~~~~~~~~~~~~~~~~-0-------------------0-------------------|
G#-0~~~~~~~~~~~~~~~~~~~~~~-0-------------------0-------------------|
Pm .                       .                   .

===================================================================

Guitar 1
A#-----------------------------------------------------------------|
F -----------------------------------------------------------------|
C#-----------------------------------------------------------------|
G#-----------------------------------------------------------------|
D#---------1~~~~~~-0-----------------------------------------------|
G#---------------------2---3~~~~~~-5---7~~~~~~-5---7---5---2---3---|

===================================================================

Guitar 1
A#-----------------------------------------------------------------|
F -----------------------------------------------------------------|
C#-----------------------------------------------------------------|
G#-0---------------0---0---0-------0-------0---0-------0---0-------|
D#-0---------------0---0---0-------0-------0---0-------0---0-------|
G#-0---------------0---0---0-------0-------0---0-------0---0-------|
Pm                 .   .   .       .       .   .       .   .

===================================================================

Guitar 1
A#-----------------------------------------------------------------|
F -----------------------------------------------------------------|
C#-----------------------------------------------------------------|
G#-0~~~~~~-2---3---0---3---5---2---5---7---0---8---7---5-----------|
D#---------------------------------------------------------8---7---|
G#-----------------------------------------------------------------|
Pm         .   .   .   .   .   .   .   .   .   .   .   .   .   .

===================================================================
===================================================================


Pre Chorus 3

Guitar 1
A#-----------------------------------------------------------------|
F -----------------------------------------------------------------|
C#-----------------------------------------------------------------|
G#-----------------------------------------------------------------|
D#-5---------------------------------------------------------------|
G#-----------------------------------------------------------------|

===================================================================


===================================================================
Rest
===================================================================


===================================================================

Guitar 1 (Fade In)
A#-----------------------------------------------------------------|
F -----------------------------------------------------------------|
C#-3---3---3---3---3---3---3---3---3---3---3---3---3---3---3---3---|
G#-3---3---3---3---3---3---3---3---3---3---3---3---3---3---3---3---|
D#-1---1---1---1---1---1---1---1---1---1---1---1---1---1---1---1---|
G#-----------------------------------------------------------------|

===================================================================

Guitar 1
A#-----------------------------------------------------------------|
F -----------------------------------------------------------------|
C#-7---7---7---7---7---7---7---7---7---7---7---7---7---7---7---7---|
G#-7---7---7---7---7---7---7---7---7---7---7---7---7---7---7---7---|
D#-5---5---5---5---5---5---5---5---5---5---5---5---5---5---5---5---|
G#-----------------------------------------------------------------|

===================================================================
===================================================================


Chorus

Guitar 1
A#-----------------------------------------------------------------|
F -----------------------------------------------------------------|
C#-----------------------------------------------------------------|
G#-8---8---8---8---8---8---8---8---8---8---8---8---8---8---8---8---|
D#-8---8---8---8---8---8---8---8---8---8---8---8---8---8---8---8---|
G#-8---8---8---8---8---8---8---8---8---8---8---8---8---8---8---8---|

===================================================================

Guitar 1
A#-----------------------------------------------------------------|
F -----------------------------------------------------------------|
C#-----------------------------------------------------------------|
G#-0---0---0---0---3---3---3---3---5---5---5---5---5---5---5---5---|
D#-0---0---0---0---3---3---3---3---5---5---5---5---5---5---5---5---|
G#-0---0---0---0---3---3---3---3---5---5---5---5---5---5---5---5---|

===================================================================

Guitar 1
A#-----------------------------------------------------------------|
F -----------------------------------------------------------------|
C#-----------------------------------------------------------------|
G#-8---8---8---8---8---8---8---8---8---8---8---8---8---8---8---8---|
D#-8---8---8---8---8---8---8---8---8---8---8---8---8---8---8---8---|
G#-8---8---8---8---8---8---8---8---8---8---8---8---8---8---8---8---|

===================================================================

Guitar 1
A#-----------------------------------------------------------------|
F -----------------------------------------------------------------|
C#-----------------------------------------------------------------|
G#-----------------------------------------------------------------|
D#-12--12--12--12--8---8---8---8---10--10--10--10--7---7---7---7---|
G#-----------------------------------------------------------------|

===================================================================

Guitar 1
A#-----------------------------------------------------------------|
F -----------------------------------------------------------------|
C#-----------------------------------------------------------------|
G#-8---8---8---8---8---8---8---8---8---8---8---8---8---8---8---8---|
D#-8---8---8---8---8---8---8---8---8---8---8---8---8---8---8---8---|
G#-8---8---8---8---8---8---8---8---8---8---8---8---8---8---8---8---|

===================================================================

Guitar 1
A#-----------------------------------------------------------------|
F -----------------------------------------------------------------|
C#-----------------------------------------------------------------|
G#-----------------------------------------------------------------|
D#---------------------------------0---0---0---1---1---1---3---3---|
G#-0---0---0---3---3---3---5---5-----------------------------------|

===================================================================

Guitar 1
A#-----------------------------------------------------------------|
F -----------------------------------------------------------------|
C#-----------------------------------------------------------------|
G#-8---8---8---8---8---8---8---8---8---8---8---8---8---8---8---8---|
D#-8---8---8---8---8---8---8---8---8---8---8---8---8---8---8---8---|
G#-8---8---8---8---8---8---8---8---8---8---8---8---8---8---8---8---|

===================================================================

Guitar 1
A#-----------------------------------------------------------------|
F -----------------------------------------------------------------|
C#---------------------------------5---5---5---5---5---5---5---5---|
G#-0---0---0---0---0---0---0---0---5---5---5---5---5---5---5---5---|
D#-0---0---0---0---0---0---0---0---3---3---3---3---3---3---3---3---|
G#-0---0---0---0---0---0---0---0-----------------------------------|

===================================================================
===================================================================


Outro

Guitar 1
A#-----------------------------------------------------------------|
F -----------------------------------------------------------------|
C#-----------------------------------------------------------------|
G#-0---0---0---0---0---0---0~~~~~~-0~~~~~~-0---0~~~~~~-------------|
D#-0---0---0---0---0---0---0~~~~~~-0~~~~~~-0---0~~~~~~-------------|
G#-0---0---0---0---0---0---0~~~~~~-0~~~~~~-0---0~~~~~~-8---10--7---|
Pm .   .   .   .   .   .   .       .       .   .

===================================================================

Guitar 1
A#-----------------------------------------------------------------|
F#-----------------------------------------------------------------|
C#-----------------------------------------------------------------|
G#-0~~~~~~~~~~~~~~-0~~~~~~-0---0---0~~~~~~-0~~~~~~-----------------|
D#-0~~~~~~~~~~~~~~-0~~~~~~-0---0---0~~~~~~-0~~~~~~-----8---10--12--|
G#-0~~~~~~~~~~~~~~-0~~~~~~-0---0---0~~~~~~-0~~~~~~-0---------------|
Pm .               .       .   .   .       .       .

===================================================================

Guitar 1
A#-----------------------------------------------------------------|
F -----------------------------------------------------------------|
C#-----------------------------------------------------------------|
G#-0~~~~~~-0---0-----------0~~~~~~-0---0-----------0~~~~~~---------|
D#-0~~~~~~-0---0-----------0~~~~~~-0---0-----------0~~~~~~---------|
G#-0~~~~~~-0---0-----------0~~~~~~-0---0-----------0~~~~~~---------|
Pm .       .   .           .       .   .           .

===================================================================

Guitar 1
A#-----------------------------------------------------------------|
F -----------------------------------------------------------------|
C#-----------------------------------------------------------------|
G#---------0~~~~~~-0---0-------------------------------------------|
D#---------0~~~~~~-0---0-----------12--13--12--10--9---10--9-------|
G#---------0~~~~~~-0---0---------------------------------------12--|
Pm         .       .   .

===================================================================

Guitar 1
A#-----------------------------------------------------------------|
F -----------------------------------------------------------------|
C#-----------------------------------------------------------------|
G#-0---0---0---0---0---0---0~~~~~~-0~~~~~~-0---0~~~~~~-------------|
D#-0---0---0---0---0---0---0~~~~~~-0~~~~~~-0---0~~~~~~-------------|
G#-0---0---0---0---0---0---0~~~~~~-0~~~~~~-0---0~~~~~~-8---10--7---|
Pm .   .   .   .   .   .   .       .       .   .

===================================================================

Guitar 1
A#-----------------------------------------------------------------|
F#-----------------------------------------------------------------|
C#-----------------------------------------------------------------|
G#-0~~~~~~~~~~~~~~-0~~~~~~-0---0---0~~~~~~-0~~~~~~-----------------|
D#-0~~~~~~~~~~~~~~-0~~~~~~-0---0---0~~~~~~-0~~~~~~-----8---10--12--|
G#-0~~~~~~~~~~~~~~-0~~~~~~-0---0---0~~~~~~-0~~~~~~-0---------------|
Pm .               .       .   .   .       .       .

===================================================================

Guitar 1
A#-----------------------------------------------------------------|
F -----------------------------------------------------------------|
C#-----------------------------------------------------------------|
G#-0~~~~~~-0---0-----------0~~~~~~-0---0-----------0~~~~~~-0---0---|
D#-0~~~~~~-0---0-----------0~~~~~~-0---0-----------0~~~~~~-0---0---|
G#-0~~~~~~-0---0-----------0~~~~~~-0---0-----------0~~~~~~-0---0---|
Pm .       .   .           .       .   .           .       .   .

===================================================================

Guitar 1
A#-----------------------------------------------------------------|
F -----------------------------------------------------------------|
C#-----------------------------------------------------------------|
G#---------0~~~~~~-0---0-----------7~~~~~~-------------------------|
D#---------0~~~~~~-0---0-----------------------7~~~~~~-----5~~~~~~-|
G#---------0~~~~~~-0---0-------------------0-----------0-----------|
Pm         .       .   .                   .           .

===================================================================
===================================================================
===================================================================


===================================================================
Guitar 2
===================================================================


Intro

Guitar 2
A#-----------------------------------------------------------------|
F -----------------------------------------------------------------|
C#-----------------------------------------------------------------|
G#-------------------------------------7---5-------5---3-----------|
D#---------------------------------0-----------0-----------4-------|
G#-------------------------------------------------------------3---|
Pm                                 .           .

===================================================================

Guitar 2
A#-----------------------------------------------------------------|
F -----------------------------------------------------------------|
C#-------------------------------------------------------------7---|
G#-------------7-------------------3-------------------7---10------|
D#-------------------------------------3---0-----------------------|
G#-0---0---0-------0---8---7---8---------------3---0---------------|

===================================================================

Guitar 2
A#-----------------------------------------------------------------|
F -----------------------------------------------------------------|
C#-----------------------------------------------------------------|
G#-----10------7---------------12----------------------------------|
D#-----------------------------------------------------------------|
G#-0-------0-------0---12--10------8---8---8---10--7---7---7---5---|

===================================================================

Guitar 2
A#-----------------------------------------------------------------|
F -----------------------------------------------------------------|
C#-------------------------------------------------------------7---|
G#-------------7-------------------3-------------------7---10------|
D#-------------------------------------3---0-----------------------|
G#-0---0---0-------0---8---7---8---------------3---0---------------|

===================================================================

Guitar 2
A#-----------------------------------------------------------------|
F -----------------------------------------------------------------|
C#-----------------------------------------------------------------|
G#-------------------------------------7---5-------5---3-----------|
D#---------------------------------0-----------0-----------4-------|
G#-0---7---0---6---0---5---3---0-------------------------------3---|
Pm                                 .           .

===================================================================
===================================================================


Verse 1

(x2)

Guitar 2
A#-----------------------------------------------------------------|
F -----------------------------------------------------------------|
C#-------------------------------------------------------------7---|
G#-------------7-------------------3-------------------7---10------|
D#-------------------------------------3---0-----------------------|
G#-0---0---0-------0---8---7---8---------------3---0---------------|

===================================================================

Guitar 2
A#-----------------------------------------------------------------|
F -----------------------------------------------------------------|
C#-----------------------------------------------------------------|
G#-----10------7---------------12----------------------------------|
D#-----------------------------------------------------------------|
G#-0-------0-------0---12--10------8---8---8---10--7---7---7---5---|

===================================================================

Guitar 2
A#-----------------------------------------------------------------|
F -----------------------------------------------------------------|
C#-------------------------------------------------------------7---|
G#-------------7-------------------3-------------------7---10------|
D#-------------------------------------3---0-----------------------|
G#-0---0---0-------0---8---7---8---------------3---0---------------|

===================================================================

Guitar 2
A#-----------------------------------------------------------------|
F -----------------------------------------------------------------|
C#-----------------------------------------------------------------|
G#-------------------------------------7---5-------5---3-----------|
D#---------------------------------0-----------0-----------4-------|
G#-0---7---0---6---0---5---3---0-------------------------------3---|
Pm                                 .           .

===================================================================
===================================================================


Break Off 1

Guitar 2
A#---------------------------------|
F ---------------------------------|
C#---------------------------------|
G#-0---0---0-----------------------|
D#-0---0---0-----------------------|
G#-0---0---0-----------------------|
Pm .   .   .

===================================================================
===================================================================


Pre Chorus 1

Guitar 2
A#-----------------------------------------------------------------|
F -----------------------------------------------------------------|
C#-----------------------------------------------------------------|
G#-0---0---0---0---0---0---0~~~~~~-0~~~~~~-0---0~~~~~~-------------|
D#-0---0---0---0---0---0---0~~~~~~-0~~~~~~-0---0~~~~~~-------------|
G#-0---0---0---0---0---0---0~~~~~~-0~~~~~~-0---0~~~~~~-8---10--7---|
Pm .   .   .   .   .   .   .       .       .   .

===================================================================

Guitar 2
A#-----------------------------------------------------------------|
F#-----------------------------------------------------------------|
C#-----------------------------------------------------------------|
G#-0~~~~~~~~~~~~~~-0~~~~~~-0---0---0~~~~~~-0~~~~~~-----------------|
D#-0~~~~~~~~~~~~~~-0~~~~~~-0---0---0~~~~~~-0~~~~~~-----8---10--12--|
G#-0~~~~~~~~~~~~~~-0~~~~~~-0---0---0~~~~~~-0~~~~~~-0---------------|
Pm .               .       .   .   .       .       .

===================================================================

Guitar 2
A#-----------------22~~~~~-----------------22~~~~~---------22b~~~~-|
F -----------------------------------------------------------------|
C#-----------------------------------------------------------------|
G#-0~~~~~~-0---0-----------0~~~~~~-0---0-----------0~~~~~~---------|
D#-0~~~~~~-0---0-----------0~~~~~~-0---0-----------0~~~~~~---------|
G#-0~~~~~~-0---0-----------0~~~~~~-0---0-----------0~~~~~~---------|
Pm .       .   .           .       .   .           .

===================================================================

Guitar 2
A#-22~~~~~-----------------20~~~~~---------------------------------|
F -----------------------------------------------------------------|
C#-----------------------------------------------------------------|
G#---------0~~~~~~-0---0-----------10--12--10----------------------|
D#---------0~~~~~~-0---0-----------------------13--12--13--12--10--|
G#---------0~~~~~~-0---0-------------------------------------------|
Pm         .       .   .

===================================================================

Guitar 2
A#-----------------------------------------------------------------|
F -----------------------------------------------------------------|
C#-----------------------------------------------------------------|
G#-0---0---0---0---0---0---0~~~~~~-0~~~~~~-0---0~~~~~~-------------|
D#-0---0---0---0---0---0---0~~~~~~-0~~~~~~-0---0~~~~~~-------------|
G#-0---0---0---0---0---0---0~~~~~~-0~~~~~~-0---0~~~~~~-8---10--7---|
Pm .   .   .   .   .   .   .       .       .   .

===================================================================

Guitar 2
A#-----------------------------------------------------------------|
F#-----------------------------------------------------------------|
C#-----------------------------------------------------------------|
G#-0~~~~~~~~~~~~~~-0~~~~~~-0---0---0~~~~~~-0~~~~~~-----------------|
D#-0~~~~~~~~~~~~~~-0~~~~~~-0---0---0~~~~~~-0~~~~~~-----8---10--12--|
G#-0~~~~~~~~~~~~~~-0~~~~~~-0---0---0~~~~~~-0~~~~~~-0---------------|
Pm .               .       .   .   .       .       .

===================================================================

Guitar 2
A#-----------------------------------------------------------------|
F -----------------------------------------------------------------|
C#-----------------------------------------------------------------|
G#-0~~~~~~-0---0-----------0~~~~~~-0---0-----------0~~~~~~-0---0---|
D#-0~~~~~~-0---0-----------0~~~~~~-0---0-----------0~~~~~~-0---0---|
G#-0~~~~~~-0---0-----------0~~~~~~-0---0-----------0~~~~~~-0---0---|
Pm .       .   .           .       .   .           .       .   .

===================================================================

Guitar 2
A#-----------------------------------------------------------------|
F -----------------------------------------------------------------|
C#-----------------------------------------------------------------|
G#---------0~~~~~~-0---0-----------8~~~~~~-------------------------|
D#---------0~~~~~~-0---0-----------------------10~~~~~-----9~~~~~~-|
G#---------0~~~~~~-0---0-------------------0-----------0-----------|
Pm         .       .   .                   .           .

===================================================================
===================================================================


Chorus

Guitar 2 (x3)
A#-17--15------15~~~~~---------------------------------------------|
F ---------18----------17--18--17--18--17--15--17~~~~~-17--15------|
C#-------------------------------------------------------------17--|
G#-----------------------------------------------------------------|
D#-----------------------------------------------------------------|
G#-----------------------------------------------------------------|

===================================================================

Guitar 2 (x3)
A#-17--15------15~~~~~-----------------------------15--17--18------|
F ---------18----------17--18--17--18--17--15--17--------------17--|
C#-----------------------------------------------------------------|
G#-----------------------------------------------------------------|
D#-----------------------------------------------------------------|
G#-----------------------------------------------------------------|

===================================================================
===================================================================


Break Off 2

Guitar 2
A#-----------------------------------------------------------------|
F -15~~~~~~~~~~~~~~~~~~~~~-15~~~~~-15~~~~~~~~~~~~~-15--------------|
C#-----------------------------------------------------------------|
G#-----------------------------------------------------------------|
D#-----------------------------------------------------------------|
G#-----------------------------------------------------------------|

===================================================================
===================================================================


Verse 2

Guitar 2
A#-----------------------------------------------------------------|
F -----------------------------------------------------------------|
C#-------------------------------------------------------------7---|
G#-------------7-------------------3-------------------7---10------|
D#-------------------------------------3---0-----------------------|
G#-0---0---0-------0---8---7---8---------------3---0---------------|

===================================================================

Guitar 2
A#-----------------------------------------------------------------|
F -----------------------------------------------------------------|
C#-----------------------------------------------------------------|
G#-----10------7---------------12----------------------------------|
D#-----------------------------------------------------------------|
G#-0-------0-------0---12--10------8---8---8---10--7---7---7---5---|

===================================================================

Guitar 2
A#-----------------------------------------------------------------|
F -----------------------------------------------------------------|
C#-------------------------------------------------------------7---|
G#-------------7-------------------3-------------------7---10------|
D#-------------------------------------3---0-----------------------|
G#-0---0---0-------0---8---7---8---------------3---0---------------|

===================================================================

Guitar 2
A#-----------------------------------------------------------------|
F -----------------------------------------------------------------|
C#-----------------------------------------------------------------|
G#-------------------------------------7---5-------5---3-----------|
D#---------------------------------0-----------0-----------4-------|
G#-0---7---0---6---0---5---3---0-------------------------------3---|
Pm                                 .           .

===================================================================
===================================================================


Break Off 3

Guitar 2
A#-14--14--14--14--14--14--15--17--17--------------18--18--17--17--|
F -x---x---x---x---x---x---x---x---x---15--15--15--x---x---x---x---|
C#-11--11--11--11--11--11--12--14--14--x---x---x---15--15--14--14--|
G#-------------------------------------12--12--12------------------|
D#-----------------------------------------------------------------|
G#-----------------------------------------------------------------|

===================================================================
===================================================================


Pre Chorus 2

Guitar 2
A#-----------------------------------------------------------------|
F -----------------------------------------------------------------|
C#-----------------------------------------------------------------|
G#-0-0-0-0-----0-0-0-0-----0~~-0-0-----0~~-0-0-----0-0-0-0---0-0-0-|
D#-0-0-0-0-----0-0-0-0-----0~~-0-0-----0~~-0-0-----0-0-0-0---0-0-0-|
G#-0-0-0-0-----0-0-0-0-----0~~-0-0-----0~~-0-0-----0-0-0-0---0-0-0-|
Pm . . . .     . . . .     .   . .     .   . .     . . . .   . . .

===================================================================

Guitar 2
A#-----------------------------------------------------------------|
F -----------------------------------------------------------------|
C#-----------------------------------------------------------------|
G#-0-0-0-0-----0-0-0-0-----0~~-0-0-----0~~-0-0-----0-0-0-0---x-x-x-|
D#-0-0-0-0-----0-0-0-0-----0~~-0-0-----0~~-0-0-----0-0-0-0---x-x-x-|
G#-0-0-0-0-----0-0-0-0-----0~~-0-0-----0~~-0-0-----0-0-0-0---x-x-x-|
Pm . . . .     . . . .     .   . .     .   . .     . . . .

===================================================================

Guitar 2
A#-----------------------------------------------------------------|
F -----------------------------------------------------------------|
C#-----------------------------------------------------------------|
G#-0-0-0-0~~~~-0-0-0-0~~~~-0~~-0-0~~~~-0~~-0-0~~~~-0-0-0-0~~-0~~-0-|
D#-0-0-0-0~~~~-0-0-0-0~~~~-0~~-0-0~~~~-0~~-0-0~~~~-0-0-0-0~~-0~~-0-|
G#-0-0-0-0~~~~-0-0-0-0~~~~-0~~-0-0~~~~-0~~-0-0~~~~-0-0-0-0~~-0~~-0-|
Pm . . . .     . . . .     .   . .     .   . .     . . . .   .   .

===================================================================

Guitar 2
A#-----------------------------------------------------------------|
F -----------------------------------------------------------------|
C#-----------------------------------------------------------------|
G#-0-0-0-0-----------------0~~-0-0-----------------8~~-------------|
D#-0-0-0-0-----------------0~~-0-0-----------------------10~---9~~-|
G#-0-0-0-0-----0~~-0-0-----0~~-0-0-----0~~-0-0---------0-----0-----|
Pm . . . .                 .   . .                     .     .

===================================================================
===================================================================


Chorus

Guitar 2 (x3)
A#-17--15------15~~~~~---------------------------------------------|
F ---------18----------17--18--17--18--17--15--17~~~~~-17--15------|
C#-------------------------------------------------------------17--|
G#-----------------------------------------------------------------|
D#-----------------------------------------------------------------|
G#-----------------------------------------------------------------|

===================================================================

Guitar 2 (x3)
A#-17--15------15~~~~~-----------------------------15--17--18------|
F ---------18----------17--18--17--18--17--15--17--------------17--|
C#-----------------------------------------------------------------|
G#-----------------------------------------------------------------|
D#-----------------------------------------------------------------|
G#-----------------------------------------------------------------|

===================================================================
===================================================================


Break Off 2

Guitar 1
A#-----------------------------------------------------------------|
F -15~~~~~~~~~~~~~-15~~~~~-15~~~~~~~~~~~~~-------------------------|
C#-----------------------------------------------------------------|
G#-----------------------------------------------------------------|
D#-----------------------------------------------------3b~~~~~~~~~-|
G#-----------------------------------------3~~~~~~~~~~-------------|

===================================================================
===================================================================


Interlude 1

Guitar 2
A#---------------------------------------17~~~~~~~~~~~~~~~~~~~~~~~-|
F ------------------------------------15~~~~~~~~~~~~~~~~~~~~~~~~~~-|
C#---------------------------------17~~~~~~~~~~~~~~~~~~~~~~~~~~~~~-|
G#-0---------------------------------------------------------------|
D#-0---------------------------------------------------------------|
G#-0---------------------------------------------------------------|
Pm .

===================================================================

Guitar 2
A#-------18~~~~~~~~~~~~~~~~~~~~~~~-------18~~~~~~~-------15~~~~~~~-|
F ----15~~~~~~~~~~~~~~~~~~~~~~~~~~----15~~~~~~~~~~----13~~~~~~~~~~-|
C#-17~~~~~~~~~~~~~~~~~~~~~~~~~~~~~-15~~~~~~~~~~~~~-12~~~~~~~~~~~~~-|
G#-----------------------------------------------------------------|
D#-----------------------------------------------------------------|
G#-----------------------------------------------------------------|

===================================================================

Guitar 2 (originally one octave higher)
A#-------------------------12--13------------------12--13--12--10--|
F -------------10--10--10----------10--10--10--10------------------|
C#-12--10--9-------------------------------------------------------|
G#-----------------------------------------------------------------|
D#-----------------------------------------------------------------|
G#-----------------------------------------------------------------|

===================================================================

Guitar 2
A#-----------------------------10--10------------------------------|
F -------------10--10--11--13----------13--13------13--11--10------|
C#-12--10--9---------------------------------------------------10--|
G#-----------------------------------------------------------------|
D#-----------------------------------------------------------------|
G#-----------------------------------------------------------------|

===================================================================

Guitar 2
A#-------------------------------------------------10--12--13~~~~~-|
F -------------11--11--10--10--------------------------------------|
C#-12--10--9-------------------12--10--9-------9-------------------|
G#-----------------------------------------12----------------------|
D#-----------------------------------------------------------------|
G#-----------------------------------------------------------------|

===================================================================

Guitar 2
A#-----------------------------------------------------------------|
F -----------------10--11--10----------------------10--11--10--11--|
C#-10--9---10------------------12--9-------9-----------------------|
G#-------------12----------------------10------10------------------|
D#-----------------------------------------------------------------|
G#-----------------------------------------------------------------|

===================================================================
===================================================================


Interlude 2

Guitar 2
A#-------------------------------------20--18--17--17--------------|
F -18------17--18------17--18--20----------------------18--17--18--|
C#-----19----------19--------------19------------------------------|
G#-----------------------------------------------------------------|
D#-----------------------------------------------------------------|
G#-----------------------------------------------------------------|

===================================================================

Guitar 2
A#-------------------------------------20--18--17--17--18--17------|
F -17------17--18------17--18--20------------------------------20--|
C#-----17----------19--------------19------------------------------|
G#-----------------------------------------------------------------|
D#-----------------------------------------------------------------|
G#-----------------------------------------------------------------|

===================================================================

Guitar 2
A#-18--18--18--18--18--17--15--17--17--17--17--17--17--17--17--17--|
F -----------------------------------------------------------------|
C#-----------------------------------------------------------------|
G#-----------------------------------------------------------------|
D#-----------------------------------------------------------------|
G#-----------------------------------------------------------------|

===================================================================

Guitar 2
A#---------------------15--17--15------15--17--15------17--20--17--|
F -----17--18--17--------------------------------------------------|
C#-17--------------17--------------19--------------19--------------|
G#-----------------------------------------------------------------|
D#-----------------------------------------------------------------|
G#-----------------------------------------------------------------|

===================================================================

Guitar 2
A#-------------------------------------20--18--17--17--------------|
F -18------17--18------17--18--20----------------------18--17--18--|
C#-----19----------19--------------19------------------------------|
G#-----------------------------------------------------------------|
D#-----------------------------------------------------------------|
G#-----------------------------------------------------------------|

===================================================================

Guitar 2
A#-------------------------------------20--18--17--17--18--17------|
F -17------17--18------17--18--20------------------------------20--|
C#-----17----------19--------------19------------------------------|
G#-----------------------------------------------------------------|
D#-----------------------------------------------------------------|
G#-----------------------------------------------------------------|

===================================================================

Guitar 2
A#-18--18--18--18--18--17--15--17--17--17--17--17--15--15--15--15--|
F -----------------------------------------------------------------|
C#-----------------------------------------------------------------|
G#-----------------------------------------------------------------|
D#-----------------------------------------------------------------|
G#-----------------------------------------------------------------|

===================================================================

Guitar 2
A#-----------------------------------------------------------------|
F -18~~~~~-17~~~~~~~~~~~~~~~~~~~~~-17~~~~~~~~~~~~~~~~~~~~~~~~~~~~~-|
C#-----------------17~~~~~~~~~~~~~~~~~~~~~~~~~~~~~~~~~~~~~~~~~~~~~-|
G#-----------------------------------------------------------------|
D#-----------------------------------------------------------------|
G#-----------------------------------------------------------------|

===================================================================
===================================================================


Breakdown

Guitar 2
A#-----------------------------------------------------------------|
F -----------------------------------------------------------------|
C#-----------------------------------------------------------------|
G#-0-----------0---0-------0-------------------0---0-------0-------|
D#-0-----------0---0-------0-------------------0---0-------0-------|
G#-0-----------0---0-------0-------------------0---0-------0-------|
Pm .           .   .       .                   .   .       .

===================================================================

Guitar 2
A#-----------------------------------------------------------------|
F -----------------------------------------------------------------|
C#-----------------------------------------------------------------|
G#-0-0-0-0-0-----------------------0---0-------0---0---------------|
D#-0-0-0-0-0-----------------------0---0-------0---0---3---3~~~~~~-|
G#-0-0-0-0-0-----------------------0---0-------0---0---------------|
Pm . . . . .                       .   .       .   .

===================================================================

Guitar 2
A#-----------------------------------------------------------------|
F -----------------------------------------------------------------|
C#-----------------------------------------------------------------|
G#-0---0---0-----------0---0---------------------------------------|
D#-0---0---0-----------0---0-------1~~~~~~~~~~-3~~~~~~~~~~-5~~~~~~-|
G#-0---0---0-----------0---0-------0~~~~~~~~~~-0~~~~~~~~~~-0~~~~~~-|
Pm .   .   .           .   .       .           .           .

===================================================================

Guitar 2
A#-----------------------------------------------------------------|
F -----------------------------------------------------------------|
C#-----------------------------------------------------------------|
G#-----------------------------------------------------------------|
D#-----5---5---5---5-----------------------------------------------|
G#---------------------8---8---8---8---5---5---5---5---7---7---7---|

===================================================================

Guitar 2
A#-----------------------------------------------------------------|
F ---------------------------------10~~~~~~~~~-------------10~~~~~-|
C#---------------------------------13~~~~~~~~~-------------13~~~~~-|
G#-0~~~~~~~~~~~~~~~~~~~~~~-0-------------------0-------------------|
D#-0~~~~~~~~~~~~~~~~~~~~~~-0-------------------0-------------------|
G#-0~~~~~~~~~~~~~~~~~~~~~~-0-------------------0-------------------|
Pm .                       .                   .

===================================================================

Guitar 2
A#-----------------------------------------------------------------|
F -----------------------------------------------------------------|
C#-----------------------------------------------------------------|
G#-----------------------------------------------------------------|
D#---------1~~~~~~-0---------------1---4~~~~~~-1---4---3---0---3---|
G#---------------------2---3~~~~~~---------------------------------|

===================================================================

Guitar 2
A#-----------------------------------------------------------------|
F -----------------------------------------------------------------|
C#-----------------------------------------------------------------|
G#-0---------------0---0---0-------0-------0---0-------0---0-------|
D#-0---------------0---0---0-------0-------0---0-------0---0-------|
G#-0---------------0---0---0-------0-------0---0-------0---0-------|
Pm                 .   .   .       .       .   .       .   .

===================================================================

Guitar 2
A#-----------------------------------------------------------------|
F -----------------------------------------------------------------|
C#-----------------------------------------------------------------|
G#-0~~~~~~-2---3---0---3---5---2---5---7---0---8---7---5-----------|
D#---------------------------------------------------------8---7---|
G#-----------------------------------------------------------------|
Pm         .   .   .   .   .   .   .   .   .   .   .   .   .   .

===================================================================
===================================================================


Pre Chorus 3

Guitar 2
A#-----------------------------------------------------------------|
F -----------------------------------------------------------------|
C#-----------------------------------------------------------------|
G#-----------------------------------------------------------------|
D#-5---------------------------------------------------------------|
G#-----------------------------------------------------------------|

===================================================================


===================================================================
Rest
===================================================================


===================================================================

Guitar 2 (Fade In)
A#-----------------------------------------------------------------|
F -----------------------------------------------------------------|
C#-3---3---3---3---3---3---3---3---3---3---3---3---3---3---3---3---|
G#-3---3---3---3---3---3---3---3---3---3---3---3---3---3---3---3---|
D#-1---1---1---1---1---1---1---1---1---1---1---1---1---1---1---1---|
G#-----------------------------------------------------------------|

===================================================================

Guitar 2
A#-----------------------------------------------------------------|
F -----------------------------------------------------------------|
C#-7---7---7---7---7---7---7---7---7---7---7---7---7---7---7---7---|
G#-7---7---7---7---7---7---7---7---7---7---7---7---7---7---7---7---|
D#-5---5---5---5---5---5---5---5---5---5---5---5---5---5---5---5---|
G#-----------------------------------------------------------------|

===================================================================
===================================================================


Chorus

Guitar 2 (x3)
A#-17--15------15~~~~~---------------------------------------------|
F ---------18----------17--18--17--18--17--15--17~~~~~-17--15------|
C#-------------------------------------------------------------17--|
G#-----------------------------------------------------------------|
D#-----------------------------------------------------------------|
G#-----------------------------------------------------------------|

===================================================================

Guitar 2 (x3)
A#-17--15------15~~~~~-----------------------------15--17--18------|
F ---------18----------17--18--17--18--17--15--17--------------17--|
C#-----------------------------------------------------------------|
G#-----------------------------------------------------------------|
D#-----------------------------------------------------------------|
G#-----------------------------------------------------------------|

===================================================================
===================================================================


Outro

Guitar 2
A#-----------------------------------------------------------------|
F -----------------------------------------------------------------|
C#-----------------------------------------------------------------|
G#-0---0---0---0---0---0---0~~~~~~-0~~~~~~-0---0~~~~~~-------------|
D#-0---0---0---0---0---0---0~~~~~~-0~~~~~~-0---0~~~~~~-------------|
G#-0---0---0---0---0---0---0~~~~~~-0~~~~~~-0---0~~~~~~-8---10--7---|
Pm .   .   .   .   .   .   .       .       .   .

===================================================================

Guitar 2
A#-----------------------------------------------------------------|
F#-----------------------------------------------------------------|
C#-----------------------------------------------------------------|
G#-0~~~~~~~~~~~~~~-0~~~~~~-0---0---0~~~~~~-0~~~~~~-----------------|
D#-0~~~~~~~~~~~~~~-0~~~~~~-0---0---0~~~~~~-0~~~~~~-----8---10--12--|
G#-0~~~~~~~~~~~~~~-0~~~~~~-0---0---0~~~~~~-0~~~~~~-0---------------|
Pm .               .       .   .   .       .       .

===================================================================

Guitar 2
A#-----------------------------------------------------------------|
F -----------------------------------------------------------------|
C#-----------------------------------------------------------------|
G#-0~~~~~~-0---0-----------0~~~~~~-0---0-----------0~~~~~~---------|
D#-0~~~~~~-0---0-----------0~~~~~~-0---0-----------0~~~~~~---------|
G#-0~~~~~~-0---0-----------0~~~~~~-0---0-----------0~~~~~~---------|
Pm .       .   .           .       .   .           .

===================================================================

Guitar 2
A#-----------------------------------------------------------------|
F -----------------------------------------------------------------|
C#-----------------------------------------------------------------|
G#---------0~~~~~~-0---0-----------10--12--10----------------------|
D#---------0~~~~~~-0---0-----------------------13--12--13--12--10--|
G#---------0~~~~~~-0---0-------------------------------------------|
Pm         .       .   .

===================================================================

Guitar 2
A#-----------------------------------------------------------------|
F -----------------------------------------------------------------|
C#-----------------------------------------------------------------|
G#-0---0---0---0---0---0---0~~~~~~-0~~~~~~-0---0~~~~~~-------------|
D#-0---0---0---0---0---0---0~~~~~~-0~~~~~~-0---0~~~~~~-------------|
G#-0---0---0---0---0---0---0~~~~~~-0~~~~~~-0---0~~~~~~-8---10--7---|
Pm .   .   .   .   .   .   .       .       .   .

===================================================================

Guitar 2
A#-----------------------------------------------------------------|
F#-----------------------------------------------------------------|
C#-----------------------------------------------------------------|
G#-0~~~~~~~~~~~~~~-0~~~~~~-0---0---0~~~~~~-0~~~~~~-----------------|
D#-0~~~~~~~~~~~~~~-0~~~~~~-0---0---0~~~~~~-0~~~~~~-----8---10--12--|
G#-0~~~~~~~~~~~~~~-0~~~~~~-0---0---0~~~~~~-0~~~~~~-0---------------|
Pm .               .       .   .   .       .       .

===================================================================

Guitar 2
A#-----------------------------------------------------------------|
F -----------------------------------------------------------------|
C#-----------------------------------------------------------------|
G#-0~~~~~~-0---0-----------0~~~~~~-0---0-----------0~~~~~~-0---0---|
D#-0~~~~~~-0---0-----------0~~~~~~-0---0-----------0~~~~~~-0---0---|
G#-0~~~~~~-0---0-----------0~~~~~~-0---0-----------0~~~~~~-0---0---|
Pm .       .   .           .       .   .           .       .   .

===================================================================

Guitar 2
A#-----------------------------------------------------------------|
F -----------------------------------------------------------------|
C#-----------------------------------------------------------------|
G#---------0~~~~~~-0---0-----------7~~~~~~-------------------------|
D#---------0~~~~~~-0---0-----------------------7~~~~~~-----5~~~~~~-|
G#---------0~~~~~~-0---0-------------------0-----------0-----------|
Pm         .       .   .                   .           .

===================================================================
===================================================================
===================================================================


Tab Legend
h  - hammer-on
p  - pull-off
/  - slide up
\  - slide down
ps/- pickslide up
ps\- pickslide down
~  - let ring
pm.- palm mute
b  - bend
r  - return from bend
t  - finger tapping
*  - harmonic
x  - dead note
^  - Whammy bar
^\ - Whammy bar (hold down)

That is it! I hope this helped, and be sure to check out my cover if you are
having problems with the tab. Thanks, oh and one last thing... ROCK OUT!!!!
comments
We did not receive enough feedback on this tab! Please rate:
print report bad tab
1 2 3 4 5
I want to post or [tab]
guest
You may want to rate the tab now too:
select rating
Please do not post tabs as comments. Select "correction" instead!