Oops, an error
Loading. Please wait.

Losing Sight Tab

ver1
ver1

Whole song

Interactive

More versions @911Tabs.com
4,349 views 24 this week
no commentswrite comment
1 2 3 4 5
excellent!
x 2
Autoscroll
+/-
esc
set tempo
stop
Contributor
Difficulty
Tuning
intermediate
C# G# C# F# A# D#
Hey! There's an official Ultimate Guitar app which is ideal
for learning songs when you're away from computer. Get the app
WARNING: You are trying to view
                                    content from Ultimate-Guitar.com
                                    in an unauthorized application,
                                    which is prohibited.

                                    Please use an official Ultimate
                                    Guitar Tabs application for iPhone,
                                    iPad or Android to access legitimate
                                    chords, guitar, bass, and drum tabs
                                    from Ultimate-Guitar.com database.

                                    Type "ultimate guitar tabs" in Apple
                                    App Store's or Android Market's
                                    search to find the application.
----------------------------------------------------------------------------
                    Losing Sight (Feat. Danny Worsnop)
                           Memphis May Fire
----------------------------------------------------------------------------

Asking Alexandria and Memphis May Fire in one song... That’s better than sex. (Not 
literally). Enjoy!

Username: dkm817 (same on X box live)
Youtube Cover: http://www.youtube.com/watch?v=JZSDHwla-ZI
Email: guitardrums@rockfan.com

Guitar 1 Rhythmic (C# G# C# F# A# D#)
Guitar 2 Lead     (C# G# C# F# A# D#)

Tab Guide...
===================================================================
(end of measures)

===================================================================
===================================================================
(end of parts)

===================================================================
===================================================================
===================================================================
(end of song)
(If there is a “continued” it is because the numbers could not
fit on 1 line or connecting times played.)


===================================================================
Guitar 1
===================================================================


Intro


===================================================================
Rest
===================================================================


===================================================================
===================================================================

Guitar 1 (Fade In)
D#-----------------------------------------------------------------|
A#-----------------------------------------------------------------|
F#-----------------------------------------------------------------|
C#-0~~~~~~~~~~~~~~~~~~~~~~~~~~~~~~~~~~~~~~~~~~~~~~~~~~~~~~-/12\~~~-|
G#-0~~~~~~~~~~~~~~~~~~~~~~~~~~~~~~~~~~~~~~~~~~~~~~~~~~~~~~-/12\~~~-|
C#-0~~~~~~~~~~~~~~~~~~~~~~~~~~~~~~~~~~~~~~~~~~~~~~~~~~~~~~-/12\~~~-|

===================================================================
===================================================================


Verse 1

(x2)

Guitar 1
D#-----------------------------------------------------------------|
A#-----------------------------------------------------------------|
F#-----------------------------------------------------------------|
C#-3~~~~~~-0---0---0---0---3~~~~~~-0---0---------------------------|
G#-3~~~~~~-0---0---0---0---3~~~~~~-0---0-----------------------5---|
C#-3~~~~~~-0---0---0---0---3~~~~~~-0---0---3~~~~~~-1---0---3-------|
Pm         .   .   .   .           .   .

===================================================================

Guitar 1
D#-----------------------------------------------------------------|
A#-----------------------------------------------------------------|
F#-----------------------------------------------------------------|
C#-----------------------------------------------------------------|
G#-----------------------------------------------------1---0-------|
C#-0~~~~~~-0---6~~~~~~-7~~~~~~-3~~~~~~-0~~~~~~~~~~~~~~---------3---|

===================================================================

Guitar 1
D#-----------------------------------------------------------------|
A#-----------------------------------------------------------------|
F#-----------------------------------------------------------------|
C#-0~~~~~~-0~~~~~~-0---0---0~~~~~~-0-0-0-0-0~~~~~~-0~~~~~~-0---0---|
G#-0~~~~~~-0~~~~~~-0---0---0~~~~~~-0-0-0-0-0~~~~~~-0~~~~~~-0---0---|
C#-0~~~~~~-0~~~~~~-0---0---0~~~~~~-0-0-0-0-0~~~~~~-0~~~~~~-0---0---|
Pm .       .       .   .   .       . . . . .       .       .   .

===================================================================

Guitar 1
D#-----------------------------------------------------------------|
A#-----------------------------------------------------------------|
F#-----------------------------------------------------------------|
C#-----------------------------------------------------------------|
G#-----------------------------------------4~~~~~~-1---1---1---1---|
C#-0---0---7~~~~~~~~~~-0---5~~~~~~-0---0---------------------------|
Pm                                 .   .

===================================================================

Guitar 1
D#-----------------------------------------------------------------|
A#-----------------------------------------------------------------|
F#-----------------------------------------------------------------|
C#-----------------------------------------------------------------|
G#---------------------------------5~~~~~~~~~~~~~~-----------------|
C#-2---3---0---3---2---0---0---0-------------------0---0---0~~~~~~-|
Pm                                                 .   .

===================================================================

Guitar 1
D#-----------------------------------------------------------------|
A#-----------------------------------------------------------------|
F#-----------------------------------------------------------------|
C#-----------------------------------------------------------------|
G#-5~~~~~~-----6~~~~~~-----------------0~~~~~~-0~~~~~~-0-----------|
C#---------0-----------0~~~~~~-0---0---1~~~~~~-1~~~~~~-1---1---0---|
Pm         .                       .   .       .       .

===================================================================

Guitar 1
D#-----------------------------------------------------------------|
A#-----------------------------------------------------------------|
F#-----------------------------------------------------------------|
C#-----------------0---0---0~~~~~~-0-0-0-0-0~~~~~~-0~~~~~~-0---0---|
G#---------5~~~~~~-0---0---0~~~~~~-0-0-0-0-0~~~~~~-0~~~~~~-0---0---|
C#-4---0-----------0---0---0~~~~~~-0-0-0-0-0~~~~~~-0~~~~~~-0---0---|
Pm                 .   .   .       . . . . .       .       .   .

===================================================================

Guitar 1
D#-----------------------------------------------------------------|
A#---------------------------------5---6---5-----------------------|
F#---------------------------------------------7---6---7---6-------|
C#-------------------------------------------------------------7---|
G#-----------------------------------------------------------------|
C#-6---7---7---7---3---5---5---5-----------------------------------|

===================================================================
===================================================================


Pre Chorus 1

Guitar 1
D#-----------------------------------------------------------------|
A#-----------------------------------------------------------------|
F#-----------------------------------------------------------------|
C#-0~~~~~~-0---0---0---------------0---0---0~~~~~~-0~~~~~~-0---0---|
G#-0~~~~~~-0---0---0---------------0---0---0~~~~~~-0~~~~~~-0---0---|
C#-0~~~~~~-0---0---0---------------0---0---0~~~~~~-0~~~~~~-0---0---|
Pm .       .   .   .               .   .   .       .       .   .

===================================================================

Guitar 1
D#-----------------------------------------------------------------|
A#-----------------------------------------------------------------|
F#-----------------------------------------------------------------|
C#-----------------------------------------------------------------|
G#-----------------------------------------------------------------|
C#-0~~~~~~-0---1~~~~~~~~~~/7~~~~~~-0~~~~~~-0---1~~~~~~~~~~/7~~~~~~-|

===================================================================

Guitar 1
D#-----------------------------------------------------------------|
A#-----------------------------------------------------------------|
F#-----------------------------------------------------------------|
C#-0~~~~~~-0---0---0---------------0~~~~~~-0---0~~~~~~-0-----------|
G#-0~~~~~~-0---0---0---------------0~~~~~~-0---0~~~~~~-0-----------|
C#-0~~~~~~-0---0---0---------------0~~~~~~-0---0~~~~~~-0-----------|
Pm .       .   .   .               .       .   .       .

===================================================================

Guitar 1
D#-----------------------------------------------------------------|
A#-----------------------------------------------------------------|
F#-----------------------------------------------------------------|
C#-0~~~~~~-0---0-----------0-0-0-0-0~~~~-0~~~~-0~~~~-0-------------|
G#-0~~~~~~-0---0-----------0-0-0-0-0~~~~-0~~~~-0~~~~-0-------------|
C#-0~~~~~~-0---0-----------0-0-0-0-0~~~~-0~~~~-0~~~~-0-------------|
Pm .       .   .           . . . . .     .     .     .

===================================================================

Guitar 1
D#-----------------------------------------------------------------|
A#-----------------------------------------------------------------|
F#-----------------------------------------------------------------|
C#-0~~~~~~-0---0---0~~~~~~-0~~~~~~-0---0---0~~~~~~-0~~~~~~-0---0---|
G#-0~~~~~~-0---0---0~~~~~~-0~~~~~~-0---0---0~~~~~~-0~~~~~~-0---0---|
C#-0~~~~~~-0---0---0~~~~~~-0~~~~~~-0---0---0~~~~~~-0~~~~~~-0---0---|
Pm .       .   .   .       .       .   .   .       .       .   .

===================================================================

Guitar 1
D#-----------------------------------------------------------------|
A#-----------------------------------------------------------------|
F#-----------------------------------------------------------------|
C#-0~~~~~~-0~~~~~~-------------------------------------------------|
G#-0~~~~~~-0~~~~~~---------x-------x-------------------------------|
C#-0~~~~~~-0~~~~~~-------------------------x-------x---------------|
Pm .       .

===================================================================

Guitar 1
D#-----------------------------------------------------------------|
A#-----------------------------------------------------------------|
F#-----------------------------------------------------------------|
C#-----------------------------------------------------------------|
G#-----------------------------------------------------------------|
C#-0~~~~~~-0---1~~~~~~~~~~/7~~~~~~---------------------------------|

===================================================================

Guitar 1
D#-----------------------------------------------------------------|
A#-----------------------------------------------------------------|
F#-------------------------------------------------5~~~~~~~~~~~~~~-|
C#-----------------------------------------3~~~~~~-5~~~~~~~~~~~~~~-|
G#-----------------------------------------3~~~~~~-3~~~~~~~~~~~~~~-|
C#-----------------------------------------3~~~~~~-----------------|

===================================================================
===================================================================


Chorus 1

Guitar 1
D#-----------------------------------------------------------------|
A#-----------------------------------------------------------------|
F#-----------------------------------------------------------------|
C#-0~~~~~~-0---0---0~~~~~~-0---0---0---0---0~~~~~~-0---5~~~~~~~~~~-|
G#-0~~~~~~-0---0---0~~~~~~-0---0---0---0---0~~~~~~-0---5~~~~~~~~~~-|
C#-0~~~~~~-0---0---0~~~~~~-0---0---0---0---0~~~~~~-0---5~~~~~~~~~~-|
Pm         .   .           .   .   .   .           .

===================================================================

Guitar 1
D#-----------------------------------------------------------------|
A#-----------------------------------------------------------------|
F#-----------------------------------------------------------------|
C#-7~~~~~~-7---7---7~~~~~~-7---7---7---7---7~~~~~~-3~~~~~~-3~~~~~~-|
G#-7~~~~~~-7---7---7~~~~~~-7---7---7---7---7~~~~~~-3~~~~~~-3~~~~~~-|
C#-7~~~~~~-7---7---7~~~~~~-7---7---7---7---7~~~~~~-3~~~~~~-3~~~~~~-|
Pm         .   .           .   .   .   .

===================================================================

Guitar 1
D#-----------------------------------------------------------------|
A#-----------------------------------------------------------------|
F#-----------------------------------------------------------------|
C#-8~~~~~~-8---8---8~~~~~~-8---8---8---8---8~~~~~~-8---8~~~~~~~~~~-|
G#-8~~~~~~-8---8---8~~~~~~-8---8---8---8---8~~~~~~-8---8~~~~~~~~~~-|
C#-8~~~~~~-8---8---8~~~~~~-8---8---8---8---8~~~~~~-8---8~~~~~~~~~~-|
Pm         .   .           .   .   .   .           .

===================================================================

Guitar 1
D#-----------------------------------------------------------------|
A#-----------------------------------------------------------------|
F#-----------------------------------------------------------------|
C#-8~~~~~~-8---8---8~~~~~~-8---8---8---8---0~~~~~~-3~~~~~~-5~~~~~~-|
G#-8~~~~~~-8---8---8~~~~~~-8---8---8---8---0~~~~~~-3~~~~~~-5~~~~~~-|
C#-8~~~~~~-8---8---8~~~~~~-8---8---8---8---0~~~~~~-3~~~~~~-5~~~~~~-|
Pm         .   .           .   .   .   .

===================================================================

Guitar 1
D#-----------------------------------------------------------------|
A#-----------------------------------------------------------------|
F#-----------------------------------------------------------------|
C#-0~~~~~~-0---0---0~~~~~~-0---0---0---0---0~~~~~~-0---5~~~~~~~~~~-|
G#-0~~~~~~-0---0---0~~~~~~-0---0---0---0---0~~~~~~-0---5~~~~~~~~~~-|
C#-0~~~~~~-0---0---0~~~~~~-0---0---0---0---0~~~~~~-0---5~~~~~~~~~~-|
Pm         .   .           .   .   .   .           .

===================================================================

Guitar 1
D#-----------------------------------------------------------------|
A#-----------------------------------------------------------------|
F#-----------------------------------------------------------------|
C#-7~~~~~~-7---7---7~~~~~~-7---7---7---7---7~~~~~~-3~~~~~~-3~~~~~~-|
G#-7~~~~~~-7---7---7~~~~~~-7---7---7---7---7~~~~~~-3~~~~~~-3~~~~~~-|
C#-7~~~~~~-7---7---7~~~~~~-7---7---7---7---7~~~~~~-3~~~~~~-3~~~~~~-|
Pm         .   .           .   .   .   .

===================================================================

Guitar 1
D#-----------------------------------------------------------------|
A#-----------------------------------------------------------------|
F#-----------------------------------------------------------------|
C#-8~~~~~~-8---8---8~~~~~~-8---8---8---8---8~~~~~~-8---8~~~~~~~~~~-|
G#-8~~~~~~-8---8---8~~~~~~-8---8---8---8---8~~~~~~-8---8~~~~~~~~~~-|
C#-8~~~~~~-8---8---8~~~~~~-8---8---8---8---8~~~~~~-8---8~~~~~~~~~~-|
Pm         .   .           .   .   .   .           .

===================================================================

Guitar 1
D#-----------------------------------------------------------------|
A#-----------------------------------------------------------------|
F#-----------------------------------------------------------------|
C#-8~~~~~~-8---8---8\~~~~~~~~~~~~~-1~~~~~~-1~~~~~~-1---1---1---1---|
G#-8~~~~~~-8---8---8\~~~~~~~~~~~~~-1~~~~~~-1~~~~~~-1---1---1---1---|
C#-8~~~~~~-8---8---8\~~~~~~~~~~~~~-1~~~~~~-1~~~~~~-1---1---1---1---|
Pm         .   .                           .       .   .   .   .

===================================================================
===================================================================


Break Off 1

Guitar 1
D#-----------------------------------------------------------------|
A#-----------------------------------------------------------------|
F#-----------------------------------------------------------------|
C#-----------------------------------------0~~~~~~-----------------|
G#-----------------------------------------0~~~~~~-----------------|
C#-----------------------------------------0~~~~~~-5*b~~~~~~~~~~~~-|
Pm                                         .

===================================================================
===================================================================


Verse 2

Guitar 1
D#-----------------------------------------------------------------|
A#-----------------------------------------------------------------|
F#-----------------------------------------------------------------|
C#-3~~~~~~-0---0---0---0---3~~~~~~-0---0---------------------------|
G#-3~~~~~~-0---0---0---0---3~~~~~~-0---0-----------------------5---|
C#-3~~~~~~-0---0---0---0---3~~~~~~-0---0---3~~~~~~-1---0---3-------|
Pm         .   .   .   .           .   .

===================================================================

Guitar 1
D#-----------------------------------------------------------------|
A#-----------------------------------------------------------------|
F#-----------------------------------------------------------------|
C#-----------------------------------------------------------------|
G#-----------------------------------------------------1---0-------|
C#-0~~~~~~-0---6~~~~~~-7~~~~~~-3~~~~~~-0~~~~~~~~~~~~~~---------3---|

===================================================================

Guitar 1
D#-----------------------------------------------------------------|
A#-----------------------------------------------------------------|
F#-----------------------------------------------------------------|
C#-0~~~~~~-0~~~~~~-0---0---0~~~~~~-0-0-0-0-0~~~~~~-0~~~~~~-0---0---|
G#-0~~~~~~-0~~~~~~-0---0---0~~~~~~-0-0-0-0-0~~~~~~-0~~~~~~-0---0---|
C#-0~~~~~~-0~~~~~~-0---0---0~~~~~~-0-0-0-0-0~~~~~~-0~~~~~~-0---0---|
Pm .       .       .   .   .       . . . . .       .       .   .

===================================================================

Guitar 1
D#-----------------------------------------------------------------|
A#-----------------------------------------------------------------|
F#-----------------------------------------------------------------|
C#-----------------------------------------------------------------|
G#-----------------------------------------4~~~~~~-1---1---1---1---|
C#-0---0---7~~~~~~~~~~-0---5~~~~~~-0---0---------------------------|
Pm                                 .   .

===================================================================

Guitar 1
D#-----------------------------------------------------------------|
A#-----------------------------------------------------------------|
F#-----------------------------------------------------------------|
C#-----------------------------------------------------------------|
G#---------------------------------5~~~~~~~~~~~~~~-----------------|
C#-2---3---0---3---2---0---0---0-------------------0---0---0~~~~~~-|
Pm                                                 .   .

===================================================================

Guitar 1
D#-----------------------------------------------------------------|
A#-----------------------------------------------------------------|
F#-----------------------------------------------------------------|
C#-----------------------------------------------------------------|
G#-5~~~~~~-----6~~~~~~-----------------0~~~~~~-0~~~~~~-0-----------|
C#---------0-----------0~~~~~~-0---0---1~~~~~~-1~~~~~~-1---1---0---|
Pm         .                       .   .       .       .

===================================================================

Guitar 1
D#-----------------------------------------------------------------|
A#-----------------------------------------------------------------|
F#-----------------------------------------------------------------|
C#-----------------0---0---0~~~~~~-0-0-0-0-0~~~~~~-0~~~~~~-0---0---|
G#---------5~~~~~~-0---0---0~~~~~~-0-0-0-0-0~~~~~~-0~~~~~~-0---0---|
C#-4---0-----------0---0---0~~~~~~-0-0-0-0-0~~~~~~-0~~~~~~-0---0---|
Pm                 .   .   .       . . . . .       .       .   .

===================================================================

Guitar 1
D#-----------------------------------------------------------------|
A#---------------------------------5---6---5-----------------------|
F#---------------------------------------------7---6---7---6-------|
C#-------------------------------------------------------------7---|
G#-----------------------------------------------------------------|
C#-6---7---7---7---3---5---5---5-----------------------------------|

===================================================================
===================================================================


Bridge 1

Guitar 1
D#-----------------------------------------------------------------|
A#-----------------------------------------------------------------|
F#-----------------------------------------------------------------|
C#-----------------------------------------------------------------|
G#-----------------------------------------------------------------|
C#-0---0---0---0---0---0---0---0---0---0---0---0---0---0---0---0---|

===================================================================

Guitar 1
D#-----------------------------------------------------------------|
A#-----------------------------------------------------------------|
F#-----------------------------------------------------------------|
C#-----------------------------------------------------------------|
G#-----------------------------------------------------------------|
C#-2---2---2---2---2---2---2---2---3---3---3---3---3---3---3---3---|

===================================================================

Guitar 1
D#-----------------------------------------------------------------|
A#-----------------------------------------------------------------|
F#-----------------------------------------------------------------|
C#-----------------------------------------------------------------|
G#-----------------------------------------------------------------|
C#-5---5---5---5---5---5---5---5---5---5---5---5---5---5---5---5---|

===================================================================

Guitar 1
D#-----------------------------------------------------------------|
A#-----------------------------------------------------------------|
F#-----------------------------------------------------------------|
C#-----------------------------------------------------------------|
G#-----------------------------------------------------------------|
C#-8---8---8---8---8---8---8---8---7---7---7---7---7---7---7---7---|

===================================================================

Guitar 1
D#-----------------------------------------------------------------|
A#-----------------------------------------------------------------|
F#-----------------------------------------------------------------|
C#-----------------------------------------------------------------|
G#-----------------------------------------------------------------|
C#-0---0---0---0---0---0---0---0---0---0---0---0---0---0---0---0---|

===================================================================

Guitar 1
D#-----------------------------------------------------------------|
A#-----------------------------------------------------------------|
F#-----------------------------------------------------------------|
C#-----------------------------------------------------------------|
G#-----------------------------------------------------------------|
C#-2---2---2---2---2---2---2---2---3---3---3---3---3---3---3---3---|

===================================================================

Guitar 1
D#-----------------------------------------------------------------|
A#-----------------------------------------------------------------|
F#-----------------------------------------------------------------|
C#-----------------------------------------------------------------|
G#-----------------------------------------------------------------|
C#-5---5---5---5---5---5---5---5---5---5---5---5---5---5---5---5---|

===================================================================

Guitar 1
D#-----------------------------------------------------------------|
A#-----------------------------------------------------------------|
F#-----------------------------------------------------------------|
C#-----------------------------------------------------------------|
G#-----------------------------------------------------------------|
C#-8---8---8---8---8---8---8---8---11--11--11--11--11--11--11--11--|

===================================================================

Guitar 1
D#-----------------------------------------------------------------|
A#-----------------------------------------------------------------|
F#-----------------------------------------------------------------|
C#-----------------------------------------------------------------|
G#-----------------------------------------------------------------|
C#-0---0---0---0---0---0---0---0---0---0---0---0---0---0---0---0---|

===================================================================

Guitar 1
D#-----------------------------------------------------------------|
A#-----------------------------------------------------------------|
F#-----------------------------------------------------------------|
C#-----------------------------------------------------------------|
G#-----------------------------------------------------------------|
C#-2---2---2---2---2---2---2---2---3---3---3---3---3---3---3---3---|

===================================================================

Guitar 1
D#-----------------------------------------------------------------|
A#-----------------------------------------------------------------|
F#-----------------------------------------------------------------|
C#-----------------------------------------------------------------|
G#-----------------------------------------------------------------|
C#-5---5---5---5---5---5---5---5---5---5---5---5---5---5---5---5---|

===================================================================

Guitar 1
D#-----------------------------------------------------------------|
A#-----------------------------------------------------------------|
F#-----------------------------------------------------------------|
C#-----------------------------------------------------------------|
G#-----------------------------------------------------------------|
C#-8---8---8---8---8---8---8---8---7---7---7---7---7---7---7---7---|

===================================================================

Guitar 1
D#-----------------------------------------------------------------|
A#-----------------------------------------------------------------|
F#-----------------------------------------------------------------|
C#-----------------------------------------------------------------|
G#-----------------------------------------------------------------|
C#-0---0---0---0---0---0---0---0---0---0---0---0---0---0---0---0---|

===================================================================

Guitar 1
D#-----------------------------------------------------------------|
A#-----------------------------------------------------------------|
F#-----------------------------------------------------------------|
C#-----------------------------------------------------------------|
G#-----------------------------------------------------------------|
C#-2---2---2---2---2---2---2---2---3---3---3---3---3---3---3---3---|

===================================================================

Guitar 1
D#-----------------------------------------------------------------|
A#-----------------------------------------------------------------|
F#-----------------------------------------------------------------|
C#-----------------------------------------------------------------|
G#-----------------------------------------------------------------|
C#-5---5---5---5---5---5---5---5---5---5---5---5---5---5---5---5---|

===================================================================

Guitar 1
D#-----------------------------------------------------------------|
A#-----------------------------------------------------------------|
F#-----------------------------------------------------------------|
C#-8~~~~~~~~~~~~~~~~~~~~~~~~~~~~~~~~~~~~~~~~~~~~~~~~~~~~~~~~~~~~~~-
G#-x---------------------------------------------------------------
C#-7~~~~~~~~~~~~~~~~~~~~~~~~~~~~~~~~~~~~~~~~~~~~~~~~~~~~~~~~~~~~~~-

===================================================================
===================================================================


Breakdown 1

Guitar 1
D#-----------------------------------------------------------------|
A#-----------------------------------------------------------------|
F#-----------------------------------------------------------------|
C#-0~~~~-0~~~~-0---0-0-0~~~~-0-0---0-0-0~~~~-0-0-------------------|
G#-0~~~~-0~~~~-0---0-0-0~~~~-0-0---0-0-0~~~~-0-0---0-1-3-5-3-5-1-0-|
C#-0~~~~-0~~~~-0---0-0-0~~~~-0-0---0-0-0~~~~-0-0-------------------|
Pm .     .     .   . . .     . .   . . .     . .   . . . . . . . .

===================================================================

Guitar 1
D#-------------------------------------------------0~~~~~~~~~~~~~~-|
A#-------------------------------------------------------6~~~~~~~~-|
F#-------------------------------------------------------------6~~-|
C#-0~~~~-0~~~~-0---0-0-0~~~~-0-0---0-0-0~~~~-0-0-------------------|
G#-0~~~~-0~~~~-0---0-0-0~~~~-0-0---0-0-0~~~~-0-0-------------------|
C#-0~~~~-0~~~~-0---0-0-0~~~~-0-0---0-0-0~~~~-0-0-------------------|
Pm .     .     .   . . .     . .   . . .     . .

===================================================================

Guitar 1                                           (Fade In)
D#-----------------------------------------------------------------|
A#-----------------------------------------------------------------|
F#-----------------------------------------------------------------|
C#-0~~~~-0~~~~-0---0-0-0~~~~-0-0---0-0-0~~~~-0-0---0~~~~~~~~~~~~~~-|
G#-0~~~~-0~~~~-0---0-0-0~~~~-0-0---0-0-0~~~~-0-0---0~~~~~~~~~~~~~~-|
C#-0~~~~-0~~~~-0---0-0-0~~~~-0-0---0-0-0~~~~-0-0---0~~~~~~~~~~~~~~-|
Pm .     .     .   . . .     . .   . . .     . .

===================================================================

Guitar 1
D#-----------------------------------------------------------------|
A#-----------------------------------------------------------------|
F#-----------------------------------------------------------------|
C#-0~~~~-0~~~~-0---0-0-0~~~~-0-0---0-0-0~~~~-0-0-------------------|
G#-0~~~~-0~~~~-0---0-0-0~~~~-0-0---0-0-0~~~~-0-0-------------------|
C#-0~~~~-0~~~~-0---0-0-0~~~~-0-0---0-0-0~~~~-0-0-------------------|
Pm .     .     .   . . .     . .   . . .     . .

===================================================================
===================================================================


Chorus 2

Guitar 1
D#-----------------------------------------------------------------|
A#-----------------------------------------------------------------|
F#-----------------------------------------------------------------|
C#-0~~~~~~-0---0---0~~~~~~-0---0---0---0---0~~~~~~-0---5~~~~~~~~~~-|
G#-0~~~~~~-0---0---0~~~~~~-0---0---0---0---0~~~~~~-0---5~~~~~~~~~~-|
C#-0~~~~~~-0---0---0~~~~~~-0---0---0---0---0~~~~~~-0---5~~~~~~~~~~-|
Pm         .   .           .   .   .   .           .

===================================================================

Guitar 1
D#-----------------------------------------------------------------|
A#-----------------------------------------------------------------|
F#-----------------------------------------------------------------|
C#-7~~~~~~-7---7---7~~~~~~-7---7---7---7---7~~~~~~-3~~~~~~-3~~~~~~-|
G#-7~~~~~~-7---7---7~~~~~~-7---7---7---7---7~~~~~~-3~~~~~~-3~~~~~~-|
C#-7~~~~~~-7---7---7~~~~~~-7---7---7---7---7~~~~~~-3~~~~~~-3~~~~~~-|
Pm         .   .           .   .   .   .

===================================================================

Guitar 1
D#-----------------------------------------------------------------|
A#-----------------------------------------------------------------|
F#-----------------------------------------------------------------|
C#-8~~~~~~-8---8---8~~~~~~-8---8---8---8---8~~~~~~-8---8~~~~~~~~~~-|
G#-8~~~~~~-8---8---8~~~~~~-8---8---8---8---8~~~~~~-8---8~~~~~~~~~~-|
C#-8~~~~~~-8---8---8~~~~~~-8---8---8---8---8~~~~~~-8---8~~~~~~~~~~-|
Pm         .   .           .   .   .   .           .

===================================================================

Guitar 1
D#-----------------------------------------------------------------|
A#-----------------------------------------------------------------|
F#-----------------------------------------------------------------|
C#-8~~~~~~-8---8---8~~~~~~-8---8---8---8---0~~~~~~-3~~~~~~-5~~~~~~-|
G#-8~~~~~~-8---8---8~~~~~~-8---8---8---8---0~~~~~~-3~~~~~~-5~~~~~~-|
C#-8~~~~~~-8---8---8~~~~~~-8---8---8---8---0~~~~~~-3~~~~~~-5~~~~~~-|
Pm         .   .           .   .   .   .

===================================================================

Guitar 1
D#-----------------------------------------------------------------|
A#-----------------------------------------------------------------|
F#-----------------------------------------------------------------|
C#-0~~~~~~-0---0---0~~~~~~-0---0---0---0---0~~~~~~-0---5~~~~~~~~~~-|
G#-0~~~~~~-0---0---0~~~~~~-0---0---0---0---0~~~~~~-0---5~~~~~~~~~~-|
C#-0~~~~~~-0---0---0~~~~~~-0---0---0---0---0~~~~~~-0---5~~~~~~~~~~-|
Pm         .   .           .   .   .   .           .

===================================================================

Guitar 1
D#-----------------------------------------------------------------|
A#-----------------------------------------------------------------|
F#-----------------------------------------------------------------|
C#-7~~~~~~-7---7---7~~~~~~-7---7---7---7---7~~~~~~-3~~~~~~-3~~~~~~-|
G#-7~~~~~~-7---7---7~~~~~~-7---7---7---7---7~~~~~~-3~~~~~~-3~~~~~~-|
C#-7~~~~~~-7---7---7~~~~~~-7---7---7---7---7~~~~~~-3~~~~~~-3~~~~~~-|
Pm         .   .           .   .   .   .

===================================================================

Guitar 1
D#-----------------------------------------------------------------|
A#-----------------------------------------------------------------|
F#-----------------------------------------------------------------|
C#-8~~~~~~-8---8---8~~~~~~-8---8---8---8---8~~~~~~-8---8~~~~~~~~~~-|
G#-8~~~~~~-8---8---8~~~~~~-8---8---8---8---8~~~~~~-8---8~~~~~~~~~~-|
C#-8~~~~~~-8---8---8~~~~~~-8---8---8---8---8~~~~~~-8---8~~~~~~~~~~-|
Pm         .   .           .   .   .   .           .

===================================================================

Guitar 1
D#-----------------------------------------------------------------|
A#-----------------------------------------------------------------|
F#-----------------------------------------------------------------|
C#-8~~~~~~-8---8---8~~~~~~-8~~~~~~---------------------------------|
G#-8~~~~~~-8---8---8~~~~~~-8~~~~~~---------------------------------|
C#-8~~~~~~-8---8---8~~~~~~-8~~~~~~-10--10--10--10--10--10--10--10--|
Pm         .   .

===================================================================

Guitar 1
D#-----------------------------------------------------------------|
A#-----------------------------------------------------------------|
F#-----------------------------------------------------------------|
C#-0~~~~~~-0---0---0~~~~~~~~~~~~~~-0---0---0~~~~~~-0---0~~~~~~~~~~-|
G#-0~~~~~~-0---0---0~~~~~~~~~~~~~~-0---0---0~~~~~~-0---0~~~~~~~~~~-|
C#-0~~~~~~-0---0---0~~~~~~~~~~~~~~-0---0---0~~~~~~-0---0~~~~~~~~~~-|
Pm         .   .                   .   .           .

===================================================================

Guitar 1
D#-----------------------------------------------------------------|
A#-----------------------------------------------------------------|
F#-----------------------------------------------------------------|
C#-7~~~~~~~~~~~~~~-7~~~~~~~~~~~~~~-7---7---7~~~~~~-7---7---7~~~~~~-|
G#-7~~~~~~~~~~~~~~-7~~~~~~~~~~~~~~-7---7---7~~~~~~-7---7---7~~~~~~-|
C#-7~~~~~~~~~~~~~~-7~~~~~~~~~~~~~~-7---7---7~~~~~~-7---7---7~~~~~~-|
Pm                                 .   .           .   .

===================================================================

Guitar 1
D#-----------------------------------------------------------------|
A#-----------------------------------------------------------------|
F#-----------------------------------------------------------------|
C#-8~~~~~~~~~~-8---8~~~~~~-8~~~~~~-8~~~~~~~~~~~~~~-8---8---8~~~~~~-|
G#-8~~~~~~~~~~-8---8~~~~~~-8~~~~~~-8~~~~~~~~~~~~~~-8---8---8~~~~~~-|
C#-8~~~~~~~~~~-8---8~~~~~~-8~~~~~~-8~~~~~~~~~~~~~~-8---8---8~~~~~~-|
Pm                                                 .   .

===================================================================

Guitar 1
D#-----------------------------------------------------------------|
A#-----------------------------------------------------------------|
F#-----------------------------------------------------------------|
C#-8~~~~~~-8---8---8~~~~~~-8~~~~~~---------------------------------|
G#-8~~~~~~-8---8---8~~~~~~-8~~~~~~-5~~~~~~-8~~~~~~-3---3---3---3---|
C#-8~~~~~~-8---8---8~~~~~~-8~~~~~~---------------------------------|
Pm         .   .

===================================================================

Guitar 1
D#-----------------------------------------------------------------|
A#-----------------------------------------------------------------|
F#-----------------------------------------------------------------|
C#-0~~~~~~-0---0---0~~~~~~~~~~~~~~-0---0---0~~~~~~-0---0~~~~~~~~~~-|
G#-0~~~~~~-0---0---0~~~~~~~~~~~~~~-0---0---0~~~~~~-0---0~~~~~~~~~~-|
C#-0~~~~~~-0---0---0~~~~~~~~~~~~~~-0---0---0~~~~~~-0---0~~~~~~~~~~-|
Pm         .   .                   .   .           .

===================================================================

Guitar 1
D#-----------------------------------------------------------------|
A#-----------------------------------------------------------------|
F#-----------------------------------------------------------------|
C#-7~~~~~~~~~~~~~~-7~~~~~~~~~~~~~~-7---7---7~~~~~~-7---7---7~~~~~~-|
G#-7~~~~~~~~~~~~~~-7~~~~~~~~~~~~~~-7---7---7~~~~~~-7---7---7~~~~~~-|
C#-7~~~~~~~~~~~~~~-7~~~~~~~~~~~~~~-7---7---7~~~~~~-7---7---7~~~~~~-|
Pm                                 .   .           .   .

===================================================================

Guitar 1
D#-----------------------------------------------------------------|
A#-----------------------------------------------------------------|
F#-----------------------------------------------------------------|
C#-8~~~~~~~~~~-8---8~~~~~~-8~~~~~~-8~~~~~~~~~~~~~~-8---8---8~~~~~~-|
G#-8~~~~~~~~~~-8---8~~~~~~-8~~~~~~-8~~~~~~~~~~~~~~-8---8---8~~~~~~-|
C#-8~~~~~~~~~~-8---8~~~~~~-8~~~~~~-8~~~~~~~~~~~~~~-8---8---8~~~~~~-|
Pm                                                 .   .

===================================================================

Guitar 1
D#-----------------------------------------------------------------|
A#-----------------------------------------------------------------|
F#-----------------------------------------------------------------|
C#-8~~~~~~-8---8---8~~~~~~-8~~~~~~-1~~~~~~-1~~~~~~-1---1---1---1---|
G#-8~~~~~~-8---8---8~~~~~~-8~~~~~~-1~~~~~~-1~~~~~~-1---1---1---1---|
C#-8~~~~~~-8---8---8~~~~~~-8~~~~~~-1~~~~~~-1~~~~~~-1---1---1---1---|
Pm         .   .                           .       .   .   .   .

===================================================================
===================================================================


Break Off 2

(x2)

Guitar 1
D#-----------------------------------------------------------------|
A#-----------------------------------------------------------------|
F#-----------------------------------------------------------------|
C#-----------------------------------------------------------------|
G#-----------------------------------------------------------------|
C#-0~~~~~~-7---8---7~~~~~~-0~~~~~~-12--13--12~~~~~-10--12--10--8---|

===================================================================

Guitar 1
D#-----------------------------------------------------------------|
A#-----------------------------------------------------------------|
F#-----------------------------------------------------------------|
C#-----------------------------------------------------------------|
G#-----------------------------------------------------------------|
C#-8~~~~~~-5~~~~~~-7~~~~~~-4~~~~~~-1---1---4---4---1---1---0---0---|

===================================================================
===================================================================


Bridge 2

Guitar 1
D#-----------------------------------------------------------------|
A#-----------------------------------------------------------------|
F#-----------------------------------------------------------------|
C#-0~~-0-0-0~~-0~~-0~~-0-0-0-0-0-0-0-0~~-0~~-0-0-0-0---0---0-0-0-0-|
G#-0~~-0-0-0~~-0~~-0~~-0-0-0-0-0-0-0-0~~-0~~-0-0-0-0---0---0-0-0-0-|
C#-0~~-0-0-0~~-0~~-0~~-0-0-0-0-0-0-0-0~~-0~~-0-0-0-0---0---0-0-0-0-|
Pm .   . . .   .   .   . . . . . . . .   .   . . . .   .   . . . .

===================================================================

Guitar 1
D#-----------------------------------------------------------------|
A#-----------------------------------------------------------------|
F#-----------------------------------------------------------------|
C#-0-------0-------0-0-0-0-0-0---------0-0-0-0---0---0-0-0-0-0---0-|
G#-0-------0-------0-0-0-0-0-0---------0-0-0-0---0---0-0-0-0-0---0-|
C#-0-------0-------0-0-0-0-0-0---------0-0-0-0---0---0-0-0-0-0---0-|
Pm .       .       . . . . . .         . . . .   .   . . . . .   .

===================================================================

Guitar 1
D#-----------------------------------------------------------------|
A#-----------------------------------------------------------------|
F#-----------------------------------------------------------------|
C#-0~~-0-0-0~~-0~~-0~~-0-0-0-0-0-0-0-0~~-0~~-0-0-0-0---0---0-0-0-0-|
G#-0~~-0-0-0~~-0~~-0~~-0-0-0-0-0-0-0-0~~-0~~-0-0-0-0---0---0-0-0-0-|
C#-0~~-0-0-0~~-0~~-0~~-0-0-0-0-0-0-0-0~~-0~~-0-0-0-0---0---0-0-0-0-|
Pm .   . . .   .   .   . . . . . . . .   .   . . . .   .   . . . .

===================================================================

Guitar 1
D#-----------------------------------------------------------------|
A#-----------------------------------------------------------------|
F#-----------------------------------------------------------------|
C#-0---------------------------------------------------------------|
G#-0---------------------------------------------------------------|
C#-0---------------------------------------------------------------|
Pm .

===================================================================
===================================================================


Breakdown 2

Guitar 1
D#-----------------------------------------------------------------|
A#-----------------------------------------------------------------|
F#-----------------------------------------------------------------|
C#-0---------------------------------------------------------------|
G#-0-------------------------------1~~~~~~~~~~~~~~-0~~~~~~~~~~~~~~-|
C#-0-------------------------------0~~~~~~~~~~~~~~-0~~~~~~~~~~~~~~-|
Pm                                 .               .

===================================================================

Guitar 1
D#-----------------------------------------------------------------|
A#-----------------------------------------------------------------|
F#-----------------------------------------------------------------|
C#-0~~~~~~-0-0-0-0-------------------------------------------------|
G#-0~~~~~~-0-0-0-0---------------------------------1---1---1~~~~~~-|
C#-0~~~~~~-0-0-0-0-0~~~~~~-0~~~~~~-8---7---0~~~~~~-3---3---3~~~~~~-|
Pm .       . . . .                                 .   .   .

===================================================================

Guitar 1
D#-----------------------------------------------------------------|
A#-----------------------------------------------------------------|
F#-----------------------------------------------------------------|
C#-------------------------------------------------0---0---0---0---|
G#-------------------------------------------------0---0---0---0---|
C#-8~~~~~~-0---5~~~~~~-0---3~~~~~~-1---1---1~~~~~~-0---0---0---0---|
Pm         .           .           .   .           .   .   .   .

===================================================================

Guitar 1
D#-----------------------------------------------------------------|
A#-----------------------------------------------------------------|
F#-----------------------------------------------------------------|
C#-----0---0-------0---0---0---0-------0---0-------3---3-------3---|
G#-----0---0-------0---0---0---0-------0---0-------3---3-------3---|
C#-----0---0-------0---0---0---0-------0---0-------3---3-------3---|
Pm     .   .       .   .   .   .       .   .       .   .       .

===================================================================

Guitar 1
D#-----------------------------------------------------------------|
A#-----------------------------------------------------------------|
F#-----------------------------------------------------------------|
C#-3---0---0-----------x-------x---0~~~~~~~~~~~~~~-0---------------|
G#-3---0---0-----------x-------x---0~~~~~~~~~~~~~~-0---------------|
C#-3---0---0-----------x-------x---0~~~~~~~~~~~~~~-0---------------|
Pm .   .   .                                       .

===================================================================

Guitar 1
D#-----------------------------------------------------------------|
A#-----------------------------------------------------------------|
F#-----------------------------------------------------------------|
C#-----------------------------------------------------------------|
G#-------------------------x---------------------------------------|
C#-0~~~~~~-0~~~~~~-0~~~~~~---------x-------0~~~~~~-0---------------|

===================================================================

Guitar 1
D#------------------------------------------------------------------|
A#------------------------------------------------------------------|
F#------------------------------------------------------------------|
C#---------------------------------3---3---3------------------------|
G#---------------------------------3---3---3-------0---0---0---0~~~-|
C#-0~~~~~~~~~~~~~~~~~~~~~~~~~~~~~~-3---3---3-------1---1---1---1~~~-|
Pm                                 .   .   .       .   .   .   .

===================================================================

Guitar 1
D#-----------------------------------------------------------------|
A#-----------------------------------------------------------------|
F#-----------------------------------------------------------------|
C#-----------------------------------------------------------------|
G#-~~~-0---0~~~~~~-------------------------------------------------|
C#-~~~-1---1~~~~~~-13~~~~~-10--12~~~~~-8---10~~~~~-7---7~~~~~~~~~~-|
Pm     .   .

===================================================================
===================================================================


Chorus 3

Guitar 1 (Fade In)
D#-----------------------------------------------------------------|
A#-----------------------------------------------------------------|
F#-----------------------------------------------------------------|
C#-0~~~~~~-0---0---0~~~~~~-0---0---0---0---0~~~~~~-0---5~~~~~~~~~~-|
G#-0~~~~~~-0---0---0~~~~~~-0---0---0---0---0~~~~~~-0---5~~~~~~~~~~-|
C#-0~~~~~~-0---0---0~~~~~~-0---0---0---0---0~~~~~~-0---5~~~~~~~~~~-|
Pm         .   .           .   .   .   .           .

===================================================================

Guitar 1
D#-----------------------------------------------------------------|
A#-----------------------------------------------------------------|
F#-----------------------------------------------------------------|
C#-7~~~~~~-7---7---7~~~~~~-7---7---7---7---7~~~~~~-3~~~~~~-3~~~~~~-|
G#-7~~~~~~-7---7---7~~~~~~-7---7---7---7---7~~~~~~-3~~~~~~-3~~~~~~-|
C#-7~~~~~~-7---7---7~~~~~~-7---7---7---7---7~~~~~~-3~~~~~~-3~~~~~~-|
Pm         .   .           .   .   .   .

===================================================================

Guitar 1
D#-----------------------------------------------------------------|
A#-----------------------------------------------------------------|
F#-----------------------------------------------------------------|
C#-8~~~~~~-8---8---8~~~~~~-8---8---8---8---8~~~~~~-8---8~~~~~~~~~~-|
G#-8~~~~~~-8---8---8~~~~~~-8---8---8---8---8~~~~~~-8---8~~~~~~~~~~-|
C#-8~~~~~~-8---8---8~~~~~~-8---8---8---8---8~~~~~~-8---8~~~~~~~~~~-|
Pm         .   .           .   .   .   .           .

===================================================================

Guitar 1
D#-----------------------------------------------------------------|
A#-----------------------------------------------------------------|
F#-----------------------------------------------------------------|
C#-8~~~~~~-8---8---8~~~~~~-8---8-----------------------------------|
G#-8~~~~~~-8---8---8~~~~~~-8---8-----------------------------------|
C#-8~~~~~~-8---8---8~~~~~~-8---8-----------------------------------|
Pm         .   .           .   .

===================================================================

Guitar 1
D#-----------------------------------------------------------------|
A#-----------------------------------------------------------------|
F#-----------------------------------------------------------------|
C#-0~~~~~~-0---0---0~~~~~~-0---0---0---0---0~~~~~~-0---5~~~~~~~~~~-|
G#-0~~~~~~-0---0---0~~~~~~-0---0---0---0---0~~~~~~-0---5~~~~~~~~~~-|
C#-0~~~~~~-0---0---0~~~~~~-0---0---0---0---0~~~~~~-0---5~~~~~~~~~~-|
Pm         .   .           .   .   .   .           .

===================================================================

Guitar 1
D#-----------------------------------------------------------------|
A#-----------------------------------------------------------------|
F#-----------------------------------------------------------------|
C#-7~~~~~~-7---7---7~~~~~~-7---7---7---7---7~~~~~~-3~~~~~~-3~~~~~~-|
G#-7~~~~~~-7---7---7~~~~~~-7---7---7---7---7~~~~~~-3~~~~~~-3~~~~~~-|
C#-7~~~~~~-7---7---7~~~~~~-7---7---7---7---7~~~~~~-3~~~~~~-3~~~~~~-|
Pm         .   .           .   .   .   .

===================================================================

Guitar 1
D#-----------------------------------------------------------------|
A#-----------------------------------------------------------------|
F#-----------------------------------------------------------------|
C#-8~~~~~~-8---8---8~~~~~~-8---8---8---8---8~~~~~~-8---8~~~~~~~~~~-|
G#-8~~~~~~-8---8---8~~~~~~-8---8---8---8---8~~~~~~-8---8~~~~~~~~~~-|
C#-8~~~~~~-8---8---8~~~~~~-8---8---8---8---8~~~~~~-8---8~~~~~~~~~~-|
Pm         .   .           .   .   .   .           .

===================================================================

Guitar 1
D#-----------------------------------------------------------------|
A#-----------------------------------------------------------------|
F#-----------------------------------------------------------------|
C#-8~~~~~~-8---8---8~~~~~~-8~~~~~~-ps\~~~~~~~~~~~~~~~~~~~~~~~~~~~~-|
G#-8~~~~~~-8---8---8~~~~~~-8~~~~~~-ps\~~~~~~~~~~~~~~~~~~~~~~~~~~~~-|
C#-8~~~~~~-8---8---8~~~~~~-8~~~~~~-ps\~~~~~~~~~~~~~~~~~~~~~~~~~~~~-|
Pm         .   .

===================================================================

Guitar 1
D#-----------------------------------------------------------------|
A#-----------------------------------------------------------------|
F#-----------------------------------------------------------------|
C#-0~~~~~~~~~~-0~~~~~~~~~~-0~~~~~~-0~~~~~~~~~~-0~~~~~~~~~~-0~~~~~~-|
G#-0~~~~~~~~~~-0~~~~~~~~~~-0~~~~~~-0~~~~~~~~~~-0~~~~~~~~~~-0~~~~~~-|
C#-0~~~~~~~~~~-0~~~~~~~~~~-0~~~~~~-0~~~~~~~~~~-0~~~~~~~~~~-0~~~~~~-|

===================================================================

Guitar 1
D#-----------------------------------------------------------------|
A#-----------------------------------------------------------------|
F#-----------------------------------------------------------------|
C#-7~~~~~~~~~~-7~~~~~~~~~~-7~~~~~~-7~~~~~~~~~~-7~~~~~~~~~~-7~~~~~~-|
G#-7~~~~~~~~~~-7~~~~~~~~~~-7~~~~~~-7~~~~~~~~~~-7~~~~~~~~~~-7~~~~~~-|
C#-7~~~~~~~~~~-7~~~~~~~~~~-7~~~~~~-7~~~~~~~~~~-7~~~~~~~~~~-7~~~~~~-|

===================================================================

Guitar 1
D#-----------------------------------------------------------------|
A#-----------------------------------------------------------------|
F#-----------------------------------------------------------------|
C#-8~~~~~~~~~~-8~~~~~~~~~~-8~~~~~~-8~~~~~~~~~~-8~~~~~~~~~~-8~~~~~~-|
G#-8~~~~~~~~~~-8~~~~~~~~~~-8~~~~~~-8~~~~~~~~~~-8~~~~~~~~~~-8~~~~~~-|
C#-8~~~~~~~~~~-8~~~~~~~~~~-8~~~~~~-8~~~~~~~~~~-8~~~~~~~~~~-8~~~~~~-|

===================================================================

Guitar 1
D#-----------------------------------------------------------------|
A#-----------------------------------------------------------------|
F#-----------------------------------------------------------------|
C#-8~~~~~~~~~~-8~~~~~~~~~~-8~~~~~~-3~~~~~~~~~~-3~~~~~~~~~~-3~~~~~~-|
G#-8~~~~~~~~~~-8~~~~~~~~~~-8~~~~~~-3~~~~~~~~~~-3~~~~~~~~~~-3~~~~~~-|
C#-8~~~~~~~~~~-8~~~~~~~~~~-8~~~~~~-3~~~~~~~~~~-3~~~~~~~~~~-3~~~~~~-|

===================================================================

Guitar 1
D#-----------------------------------------------------------------|
A#-----------------------------------------------------------------|
F#-----------------------------------------------------------------|
C#-0~~~~~~~~~~-0~~~~~~~~~~-0~~~~~~-0~~~~~~~~~~-0~~~~~~~~~~-0~~~~~~-|
G#-0~~~~~~~~~~-0~~~~~~~~~~-0~~~~~~-0~~~~~~~~~~-0~~~~~~~~~~-0~~~~~~-|
C#-0~~~~~~~~~~-0~~~~~~~~~~-0~~~~~~-0~~~~~~~~~~-0~~~~~~~~~~-0~~~~~~-|

===================================================================

Guitar 1
D#-----------------------------------------------------------------|
A#-----------------------------------------------------------------|
F#-----------------------------------------------------------------|
C#-7~~~~~~~~~~-7~~~~~~~~~~-7~~~~~~-7~~~~~~~~~~-7~~~~~~~~~~-7~~~~~~-|
G#-7~~~~~~~~~~-7~~~~~~~~~~-7~~~~~~-7~~~~~~~~~~-7~~~~~~~~~~-7~~~~~~-|
C#-7~~~~~~~~~~-7~~~~~~~~~~-7~~~~~~-7~~~~~~~~~~-7~~~~~~~~~~-7~~~~~~-|

===================================================================

Guitar 1
D#-----------------------------------------------------------------|
A#-----------------------------------------------------------------|
F#-----------------------------------------------------------------|
C#-8~~~~~~~~~~-8~~~~~~~~~~-8~~~~~~-8~~~~~~~~~~-8~~~~~~~~~~-8~~~~~~-|
G#-8~~~~~~~~~~-8~~~~~~~~~~-8~~~~~~-8~~~~~~~~~~-8~~~~~~~~~~-8~~~~~~-|
C#-8~~~~~~~~~~-8~~~~~~~~~~-8~~~~~~-8~~~~~~~~~~-8~~~~~~~~~~-8~~~~~~-|

===================================================================

Guitar 1
D#-----------------------------------------------------------------|
A#-----------------------------------------------------------------|
F#-----------------------------------------------------------------|
C#-8~~~~~~~~~~-8~~~~~~~~~~-8~~~~~~---------------------------------|
G#-8~~~~~~~~~~-8~~~~~~~~~~-8~~~~~~---------------------------------|
C#-8~~~~~~~~~~-8~~~~~~~~~~-8~~~~~~-10--10--10--10--10--10--10--10--|

===================================================================
===================================================================


Break Off 3


===================================================================
Rest
===================================================================


===================================================================
===================================================================


Outro

Guitar 1
D#-----------------------------------------------------------------|
A#-----------------------------------------------------------------|
F#-----------------------------------------------------------------|
C#-0---0---0-0---0-0---0-0---0-0-0-------------------0---0-0-0-0---|
G#-0---0---0-0---0-0---0-0---0-0-0-------------------0---0-0-0-0---|
C#-0---0---0-0---0-0---0-0---0-0-0-6b~-5b~-4b~-3b~---0---0-0-0-0---|
Pm .   .   . .   . .   . .   . . .                   .   . . . .

===================================================================

Guitar 1
D#-----------------------------------------------------------------|
A#---------------------------------5-6-5---------------------------|
F#---------------------------------------7-6---6-7-----------------|
C#---------0-------0-0-0-0-0-0---------------8-----7-8-7---7-------|
G#---------0-------0-0-0-0-0-0---------------------------10-10-8-7-|
C#---------0-------0-0-0-0-0-0-------------------------------------|
Pm         .       . . . . . .

===================================================================

Guitar 1
D#-----------------------------------------------------------------|
A#-----------------------------------------------------------------|
F#-----------------------------------------------------------------|
C#-----------------------------------------------------------------|
G#-----------------------------------------------------------------|
C#-0---------------------------------------------------------------|

===================================================================
===================================================================
===================================================================


===================================================================
Guitar 2
===================================================================


Intro


===================================================================
Rest
===================================================================


===================================================================
===================================================================

Guitar 2 (Fade In)
D#-----------------------------------------------------------------|
A#-----------------------------------------------------------------|
F#-----------------------------------------------------------------|
C#-0~~~~~~~~~~~~~~~~~~~~~~~~~~~~~~~~~~~~~~~~~~~~~~~~~~~~~~-/12\~~~-|
G#-0~~~~~~~~~~~~~~~~~~~~~~~~~~~~~~~~~~~~~~~~~~~~~~~~~~~~~~-/12\~~~-|
C#-0~~~~~~~~~~~~~~~~~~~~~~~~~~~~~~~~~~~~~~~~~~~~~~~~~~~~~~-/12\~~~-|

===================================================================
===================================================================


Verse 1

Guitar 2
D#-----------------------------------------------------------------|
A#-----------------------------------------------------------------|
F#-----------------------------------------------------------------|
C#-3~~~~~~-0---0---0---0---3~~~~~~-0---0---------------------------|
G#-3~~~~~~-0---0---0---0---3~~~~~~-0---0-----------------------5---|
C#-3~~~~~~-0---0---0---0---3~~~~~~-0---0---3~~~~~~-1---0---3-------|
Pm         .   .   .   .           .   .

===================================================================

Guitar 2
D#-----------------------------------------------------------------|
A#-----------------------------------------------------------------|
F#-----------------------------------------------------------------|
C#-----------------------------------------------------------------|
G#-----------------------------------------------------1---0-------|
C#-0~~~~~~-0---6~~~~~~-7~~~~~~-3~~~~~~-0~~~~~~~~~~~~~~---------3---|

===================================================================

Guitar 2
D#-----------------------------------------------------------------|
A#-----------------------------------------------------------------|
F#-----------------------------------------------------------------|
C#-0~~~~~~-0~~~~~~-0---0---0~~~~~~-0-0-0-0-0~~~~~~-0~~~~~~-0---0---|
G#-0~~~~~~-0~~~~~~-0---0---0~~~~~~-0-0-0-0-0~~~~~~-0~~~~~~-0---0---|
C#-0~~~~~~-0~~~~~~-0---0---0~~~~~~-0-0-0-0-0~~~~~~-0~~~~~~-0---0---|
Pm .       .       .   .   .       . . . . .       .       .   .

===================================================================

Guitar 2
D#-----------------------------------------------------------------|
A#-----------------------------------------------------------------|
F#-----------------------------------------------------------------|
C#-----------------------------------------------------------------|
G#-----------------------------------------4~~~~~~-1---1---1---1---|
C#-0---0---7~~~~~~~~~~-0---5~~~~~~-0---0---------------------------|
Pm                                 .   .

===================================================================

Guitar 2
D#-----------------------------------------------------------------|
A#-----------------------------------------------------------------|
F#-----------------------------------------------------------------|
C#-----------------------------------------------------------------|
G#---------------------------------5~~~~~~~~~~~~~~-----------------|
C#-2---3---0---3---2---0---0---0-------------------0---0---0~~~~~~-|
Pm                                                 .   .

===================================================================

Guitar 2
D#-----------------------------------------------------------------|
A#-----------------------------------------------------------------|
F#-----------------------------------------------------------------|
C#-----------------------------------------------------------------|
G#-5~~~~~~-----6~~~~~~-----------------0~~~~~~-0~~~~~~-0-----------|
C#---------0-----------0~~~~~~-0---0---1~~~~~~-1~~~~~~-1---1---0---|
Pm         .                       .   .       .       .

===================================================================

Guitar 2
D#-----------------------------------------------------------------|
A#-----------------------------------------------------------------|
F#-----------------------------------------------------------------|
C#-----------------0---0---0~~~~~~-0-0-0-0-0~~~~~~-0~~~~~~-0---0---|
G#---------5~~~~~~-0---0---0~~~~~~-0-0-0-0-0~~~~~~-0~~~~~~-0---0---|
C#-4---0-----------0---0---0~~~~~~-0-0-0-0-0~~~~~~-0~~~~~~-0---0---|
Pm                 .   .   .       . . . . .       .       .   .

===================================================================

Guitar 2
D#-----------------------------------------------------------------|
A#-----------------------------------------------------------------|
F#-----------------------------------------------------------------|
C#-----------------------------------------------------------------|
G#---------------------------------5---0-----------0---------------|
C#-6---7---7---7---3---5---5---5-----------5---3-------5---3---1---|

===================================================================

Guitar 2
D#-----------------------------------------------------------------------|
A#-3--3--3--6-t10p6p3t10p6p3t10p6t9p8p6t9p8p6t9p6t11p10p9t11p10p9t11p10~-|
F#-----------------------------------------------------------------------|
C#-----------------------------------------------------------------------|
G#-----------------------------------------------------------------------|
C#-----------------------------------------------------------------------|

===================================================================

Guitar 2
D#-----------------------------------------------------------------|
A#-~~~~~~~-6---8---8-----------------------------------------------|
F#---------------------9---9---9---9---6---6---6---9---6---6---6---|
C#-----------------------------------------------------------------|
G#-----------------------------------------------------------------|
C#-----------------------------------------------------------------|

===================================================================

Guitar 2
D#-----------------------------------------------------------------|
A#-------------------------------------------------11--11--11--11--|
F#-7---7---7---7---7---7---7---7---11--12-12-12-12-----------------|
C#-----------------------------------------------------------------|
G#-----------------------------------------------------------------|
C#-----------------------------------------------------------------|

===================================================================

Guitar 2
D#-10--10--10--10------------------------------------------10--10--|
A#-------------------------------------------------11--11----------|
F#-----------------7---7---7---7---11--12-12-12-12-----------------|
C#-----------------------------------------------------------------|
G#-----------------------------------------------------------------|
C#-----------------------------------------------------------------|

===================================================================
===================================================================


Pre Chorus 1

Guitar 2
D#-10~~~~~~~~~~~~~~~~~~~~~~~~~~~~~~~~~~~~~~~~~~~~~~~~~~~~~~~~~~~~~~
A#-----------------------------------------------------------------|
F#-----------------------------------------------------------------|
C#-----------------------------------------------------------------|
G#-----------------------------------------------------------------|
C#-----------------------------------------------------------------|

===================================================================

Guitar 2
D#-10~~~~~~~~~~~~~~~~~~~~~~~~~~~~~~~~~~~~~~~~~~~~~~~~~~~~~~~~~~~~~~
A#-----------------------------------------------------------------|
F#-----------------------------------------------------------------|
C#-----------------------------------------------------------------|
G#-----------------------------------------------------------------|
C#-----------------------------------------------------------------|

===================================================================

Guitar 2
D#-----------------------------------------------------------------|
A#-----------------------------------------------------------------|
F#-----------------------------------------------------------------|
C#-0~~~~~~-0---0---0---------------0~~~~~~-0---0~~~~~~-0-----------|
G#-0~~~~~~-0---0---0---------------0~~~~~~-0---0~~~~~~-0-----------|
C#-0~~~~~~-0---0---0---------------0~~~~~~-0---0~~~~~~-0-----------|
Pm .       .   .   .               .       .   .       .

===================================================================

Guitar 2
D#-----------------------------------------------------------------|
A#-----------------------------------------------------------------|
F#-----------------------------------------------------------------|
C#-0~~~~~~-0---0-----------0-0-0-0-0~~~~-0~~~~-0~~~~-0-------------|
G#-0~~~~~~-0---0-----------0-0-0-0-0~~~~-0~~~~-0~~~~-0-------------|
C#-0~~~~~~-0---0-----------0-0-0-0-0~~~~-0~~~~-0~~~~-0-------------|
Pm .       .   .           . . . . .     .     .     .

===================================================================

Guitar 2
D#-----------------------------------------------------------------|
A#-----------------------------------------------------------------|
F#-----------------------------------------------------------------|
C#-0~~~~~~-0---0---0~~~~~~-0~~~~~~-0---0---0~~~~~~-0~~~~~~-0---0---|
G#-0~~~~~~-0---0---0~~~~~~-0~~~~~~-0---0---0~~~~~~-0~~~~~~-0---0---|
C#-0~~~~~~-0---0---0~~~~~~-0~~~~~~-0---0---0~~~~~~-0~~~~~~-0---0---|
Pm .       .   .   .       .       .   .   .       .       .   .

===================================================================

Guitar 2
D#-----------------------------------------------------------------|
A#-----------------------------------------------------------------|
F#-----------------------------------------------------------------|
C#-0~~~~~~-0~~~~~~-------------------------------------------------|
G#-0~~~~~~-0~~~~~~---------x-------x-------------------------------|
C#-0~~~~~~-0~~~~~~-------------------------x-------x---------------|
Pm .       .

===================================================================

Guitar 2
D#-----------------------------------------------------------------|
A#-----------------------------------------------------------------|
F#-----------------------------------------------------------------|
C#-----------------------------------------------------------------|
G#-----------------------------------------------------------------|
C#---------------------------------0~~~~~~-0---1~~~~~~~~~~/7~~~~~~-|

===================================================================

Guitar 2
D#-----------------------------------------------------------------|
A#-----------------------------------------------------------------|
F#-7---7---7---7---7---7---7---7---9~~~~~~-10~~~~~-9~~~~~~~~~~~~~~-|
C#-x---x---x---x---x---x---x---x---x-------x-------x---------------|
G#-5---5---5---5---5---5---5---5---7~~~~~~-8~~~~~~-7~~~~~~~~~~~~~~-|
C#-----------------------------------------------------------------|

===================================================================
===================================================================


Chorus 1

Guitar 2
D#-----------------------------------------------------------------|
A#-----------------------------------------------------------------|
F#-----------------------------------------------------------------|
C#-0~~~~~~-0---0---0~~~~~~-0---0---0---0---0~~~~~~-0---5~~~~~~~~~~-|
G#-0~~~~~~-0---0---0~~~~~~-0---0---0---0---0~~~~~~-0---5~~~~~~~~~~-|
C#-0~~~~~~-0---0---0~~~~~~-0---0---0---0---0~~~~~~-0---5~~~~~~~~~~-|
Pm         .   .           .   .   .   .           .

===================================================================

Guitar 2
D#-----------------------------------------------------------------|
A#-----------------------------------------------------------------|
F#-----------------------------------------------------------------|
C#-7~~~~~~-7---7---7~~~~~~-7---7---7---7---7~~~~~~-3~~~~~~-3~~~~~~-|
G#-7~~~~~~-7---7---7~~~~~~-7---7---7---7---7~~~~~~-3~~~~~~-3~~~~~~-|
C#-7~~~~~~-7---7---7~~~~~~-7---7---7---7---7~~~~~~-3~~~~~~-3~~~~~~-|
Pm         .   .           .   .   .   .

===================================================================

Guitar 2
D#-----------------------------------------------------------------|
A#-----------------------------------------------------------------|
F#-----------------------------------------------------------------|
C#-8~~~~~~-8---8---8~~~~~~-8---8---8---8---8~~~~~~-8---8~~~~~~~~~~-|
G#-8~~~~~~-8---8---8~~~~~~-8---8---8---8---8~~~~~~-8---8~~~~~~~~~~-|
C#-8~~~~~~-8---8---8~~~~~~-8---8---8---8---8~~~~~~-8---8~~~~~~~~~~-|
Pm         .   .           .   .   .   .           .

===================================================================

Guitar 2
D#-----------------------------------------------------------------|
A#-----------------------------------------------------------------|
F#-----------------------------------------------------------------|
C#-8~~~~~~-8---8---8~~~~~~-8---8---8---8---0~~~~~~-3~~~~~~-5~~~~~~-|
G#-8~~~~~~-8---8---8~~~~~~-8---8---8---8---0~~~~~~-3~~~~~~-5~~~~~~-|
C#-8~~~~~~-8---8---8~~~~~~-8---8---8---8---0~~~~~~-3~~~~~~-5~~~~~~-|
Pm         .   .           .   .   .   .

===================================================================

Guitar 2
D#-----------------------------------------------------------------|
A#-----------------------------------------------------------------|
F#-----------------------------------------------------------------|
C#-0~~~~~~-0---0---0~~~~~~-0---0---0---0---0~~~~~~-0---5~~~~~~~~~~-|
G#-0~~~~~~-0---0---0~~~~~~-0---0---0---0---0~~~~~~-0---5~~~~~~~~~~-|
C#-0~~~~~~-0---0---0~~~~~~-0---0---0---0---0~~~~~~-0---5~~~~~~~~~~-|
Pm         .   .           .   .   .   .           .

===================================================================

Guitar 2
D#-----------------------------------------------------------------|
A#-----------------------------------------------------------------|
F#-----------------------------------------------------------------|
C#-7~~~~~~-7---7---7~~~~~~-7---7---7---7---7~~~~~~-3~~~~~~-3~~~~~~-|
G#-7~~~~~~-7---7---7~~~~~~-7---7---7---7---7~~~~~~-3~~~~~~-3~~~~~~-|
C#-7~~~~~~-7---7---7~~~~~~-7---7---7---7---7~~~~~~-3~~~~~~-3~~~~~~-|
Pm         .   .           .   .   .   .

===================================================================

Guitar 2
D#-----------------------------------------------------------------|
A#-----------------------------------------------------------------|
F#-----------------------------------------------------------------|
C#-8~~~~~~-8---8---8~~~~~~-8---8---8---8---8~~~~~~-8---8~~~~~~~~~~-|
G#-8~~~~~~-8---8---8~~~~~~-8---8---8---8---8~~~~~~-8---8~~~~~~~~~~-|
C#-8~~~~~~-8---8---8~~~~~~-8---8---8---8---8~~~~~~-8---8~~~~~~~~~~-|
Pm         .   .           .   .   .   .           .

===================================================================

Guitar 2
D#-----------------------------------------------------------------|
A#-----------------------------------------------------------------|
F#-----------------------------------------------------------------|
C#-8~~~~~~-8---8---8\~~~~~~~~~~~~~-1~~~~~~-1~~~~~~-1---1---1---1---|
G#-8~~~~~~-8---8---8\~~~~~~~~~~~~~-1~~~~~~-1~~~~~~-1---1---1---1---|
C#-8~~~~~~-8---8---8\~~~~~~~~~~~~~-1~~~~~~-1~~~~~~-1---1---1---1---|
Pm         .   .                           .       .   .   .   .

===================================================================
===================================================================


Break Off 1

Guitar 2
D#-----------------------------------------------------------------|
A#-----------------------------------------------------------------|
F#---------------------5~~~~~~~~~~~~~~~~~--------------------------|
C#-3~~~~~~~~~~-0---0---4~~~~~~~~~~~~~~~~~--0~~~~~~-----------------|
G#-3~~~~~~~~~~-0---0---3~~~~~~~~~~~~~~~~~--0~~~~~~-----------------|
C#-3~~~~~~~~~~-0---0-----------------------0~~~~~~-5*b~~~~~~~~~~~~-|
Pm             .   .                       .

===================================================================
===================================================================


Verse 2

Guitar 2
D#-----------------------------------------------------------------|
A#-----------------------------------------------------------------|
F#-----------------------------------------------------------------|
C#-3~~~~~~-0---0---0---0---3~~~~~~-0---0---------------------------|
G#-3~~~~~~-0---0---0---0---3~~~~~~-0---0-----------------------5---|
C#-3~~~~~~-0---0---0---0---3~~~~~~-0---0---3~~~~~~-1---0---3-------|
Pm         .   .   .   .           .   .

===================================================================

Guitar 2
D#-----------------------------------------------------------------|
A#-----------------------------------------------------------------|
F#-----------------------------------------------------------------|
C#-----------------------------------------------------------------|
G#-----------------------------------------------------1---0-------|
C#-0~~~~~~-0---6~~~~~~-7~~~~~~-3~~~~~~-0~~~~~~~~~~~~~~---------3---|

===================================================================

Guitar 2
D#-----------------------------------------------------------------|
A#-----------------------------------------------------------------|
F#-----------------------------------------------------------------|
C#-0~~~~~~-0~~~~~~-0---0---0~~~~~~-0-0-0-0-0~~~~~~-0~~~~~~-0---0---|
G#-0~~~~~~-0~~~~~~-0---0---0~~~~~~-0-0-0-0-0~~~~~~-0~~~~~~-0---0---|
C#-0~~~~~~-0~~~~~~-0---0---0~~~~~~-0-0-0-0-0~~~~~~-0~~~~~~-0---0---|
Pm .       .       .   .   .       . . . . .       .       .   .

===================================================================

Guitar 2
D#-----------------------------------------------------------------|
A#-----------------------------------------------------------------|
F#-----------------------------------------------------------------|
C#-----------------------------------------------------------------|
G#-----------------------------------------4~~~~~~-1---1---1---1---|
C#-0---0---7~~~~~~~~~~-0---5~~~~~~-0---0---------------------------|
Pm                                 .   .

===================================================================

Guitar 2
D#-----------------------------------------------------------------|
A#-----------------------------------------------------------------|
F#-----------------------------------------------------------------|
C#-----------------------------------------------------------------|
G#---------------------------------5~~~~~~~~~~~~~~-----------------|
C#-2---3---0---3---2---0---0---0-------------------0---0---0~~~~~~-|
Pm                                                 .   .

===================================================================

Guitar 2
D#-----------------------------------------------------------------|
A#-----------------------------------------------------------------|
F#-----------------------------------------------------------------|
C#-----------------------------------------------------------------|
G#-5~~~~~~-----6~~~~~~-----------------0~~~~~~-0~~~~~~-0-----------|
C#---------0-----------0~~~~~~-0---0---1~~~~~~-1~~~~~~-1---1---0---|
Pm         .                       .   .       .       .

===================================================================

Guitar 2
D#-----------------------------------------------------------------|
A#-----------------------------------------------------------------|
F#-----------------------------------------------------------------|
C#-----------------0---0---0~~~~~~-0-0-0-0-0~~~~~~-0~~~~~~-0---0---|
G#---------5~~~~~~-0---0---0~~~~~~-0-0-0-0-0~~~~~~-0~~~~~~-0---0---|
C#-4---0-----------0---0---0~~~~~~-0-0-0-0-0~~~~~~-0~~~~~~-0---0---|
Pm                 .   .   .       . . . . .       .       .   .

===================================================================

Guitar 2
D#-----------------------------------------------------------------|
A#-----------------------------------------------------------------|
F#-----------------------------------------------------------------|
C#-----------------------------------------------------------------|
G#---------------------------------5---0-----------0---------------|
C#-6---7---7---7---3---5---5---5-----------5---3-------5---3---1---|

===================================================================
===================================================================


Bridge 1

Guitar 2
D#-----------------------------------------------------------------|
A#-----------------------------------------------------------------|
F#-----------------------------------------------------------------|
C#-----------------------------------------------------------------|
G#-5---5---5---5---5---5---5---5---5---5---5---5---5---5---5---5---|
C#-----------------------------------------------------------------|

===================================================================

Guitar 2
D#-----------------------------------------------------------------|
A#-----------------------------------------------------------------|
F#-----------------------------------------------------------------|
C#-----------------------------------------------------------------|
G#-3---3---3---3---3---3---3---3---3---3---3---3---3---3---3---3---|
C#-----------------------------------------------------------------|

===================================================================

Guitar 2
D#-----------------------------------------------------------------|
A#-----------------------------------------------------------------|
F#-----------------------------------------------------------------|
C#-----------------------------------------------------------------|
G#-1---1---1---1---1---1---1---1---1---1---1---1---1---1---1---1---|
C#-----------------------------------------------------------------|

===================================================================

Guitar 2
D#-----------------------------------------------------------------|
A#-----------------------------------------------------------------|
F#-----------------------------------------------------------------|
C#---------------------------------2---2---2---2---3---3---3---3---|
G#-3---3---3---3---3---3---3---3-----------------------------------|
C#-----------------------------------------------------------------|

===================================================================

Guitar 2
D#-----------------------------------------------------------------|
A#-----------------------------------------------------------------|
F#-----------------------------------------------------------------|
C#-----------------------------------------------------------------|
G#-5---5---5---5---5---5---5---5---5---5---5---5---5---5---5---5---|
C#-----------------------------------------------------------------|

===================================================================

Guitar 2
D#-----------------------------------------------------------------|
A#-----------------------------------------------------------------|
F#-----------------------------------------------------------------|
C#-----------------------------------------------------------------|
G#-3---3---3---3---3---3---3---3---3---3---3---3---3---3---3---3---|
C#-----------------------------------------------------------------|

===================================================================

Guitar 2
D#-----------------------------------------------------------------|
A#-----------------------------------------------------------------|
F#-----------------------------------------------------------------|
C#-3---3---3---3---3---3---3---3---2---2---2---2---2---2---2---2---|
G#-----------------------------------------------------------------|
C#-----------------------------------------------------------------|

===================================================================

Guitar 2
D#-----------------------------------------------------------------|
A#-----------------------------------------------------------------|
F#-3---3---3---3---3---3---3---3---2---2---2---2---2---2---2---2---|
C#-----------------------------------------------------------------|
G#-----------------------------------------------------------------|
C#-----------------------------------------------------------------|

===================================================================

Guitar 2
D#-----------------------------------------------------------------|
A#-----------------------------------------------------------------|
F#-----------------------------------------------------------------|
C#-----------------------------------------------------------------|
G#-5---5---5---5---5---5---5---5---5---5---5---5---5---5---5---5---|
C#-----------------------------------------------------------------|

===================================================================

Guitar 2
D#-----------------------------------------------------------------|
A#-----------------------------------------------------------------|
F#-----------------------------------------------------------------|
C#-----------------------------------------------------------------|
G#-3---3---3---3---3---3---3---3---3---3---3---3---3---3---3---3---|
C#-----------------------------------------------------------------|

===================================================================

Guitar 2
D#-----------------------------------------------------------------|
A#-----------------------------------------------------------------|
F#-----------------------------------------------------------------|
C#-----------------------------------------------------------------|
G#-1---1---1---1---1---1---1---1---1---1---1---1---1---1---1---1---|
C#-----------------------------------------------------------------|

===================================================================

Guitar 2
D#-----------------------------------------------------------------|
A#-----------------------------------------------------------------|
F#-----------------------------------------------------------------|
C#---------------------------------2---2---2---2---3---3---3---3---|
G#-3---3---3---3---3---3---3---3-----------------------------------|
C#-----------------------------------------------------------------|

===================================================================

Guitar 2
D#-----------------------------------------------------------------|
A#-----------------------------------------------------------------|
F#-----------------------------------------------------------------|
C#-----------------------------------------------------------------|
G#-5---5---5---5---5---5---5---5---5---5---5---5---5---5---5---5---|
C#-----------------------------------------------------------------|

===================================================================

Guitar 2
D#-----------------------------------------------------------------|
A#-----------------------------------------------------------------|
F#-----------------------------------------------------------------|
C#-----------------------------------------------------------------|
G#-3---3---3---3---3---3---3---3---3---3---3---3---3---3---3---3---|
C#-----------------------------------------------------------------|

===================================================================

Guitar 2
D#-----------------------------------------------------------------|
A#-----------------------------------------------------------------|
F#-----------------------------------------------------------------|
C#-5---5---5---5---5---5---5---5---7---7---7---7---8---8---8---8---|
G#-----------------------------------------------------------------|
C#-----------------------------------------------------------------|

===================================================================

Guitar 2
D#-----------------------------------------------------------------|
A#-----------------------------------------------------------------|
F#-----------------------------------------------------------------|
C#-7~~~~~~~~~~~~~~~~~~~~~~~~~~~~~~~~~~~~~~~~~~~~~~~~~~~~~~~~~~~~~~-
G#-----------------------------------------------------------------|
C#-----------------------------------------------------------------|

===================================================================
===================================================================


Breakdown 1

Guitar 2
D#-----------------------------------------------------------------|
A#-----------------------------------------------------------------|
F#-----------------------------------------------------------------|
C#-0~~~~-0~~~~-0---0-0-0~~~~-0-0---0-0-0~~~~-0-0-------------------|
G#-0~~~~-0~~~~-0---0-0-0~~~~-0-0---0-0-0~~~~-0-0---------------7-8-|
C#-0~~~~-0~~~~-0---0-0-0~~~~-0-0---0-0-0~~~~-0-0---5-7-7-8-7-8-----|
Pm .     .     .   . . .     . .   . . .     . .   . . . . . . . .

===================================================================

Guitar 2
D#-------------------------------------------------0~~~~~~~~~~~~~~-|
A#-------------------------------------------------------6~~~~~~~~-|
F#-------------------------------------------------------------6~~-|
C#-0~~~~-0~~~~-0---0-0-0~~~~-0-0---0-0-0~~~~-0-0-------------------|
G#-0~~~~-0~~~~-0---0-0-0~~~~-0-0---0-0-0~~~~-0-0-------------------|
C#-0~~~~-0~~~~-0---0-0-0~~~~-0-0---0-0-0~~~~-0-0-------------------|
Pm .     .     .   . . .     . .   . . .     . .

===================================================================

Guitar 2                                           (Fade In)
D#-----------------------------------------------------------------|
A#-----------------------------------------------------------------|
F#-----------------------------------------------------------------|
C#-0~~~~-0~~~~-0---0-0-0~~~~-0-0---0-0-0~~~~-0-0---0~~~~~~~~~~~~~~-|
G#-0~~~~-0~~~~-0---0-0-0~~~~-0-0---0-0-0~~~~-0-0---0~~~~~~~~~~~~~~-|
C#-0~~~~-0~~~~-0---0-0-0~~~~-0-0---0-0-0~~~~-0-0---0~~~~~~~~~~~~~~-|
Pm .     .     .   . . .     . .   . . .     . .

===================================================================

Guitar 2
D#-----------------------------------------------------------------|
A#-----------------------------------------------------------------|
F#-----------------------------------------------------------------|
C#-0~~~~-0~~~~-0---0-0-0~~~~-0-0---0-0-0~~~~-0-0-------------------|
G#-0~~~~-0~~~~-0---0-0-0~~~~-0-0---0-0-0~~~~-0-0-------------------|
C#-0~~~~-0~~~~-0---0-0-0~~~~-0-0---0-0-0~~~~-0-0-------------------|
Pm .     .     .   . . .     . .   . . .     . .

===================================================================
===================================================================


Chorus 2

Guitar 2
D#-----------------------------------------------------------------|
A#-----------------------------------------------------------------|
F#-----------------------------------------------------------------|
C#-0~~~~~~-0---0---0~~~~~~-0---0---0---0---0~~~~~~-0---5~~~~~~~~~~-|
G#-0~~~~~~-0---0---0~~~~~~-0---0---0---0---0~~~~~~-0---5~~~~~~~~~~-|
C#-0~~~~~~-0---0---0~~~~~~-0---0---0---0---0~~~~~~-0---5~~~~~~~~~~-|
Pm         .   .           .   .   .   .           .

===================================================================

Guitar 2
D#-----------------------------------------------------------------|
A#-----------------------------------------------------------------|
F#-----------------------------------------------------------------|
C#-7~~~~~~-7---7---7~~~~~~-7---7---7---7---7~~~~~~-3~~~~~~-3~~~~~~-|
G#-7~~~~~~-7---7---7~~~~~~-7---7---7---7---7~~~~~~-3~~~~~~-3~~~~~~-|
C#-7~~~~~~-7---7---7~~~~~~-7---7---7---7---7~~~~~~-3~~~~~~-3~~~~~~-|
Pm         .   .           .   .   .   .

===================================================================

Guitar 2
D#-----------------------------------------------------------------|
A#-----------------------------------------------------------------|
F#-----------------------------------------------------------------|
C#-8~~~~~~-8---8---8~~~~~~-8---8---8---8---8~~~~~~-8---8~~~~~~~~~~-|
G#-8~~~~~~-8---8---8~~~~~~-8---8---8---8---8~~~~~~-8---8~~~~~~~~~~-|
C#-8~~~~~~-8---8---8~~~~~~-8---8---8---8---8~~~~~~-8---8~~~~~~~~~~-|
Pm         .   .           .   .   .   .           .

===================================================================

Guitar 2
D#-----------------------------------------------------------------|
A#-----------------------------------------------------------------|
F#-----------------------------------------------------------------|
C#-8~~~~~~-8---8---8~~~~~~-8---8---8---8---0~~~~~~-3~~~~~~-5~~~~~~-|
G#-8~~~~~~-8---8---8~~~~~~-8---8---8---8---0~~~~~~-3~~~~~~-5~~~~~~-|
C#-8~~~~~~-8---8---8~~~~~~-8---8---8---8---0~~~~~~-3~~~~~~-5~~~~~~-|
Pm         .   .           .   .   .   .

===================================================================

Guitar 2
D#-----------------------------------------------------------------|
A#-----------------------------------------------------------------|
F#-----------------------------------------------------------------|
C#-0~~~~~~-0---0---0~~~~~~-0---0---0---0---0~~~~~~-0---5~~~~~~~~~~-|
G#-0~~~~~~-0---0---0~~~~~~-0---0---0---0---0~~~~~~-0---5~~~~~~~~~~-|
C#-0~~~~~~-0---0---0~~~~~~-0---0---0---0---0~~~~~~-0---5~~~~~~~~~~-|
Pm         .   .           .   .   .   .           .

===================================================================

Guitar 2
D#-----------------------------------------------------------------|
A#-----------------------------------------------------------------|
F#-----------------------------------------------------------------|
C#-7~~~~~~-7---7---7~~~~~~-7---7---7---7---7~~~~~~-3~~~~~~-3~~~~~~-|
G#-7~~~~~~-7---7---7~~~~~~-7---7---7---7---7~~~~~~-3~~~~~~-3~~~~~~-|
C#-7~~~~~~-7---7---7~~~~~~-7---7---7---7---7~~~~~~-3~~~~~~-3~~~~~~-|
Pm         .   .           .   .   .   .

===================================================================

Guitar 2
D#-----------------------------------------------------------------|
A#-----------------------------------------------------------------|
F#-----------------------------------------------------------------|
C#-8~~~~~~-8---8---8~~~~~~-8---8---8---8---8~~~~~~-8---8~~~~~~~~~~-|
G#-8~~~~~~-8---8---8~~~~~~-8---8---8---8---8~~~~~~-8---8~~~~~~~~~~-|
C#-8~~~~~~-8---8---8~~~~~~-8---8---8---8---8~~~~~~-8---8~~~~~~~~~~-|
Pm         .   .           .   .   .   .           .

===================================================================

Guitar 2
D#-----------------------------------------------------------------|
A#-----------------------------------------------------------------|
F#-----------------------------------------------------------------|
C#-8~~~~~~-8---8---8~~~~~~-8~~~~~~---------------------------------|
G#-8~~~~~~-8---8---8~~~~~~-8~~~~~~---------------------------------|
C#-8~~~~~~-8---8---8~~~~~~-8~~~~~~-10--10--10--10--10--10--10--10--|
Pm         .   .

===================================================================

Guitar 2
D#-----------------------------------------------------------------|
A#-----------------13~~~~~-----------------13~~~~~-----------------|
F#-9~~~~~~-10~~~~~---------9~~~~~~-10~~~~~---------9~~~~~~-10~~~~~-|
C#-----------------------------------------------------------------|
G#-----------------------------------------------------------------|
C#-----------------------------------------------------------------|
Pm .       .       .       .       .       .       .       .

===================================================================

Guitar 2
D#-----------------------------------------------------------------|
A#-10~~~~~-11~~~~~---------10~~~~~-11~~~~~-13~~~~~-----------------|
F#-----------------10~~~~~-------------------------9~~~~~~-10~~~~~-|
C#-----------------------------------------------------------------|
G#-----------------------------------------------------------------|
C#-----------------------------------------------------------------|
Pm .       .       .       .       .       .       .       .

===================================================================

Guitar 2
D#-17~~~~~~~~~~~~~~~~~~~~~-15~~~~~~~~~~~~~~~~~~~~~------------------|
A#-------------------------------------------------15~~~~~~~~~~~~~~-|
F#------------------------------------------------------------------|
C#------------------------------------------------------------------|
G#------------------------------------------------------------------|
C#------------------------------------------------------------------|

===================================================================

Guitar 2
D#-----------------------------------------------------------------|
A#-----------------------------------------------------------------|
F#-17~~~~~~~~~~~~~~~~~~~~~~~~~~~~~~~~~~~~~~~~~~~~~~~~~~~~~~~~~~~~~-
C#-----------------------------------------------------------------|
G#-----------------------------------------------------------------|
C#-----------------------------------------------------------------|

===================================================================

Guitar 2
D#-----------------------------------------------------------------|
A#-----------------13~~~~~-----------------13~~~~~-----------------|
F#-9~~~~~~-10~~~~~---------9~~~~~~-10~~~~~---------9~~~~~~-10~~~~~-|
C#-----------------------------------------------------------------|
G#-----------------------------------------------------------------|
C#-----------------------------------------------------------------|
Pm .       .       .       .       .       .       .       .

===================================================================

Guitar 2
D#-----------------------------------------------------------------|
A#-10~~~~~-11~~~~~---------10~~~~~-11~~~~~-13~~~~~-----------------|
F#-----------------10~~~~~-------------------------9~~~~~~-10~~~~~-|
C#-----------------------------------------------------------------|
G#-----------------------------------------------------------------|
C#-----------------------------------------------------------------|
Pm .       .       .       .       .       .       .       .

===================================================================

Guitar 2
D#-17~~~~~~~~~~~~~~~~~~~~~-15~~~~~~~~~~~~~~~~~~~~~------------------|
A#-------------------------------------------------15~~~~~~~~~~~~~~-|
F#------------------------------------------------------------------|
C#------------------------------------------------------------------|
G#------------------------------------------------------------------|
C#------------------------------------------------------------------|

===================================================================

Guitar 2
D#-----------------------------------------------------------------|
A#-----------------------------------------------------------------|
F#-17~~~~~~~~~~~~~-17~~~~~-17~~~~~-17~~~~~-17~~~~~-17~~~~~-17~~~~~-|
C#-----------------------------------------------------------------|
G#-----------------------------------------------------------------|
C#-----------------------------------------------------------------|

===================================================================
===================================================================


Break Off 2

Guitar 2
D#-----------------------------------------------------------------
A#-15~~~~~~~~~~~~~~~~~~~~~~~~~~~~~~~~~~~~~~~~~~~~~\~~~~~~~~~~~~~~~-
F#-----------------------------------------------------------------|
C#-----------------------------------------------------------------|
G#-----------------------------------------------------------------|
C#-----------------------------------------------------------------|

===================================================================

Guitar 2
D#-----------------------------------------------------------------|
A#-----------------------------------------------------------------|
F#-----------------------------------------------------------------|
C#-0~~~~~~~~~~~~~~~~~~~~~~~~~~~~~~~~~~~~~~~~~~~~~~-----------------|
G#-0~~~~~~~~~~~~~~~~~~~~~~~~~~~~~~~~~~~~~~~~~~~~~~-----------------|
C#-0~~~~~~~~~~~~~~~~~~~~~~~~~~~~~~~~~~~~~~~~~~~~~~-----------------|

===================================================================
===================================================================


Bridge 2

Guitar 2
D#-----------------------------------------------------------------|
A#-----------------------------------------------------------------|
F#-----------------------------------------------------------------|
C#-0~~-0-0-0~~-0~~-0~~-0-0-0-0-0-0-0-0~~-0~~-0-0-0-0---0---0-0-0-0-|
G#-0~~-0-0-0~~-0~~-0~~-0-0-0-0-0-0-0-0~~-0~~-0-0-0-0---0---0-0-0-0-|
C#-0~~-0-0-0~~-0~~-0~~-0-0-0-0-0-0-0-0~~-0~~-0-0-0-0---0---0-0-0-0-|
Pm .   . . .   .   .   . . . . . . . .   .   . . . .   .   . . . .

===================================================================

Guitar 2
D#-----------------------------------------------------------------|
A#-----------------------------------------------------------------|
F#-----------------------------------------------------------------|
C#-0-------0-------0-0-0-0-0-0---------0-0-0-0---0---0-0-0-0-0---0-|
G#-0-------0-------0-0-0-0-0-0---------0-0-0-0---0---0-0-0-0-0---0-|
C#-0-------0-------0-0-0-0-0-0---------0-0-0-0---0---0-0-0-0-0---0-|
Pm .       .       . . . . . .         . . . .   .   . . . . .   .

===================================================================

Guitar 2
D#-----------------------------------------------------------------|
A#-----------------------------------------------------------------|
F#-----------------------------------------------------------------|
C#-0~~-0-0-0~~-0~~-0~~-0-0-0-0-0-0-0-0~~-0~~-0-0-0-0---0---0-0-0-0-|
G#-0~~-0-0-0~~-0~~-0~~-0-0-0-0-0-0-0-0~~-0~~-0-0-0-0---0---0-0-0-0-|
C#-0~~-0-0-0~~-0~~-0~~-0-0-0-0-0-0-0-0~~-0~~-0-0-0-0---0---0-0-0-0-|
Pm .   . . .   .   .   . . . . . . . .   .   . . . .   .   . . . .

===================================================================

Guitar 2
D#-----------------------------------------------------------------|
A#-----------------------------------------------------------------|
F#-----------------------------------------------------------------|
C#-0---------------------------------------------------------------|
G#-0---------------------------------------------------------------|
C#-0---------------------------------------------------------------|
Pm .

===================================================================
===================================================================


Breakdown 2

Guitar 2
D#-----------------------------------------------------------------|
A#-----------------------------------------------------------------|
F#-----------------------------------------------------------------|
C#-0---------------0-----------------------------------------------|
G#-0---------------0---------------1~~~~~~~~~~~~~~-0~~~~~~~~~~~~~~-|
C#-0---------------0---------------0~~~~~~~~~~~~~~-0~~~~~~~~~~~~~~-|
Pm                                 .               .

===================================================================

Guitar 2
D#-----------------------------------------------------------------|
A#-----------------------------------------------------------------|
F#-----------------------------------------------------------------|
C#-0~~~~~~-0-0-0-0-------------------------------------------------|
G#-0~~~~~~-0-0-0-0---------------------------------1---1---1~~~~~~-|
C#-0~~~~~~-0-0-0-0-0~~~~~~-0~~~~~~-8---7---0~~~~~~-3---3---3~~~~~~-|
Pm .       . . . .                                 .   .   .

===================================================================

Guitar 2
D#-----------------------------------------------------------------|
A#-----------------------------------------------------------------|
F#-----------------------------------------------------------------|
C#-------------------------------------------------0---0---0---0---|
G#-------------------------------------------------0---0---0---0---|
C#-8~~~~~~-0---5~~~~~~-0---3~~~~~~-1---1---1~~~~~~-0---0---0---0---|
Pm         .           .           .   .           .   .   .   .

===================================================================

Guitar 2
D#-----------------------------------------------------------------|
A#-----------------------------------------------------------------|
F#-----------------------------------------------------------------|
C#-----0---0-------0---0---0---0-------0---0-------3---3-------3---|
G#-----0---0-------0---0---0---0-------0---0-------3---3-------3---|
C#-----0---0-------0---0---0---0-------0---0-------3---3-------3---|
Pm     .   .       .   .   .   .       .   .       .   .       .

===================================================================

Guitar 2
D#-----------------------------------------------------------------|
A#-----------------------------------------------------------------|
F#-----------------------------------------------------------------|
C#-3---0---0-------x-------x-------0~~~~~~~~~~~~~~-0~~~~~~~~~~~~~~-|
G#-3---0---0-------x-------x-------0~~~~~~~~~~~~~~-0~~~~~~~~~~~~~~-|
C#-3---0---0-------x-------x-------0~~~~~~~~~~~~~~-0~~~~~~~~~~~~~~-|
Pm .   .   .

===================================================================

Guitar 2
D#-----------------------------------------------------------------|
A#-----------------------------------------------------------------|
F#-----------------------------------------------------------------|
C#-----------------------------------------------------------------|
G#-------------------------x---------------------------------------|
C#-0~~~~~~-0~~~~~~-0~~~~~~---------x-------0~~~~~~-0---------------|

===================================================================

Guitar 2 (Fade In)
D#------------------------------------------------------------------|
A#------------------------------------------------------------------|
F#------------------------------------------------------------------|
C#-0~~~~~~~~~~~~~~~~~~~~~~~~~~~~~~-3---3---3------------------------|
G#-0~~~~~~~~~~~~~~~~~~~~~~~~~~~~~~-3---3---3-------0---0---0---0~~~-|
C#-0~~~~~~~~~~~~~~~~~~~~~~~~~~~~~~-3---3---3-------1---1---1---1~~~-|
Pm                                 .   .   .       .   .   .   .

===================================================================

Guitar 2
D#-----------------------------------------------------------------|
A#-----------------------------------------------------------------|
F#-----------------------------------------------------------------|
C#-----------------------------------------------------------------|
G#-~~~-0---0~~~~~~-------------------------------------------------|
C#-~~~-1---1~~~~~~-13~~~~~-10--12~~~~~-8---10~~~~~-7---7~~~~~~~~~~-|
Pm     .   .

===================================================================
===================================================================


Chorus 3

Guitar 2 (Fade In)
D#-----------------------------------------------------------------|
A#-----------------------------------------------------------------|
F#-----------------------------------------------------------------|
C#-0~~~~~~-0---0---0~~~~~~-0---0---0---0---0~~~~~~-0---5~~~~~~~~~~-|
G#-0~~~~~~-0---0---0~~~~~~-0---0---0---0---0~~~~~~-0---5~~~~~~~~~~-|
C#-0~~~~~~-0---0---0~~~~~~-0---0---0---0---0~~~~~~-0---5~~~~~~~~~~-|
Pm         .   .           .   .   .   .           .

===================================================================

Guitar 2
D#-----------------------------------------------------------------|
A#-----------------------------------------------------------------|
F#-----------------------------------------------------------------|
C#-7~~~~~~-7---7---7~~~~~~-7---7---7---7---7~~~~~~-3~~~~~~-3~~~~~~-|
G#-7~~~~~~-7---7---7~~~~~~-7---7---7---7---7~~~~~~-3~~~~~~-3~~~~~~-|
C#-7~~~~~~-7---7---7~~~~~~-7---7---7---7---7~~~~~~-3~~~~~~-3~~~~~~-|
Pm         .   .           .   .   .   .

===================================================================

Guitar 2
D#-----------------------------------------------------------------|
A#-----------------------------------------------------------------|
F#-----------------------------------------------------------------|
C#-8~~~~~~-8---8---8~~~~~~-8---8---8---8---8~~~~~~-8---8~~~~~~~~~~-|
G#-8~~~~~~-8---8---8~~~~~~-8---8---8---8---8~~~~~~-8---8~~~~~~~~~~-|
C#-8~~~~~~-8---8---8~~~~~~-8---8---8---8---8~~~~~~-8---8~~~~~~~~~~-|
Pm         .   .           .   .   .   .           .

===================================================================

Guitar 2
D#-----------------------------------------------------------------|
A#-----------------------------------------------------------------|
F#-----------------------------------------------------------------|
C#-8~~~~~~-8---8---8~~~~~~-8---8-----------------------------------|
G#-8~~~~~~-8---8---8~~~~~~-8---8-----------------------------------|
C#-8~~~~~~-8---8---8~~~~~~-8---8-----------------------------------|
Pm         .   .           .   .

===================================================================

Guitar 2
D#-----------------------------------------------------------------|
A#-----------------------------------------------------------------|
F#-----------------------------------------------------------------|
C#-0~~~~~~-0---0---0~~~~~~-0---0---0---0---0~~~~~~-0---5~~~~~~~~~~-|
G#-0~~~~~~-0---0---0~~~~~~-0---0---0---0---0~~~~~~-0---5~~~~~~~~~~-|
C#-0~~~~~~-0---0---0~~~~~~-0---0---0---0---0~~~~~~-0---5~~~~~~~~~~-|
Pm         .   .           .   .   .   .           .

===================================================================

Guitar 2
D#-----------------------------------------------------------------|
A#-----------------------------------------------------------------|
F#-----------------------------------------------------------------|
C#-7~~~~~~-7---7---7~~~~~~-7---7---7---7---7~~~~~~-3~~~~~~-3~~~~~~-|
G#-7~~~~~~-7---7---7~~~~~~-7---7---7---7---7~~~~~~-3~~~~~~-3~~~~~~-|
C#-7~~~~~~-7---7---7~~~~~~-7---7---7---7---7~~~~~~-3~~~~~~-3~~~~~~-|
Pm         .   .           .   .   .   .

===================================================================

Guitar 2
D#-----------------------------------------------------------------|
A#-----------------------------------------------------------------|
F#-----------------------------------------------------------------|
C#-8~~~~~~-8---8---8~~~~~~-8---8---8---8---8~~~~~~-8---8~~~~~~~~~~-|
G#-8~~~~~~-8---8---8~~~~~~-8---8---8---8---8~~~~~~-8---8~~~~~~~~~~-|
C#-8~~~~~~-8---8---8~~~~~~-8---8---8---8---8~~~~~~-8---8~~~~~~~~~~-|
Pm         .   .           .   .   .   .           .

===================================================================

Guitar 2
D#-----------------------------------------------------------------|
A#-----------------------------------------------------------------|
F#-----------------------------------------------------------------|
C#-8~~~~~~-8---8---8~~~~~~-8~~~~~~-ps\~~~~~~~~~~~~~~~~~~~~~~~~~~~~-|
G#-8~~~~~~-8---8---8~~~~~~-8~~~~~~-ps\~~~~~~~~~~~~~~~~~~~~~~~~~~~~-|
C#-8~~~~~~-8---8---8~~~~~~-8~~~~~~-ps\~~~~~~~~~~~~~~~~~~~~~~~~~~~~-|
Pm         .   .

===================================================================

Guitar 2
D#-----------------------------------------------------------------|
A#-----------------13~~~~~-----------------13~~~~~-----------------|
F#-9~~~~~~-10~~~~~---------9~~~~~~-10~~~~~---------9~~~~~~-10~~~~~-|
C#-----------------------------------------------------------------|
G#-----------------------------------------------------------------|
C#-----------------------------------------------------------------|
Pm .       .       .       .       .       .       .       .

===================================================================

Guitar 2
D#-----------------------------------------------------------------|
A#-10~~~~~-11~~~~~---------10~~~~~-11~~~~~-13~~~~~-----------------|
F#-----------------10~~~~~-------------------------9~~~~~~-10~~~~~-|
C#-----------------------------------------------------------------|
G#-----------------------------------------------------------------|
C#-----------------------------------------------------------------|
Pm .       .       .       .       .       .       .       .

===================================================================

Guitar 2
D#-17~~~~~~~~~~~~~~~~~~~~~-15~~~~~~~~~~~~~~~~~~~~~------------------|
A#-------------------------------------------------15~~~~~~~~~~~~~~-|
F#------------------------------------------------------------------|
C#------------------------------------------------------------------|
G#------------------------------------------------------------------|
C#------------------------------------------------------------------|

===================================================================

Guitar 2
D#-----------------------------------------------------------------|
A#-----------------------------------------------------------------|
F#-17~~~~~~~~~~~~~~~~~~~~~~~~~~~~~~~~~~~~~~~~~~~~~~~~~~~~~~~~~~~~~-
C#-----------------------------------------------------------------|
G#-----------------------------------------------------------------|
C#-----------------------------------------------------------------|

===================================================================

Guitar 2
D#-----------------------------------------------------------------|
A#-----------------13~~~~~-----------------13~~~~~-----------------|
F#-9~~~~~~-10~~~~~---------9~~~~~~-10~~~~~---------9~~~~~~-10~~~~~-|
C#-----------------------------------------------------------------|
G#-----------------------------------------------------------------|
C#-----------------------------------------------------------------|
Pm .       .       .       .       .       .       .       .

===================================================================

Guitar 2
D#-----------------------------------------------------------------|
A#-10~~~~~-11~~~~~---------10~~~~~-11~~~~~-13~~~~~-----------------|
F#-----------------10~~~~~-------------------------9~~~~~~-10~~~~~-|
C#-----------------------------------------------------------------|
G#-----------------------------------------------------------------|
C#-----------------------------------------------------------------|
Pm .       .       .       .       .       .       .       .

===================================================================

Guitar 2
D#-17~~~~~~~~~~~~~~~~~~~~~-15~~~~~~~~~~~~~~~~~~~~~------------------|
A#-------------------------------------------------15~~~~~~~~~~~~~~-|
F#------------------------------------------------------------------|
C#------------------------------------------------------------------|
G#------------------------------------------------------------------|
C#------------------------------------------------------------------|

===================================================================

Guitar 2
D#-----------------------------------------------------------------|
A#-----------------------------------------------------------------|
F#-17~~~~~~~~~~~~~~~~~~~~~~~~~~~~~~~~~~~~~~~~~~~~~~~~~~~~~~~~~~~~~-
C#-----------------------------------------------------------------|
G#-----------------------------------------------------------------|
C#-----------------------------------------------------------------|

===================================================================
===================================================================


Break Off 3

Guitar 2
D#-----------------------------------------------------------------|
A#-----------------------------------------------------------------|
F#-17~~~~~~~~~~~~~~~~~~~~~~~~~~~~~~~~~~~~~~~~~~~~~-17~~~~~~~~~~~~~-|
C#-----------------------------------------------------------------|
G#-----------------------------------------------------------------|
C#-----------------------------------------------------------------|

===================================================================
===================================================================


Outro

Guitar 2
D#-----------------------------------------------------------------|
A#-15~~~~~~~~~~~~~~~~~~~~~~~~~~~~~~~~~~~~~~~~~~~~~~~---------------|
F#-----------------------------------------------------------------|
C#---------------------------------------------------0---0-0-0-0---|
G#---------------------------------------------------0---0-0-0-0---|
C#---------------------------------------------------0---0-0-0-0---|
Pm                                                   .   . . . .

===================================================================

Guitar 2
D#-----------------------------------------------------------------|
A#-----------------------------------------------------------------|
F#---------------------------------10----10----10--5-----5-----5b~-|
C#---------0-------0-0-0-0-0-0-----8-----8-----8---3-----3-----3b~-|
G#---------0-------0-0-0-0-0-0-------------------------------------|
C#---------0-------0-0-0-0-0-0-------------------------------------|
Pm         .       . . . . . .

===================================================================

Guitar 2
D#-----------------------------------------------------------------|
A#-----------------------------------------------------------------|
F#-----------------------------------------------------------------|
C#-0---------------------------------------------------------------|
G#-0---------------------------------------------------------------|
C#-0---------------------------------------------------------------|

===================================================================
===================================================================
===================================================================


Tab Legend
h  - hammer-on
p  - pull-off
/  - slide up
\  - slide down
ps/- pickslide up
ps\- pickslide down
~  - let ring
pm.- palm mute
b  - bend
r  - return from bend
t  - finger tapping
*  - harmonic
x  - dead note
^  - Whammy bar
^\ - Whammy bar (hold down)

That is all! I hope this helped, and be sure to check out my cover if you are
having problems with the tab. Thanks, oh and one last thing... ROCK OUT!!!!
comments
We did not receive enough feedback on this tab! Please rate:
print report bad tab
1 2 3 4 5
I want to post or [tab]
guest
You may want to rate the tab now too:
select rating
Please do not post tabs as comments. Select "correction" instead!