Oops, an error
Loading. Please wait.

Miles Awa Tab

3,192 views 9 this week
1 commentread comment
1 2 3 4 5
excellent!
x 1
Autoscroll
+/-
esc
set tempo
stop
Contributor
Difficulty
Tuning
intermediate
C# G# C# F# A# D#
Hey! There's an official Ultimate Guitar app which is ideal
for learning songs when you're away from computer. Get the app
WARNING: You are trying to view
                                    content from Ultimate-Guitar.com
                                    in an unauthorized application,
                                    which is prohibited.

                                    Please use an official Ultimate
                                    Guitar Tabs application for iPhone,
                                    iPad or Android to access legitimate
                                    chords, guitar, bass, and drum tabs
                                    from Ultimate-Guitar.com database.

                                    Type "ultimate guitar tabs" in Apple
                                    App Store's or Android Market's
                                    search to find the application.
----------------------------------------------------------------------------
                    Miles Away (Feat. Kellin Quinn)
                           Memphis May Fire
----------------------------------------------------------------------------

This is obviously the very heart-felt song from Challenger. It is one of my favorite off
the album because it talks about what pretty much every musician feels during his or
her music career. Kellin Quinn is featured in this song, and I feel it was the right 
move. This is a beautiful song in a sense of instrumentals and I believe it is one of their
most sophisticated too. Enjoy!

Username: dkm817 (same on X box live)
Youtube Cover: http://www.youtube.com/watch?v=yvuUnpPQvE8
Email: guitardrums@rockfan.com

Guitar 1 Rhythmic (C# G# C# F# A# D#)
Guitar 2 Lead     (C# G# C# F# A# D#)
Guitar 3 Acoustic (D# G# C# F# A# D#)

Tab Guide...
===================================================================
(end of measures)

===================================================================
===================================================================
(end of parts)

===================================================================
===================================================================
===================================================================
(end of song)
(If there is a “continued” it is because the numbers could not
fit on 1 line or connecting times played.)


Intro

Guitar 1 (Echo Effect)
D#-----------------------------------------------------------------|
A#-----------------------------------------------------16~-15~-----|
F#-12~~~~~~~~~~~~~~~~~-15~-14~---------------------------------17~-|
C#-----------------------------15~---------------------------------|
G#-----------------------------------------------------------------|
C#-----------------------------------------------------------------|

===================================================================

Guitar 1
D#-----------------------------------------------------------------|
A#---------15~-----------------------------------------------------|
F#-------------15~-------------12~-14~-----------------15~-14~-----|
C#-------------------------------------------------------------13~-|
G#-----------------------------------------------------------------|
C#-----------------------------------------------------------------|

===================================================================

Guitar 1
D#---------------------------------------------------------13~-15~-|
A#-------------------------15~-16~---------------------------------|
F#-----------------------------------------------------------------|
C#-----------------------------------------------------------------|
G#-----------------------------------------------------------------|
C#-----------------------------------------------------------------|

===================================================================

Guitar 1
D#-----------------------------------------------------------------|
A#-----------------------------------------------------------------|
F#-----------------------------------------------------------------|
C#-----------------------------------------------------------------|
G#-----------------------------------------------------------------|
C#-----------------------------------------------------------------|

Guitar 3
D#-----------------------------------------------------------------|
A#-------------------------------------------------------3---------|
F#-------------------------------------------3~~-5~b~r~~---5-3-----|
C#-----------------------------------3~~-5~~-------------------5~~-|
G#-----------------------------------------------------------------|
D#-----------------------------------------------------------------|

===================================================================
===================================================================


Verse 1

Guitar 1
D#-----------------------------------------------------------------|
A#-----------------------------------------------------16~-15~-----|
F#-12~~~~~~~~~~~~~~~~~-15~-14~---------------------------------17~-|
C#-----------------------------15~---------------------------------|
G#-----------------------------------------------------------------|
C#-----------------------------------------------------------------|

Guitar 3
D#------------------------------------------------------------------|
A#---------------------1-3-1~~-------------------------4~~-3~~------|
F#-------------------------------------------------------------5~~~-|
C#-3~~-5~~~~~~~~~~-5~~---------3~~~~~~~~~~~~~~~~~~~~~~--------------|
G#------------------------------------------------------------------|
D#------------------------------------------------------------------|

===================================================================

Guitar 1
D#-----------------------------------------------------------------|
A#---------15~-----------------------------------------------------|
F#-------------15~-------------12~-14~-----------------15~-14~-----|
C#-------------------------------------------------------------13~-|
G#-----------------------------------------------------------------|
C#-----------------------------------------------------------------|

Guitar 3
D#-----------------------------------------------------------------|
A#-~~~~~~~-3~~-----------------------------------------------------|
F#-------------3~~-------------0~~-2~~~~~~~~~~~~~~~~~~-3~~-0~~-----|
C#-------------------------------------------------------------3~~-|
G#-----------------------------------------------------------------|
D#-----------------------------------------------------------------|

===================================================================

Guitar 1
D#---------------------------------------------------------13~-15~-|
A#-------------------------15~-16~---------------------------------|
F#-----------------------------------------------------------------|
C#-----------------------------------------------------------------|
G#-----------------------------------------------------------------|
C#-----------------------------------------------------------------|

Guitar 3
D#-----------------------------------------------------------------|
A#-----------------------------------------------------------------|
F#-----2~~~~~~~~~~~~~~~~~~---2-3-2---------------------------------|
C#-1~~~----------------------------5~~~~~~~~~~~~~~~~~~~~~~-3~~-5~~-|
G#-----------------------------------------------------------------|
D#-----------------------------------------------------------------|

===================================================================

Guitar 1
D#-----------------------------------------------------------------|
A#-----------------------------------------------------------------|
F#-----------------------------------------------------------------|
C#-----------------------------------------------------------------|
G#-----------------------------------------------------------------|
C#-----------------------------------------------------------------|

Guitar 3
D#---------------------------------15-13-----13~-15-13-------------|
A#---------------------------------------15~-----------15-13-------|
F#-----------------------------------------------------------15-14-|
C#-----------------------------------------------------------------|
G#-----------------------------------------------------------------|
D#-----------------------------------------------------------------|

===================================================================

Guitar 1
D#-----------------------------------------------------------------|
A#-----------------------------------------------------16~-15~-----|
F#-12~~~~~~~~~~~~~~~~~-15~-14~---------------------------------17~-|
C#-----------------------------15~---------------------------------|
G#-----------------------------------------------------------------|
C#-----------------------------------------------------------------|

Guitar 3
D#------------------------------------------------------------------|
A#------------------------------------------------------------------|
F#-12~~~~~~~~~~~~~~~~~-12~/14~--------------------------14~-15-12~~-|
C#-----------------------------15~~~~~~~~~~~~~~~~~~~~~~-------------|
G#------------------------------------------------------------------|
D#------------------------------------------------------------------|

===================================================================

Guitar 1
D#-----------------------------------------------------------------|
A#---------15~-----------------------------------------------------|
F#-------------15~-------------12~-14~-----------------15~-14~-----|
C#-------------------------------------------------------------13~-|
G#-----------------------------------------------------------------|
C#-----------------------------------------------------------------|

Guitar 3
D#-----------------------------------------------------------------|
A#-----------------------------------------------------------------|
F#-~~~~~~~~~~~~~~~~~~~~~~~~~~~-12~-14~~~~~~~~~~~~~~~~~~~~~~~~~~~~~-|
C#-----------------------------------------------------------------|
G#-----------------------------------------------------------------|
D#-----------------------------------------------------------------|

===================================================================

Guitar 1
D#---------------------------------------------------------13~-15~-|
A#-------------------------15~-16~---------------------------------|
F#-----------------------------------------------------------------|
C#-----------------------------------------------------------------|
G#-----------------------------------------------------------------|
C#-----------------------------------------------------------------|

Guitar 3
D#-----------------------------6~~~~~~~~~~~~~~~~~~~~~~~~~~~~~~~~~~-|
A#-------------3~~~~~~-----3~~-4~~~~~~~~~~~~~~~~~~~~~~~~~~~~~~~~~~-|
F#-----3~~-5~~---------5~~-----------------------------------------|
C#-5~~-------------------------------------------------------------|
G#-----------------------------------------------------------------|
D#-----------------------------------------------------------------|

===================================================================

Guitar 1
D#-----------------------------------------------------------------|
A#-----------------------------------------------------------------|
F#-----------------------------------------------------------------|
C#-----------------------------------------------------------------|
G#-----------------------------------------------------------------|
C#-----------------------------------------------------------------|

Guitar 3
D#-----10~~~~~~~~~~~~~~~~~~~~~~~~~-------------8~~~~~~~~~~~~~~~~~~-|
A#-8~~~~~~-8~~~~~~~~~~~~~~~~~~~~~~-----8~~-10~~~~~~~~~~~~~~~~~~~~~-|
F#-------------10~~~~~~~~~~~~~~~~~-8~~~~~~~~~~~~~~~~~~~~~~~~~~~~~~-|
C#-----------------------------------------------------------------|
G#-----------------------------------------------------------------|
D#-----------------------------------------------------------------|

===================================================================
===================================================================


Pre Chorus 1

Guitar 1 (Fade In)
D#-----------------------------------------------------------------|
A#---------------------------------3~~-3~~-3~~-3~~-3~~-------------|
F#-----------------------------------------------------5~~-5~~-5~~-|
C#-----------------------------------------------------------------|
G#-----------------------------------------------------------------|
C#-----------------------------------------------------------------|

Guitar 3
D#-----------------------------------------10~-------------10~-----|
A#-----11~-10~-------------11~-13~-10~-11~-----11~-10~-11~-----11~-|
F#-12~---------10~-12~-10~-----------------------------------------|
C#-----------------------------------------------------------------|
G#-----------------------------------------------------------------|
D#-----------------------------------------------------------------|


===================================================================
===================================================================


Chorus 1

Guitar 1
D#-----------------------------------------------------------------|
A#-----------------------------------------------------------------|
F#-7-7-7-7-7-7-7-7-7-7-7-7-7-7-5-5-5-5-5-5-5-5-5-5-5-5-5-5-5-5-5-5-|
C#-----------------------------------------------------------------|
G#-----------------------------------------------------------------|
C#-----------------------------------------------------------------|

Guitar 3
D#-3~~-3~~-3~~-3~~-3~~-3~~-3~~-1~~~~~~-1~~-1~~-1~~-1~~-1~~-1~~-1~~-|
A#-3~~-3~~-3~~-3~~-3~~-3~~-3~~-1~~~~~~-1~~-1~~-1~~-1~~-1~~-1~~-1~~-|
F#-3~~-3~~-3~~-3~~-3~~-3~~-3~~-2~~~~~~-2~~-2~~-2~~-2~~-2~~-2~~-2~~-|
C#-5~~-5~~-5~~-5~~-5~~-5~~-5~~-3~~~~~~-3~~-3~~-3~~-3~~-3~~-3~~-3~~-|
G#-5~~-5~~-5~~-5~~-5~~-5~~-5~~-3~~~~~~-3~~-3~~-3~~-3~~-3~~-3~~-3~~-|
D#-----------------------------------------------------------------|

===================================================================

Guitar 1
D#-----------------------------------------------------------------|
A#-----------------------------------------------------------------|
F#-7-7-7-7-7-7-7-7-7-7-7-7-7-7-5-5-5-5-5-5-5-5-5-5-5-5-5-5-5-5-5-5-|
C#-----------------------------------------------------------------|
G#-----------------------------------------------------------------|
C#-----------------------------------------------------------------|

Guitar 3
D#-----------------------------------------------------------------|
A#-8~~-8~~-8~~-8~~-8~~-8~~-8~~-8~~~~~~-8~~-8~~-8~~-----------------|
F#-8~~-8~~-8~~-8~~-8~~-8~~-8~~-8~~~~~~-8~~-8~~-8~~-5br-7~~-5-------|
C#-8~~-8~~-8~~-8~~-8~~-8~~-8~~-8~~~~~~-8~~-8~~-8~~-----------8-7~~-|
G#-6~~-6~~-6~~-6~~-6~~-6~~-6~~-6~~~~~~-6~~-6~~-6~~-----------------|
D#-----------------------------------------------------------------|

===================================================================

Guitar 1
D#-----------------------------------------------------------------|
A#-----------------------------------------------------------------|
F#-7-7-7-7-7-7-7-7-7-7-7-7-7-7-5-5-5-5-5-5-5-5-5-5-5-5-5-5-5-5-5-5-|
C#-----------------------------------------------------------------|
G#-----------------------------------------------------------------|
C#-----------------------------------------------------------------|

Guitar 3
D#-3~~-3~~-3~~-3~~-3~~-3~~-3~~-1~~~~~~-1~~-1~~-1~~-1~~-1~~-1~~-1~~-|
A#-3~~-3~~-3~~-3~~-3~~-3~~-3~~-1~~~~~~-1~~-1~~-1~~-1~~-1~~-1~~-1~~-|
F#-3~~-3~~-3~~-3~~-3~~-3~~-3~~-2~~~~~~-2~~-2~~-2~~-2~~-2~~-2~~-2~~-|
C#-5~~-5~~-5~~-5~~-5~~-5~~-5~~-3~~~~~~-3~~-3~~-3~~-3~~-3~~-3~~-3~~-|
G#-5~~-5~~-5~~-5~~-5~~-5~~-5~~-3~~~~~~-3~~-3~~-3~~-3~~-3~~-3~~-3~~-|
D#-----------------------------------------------------------------|

===================================================================

Guitar 1
D#-----------------------------------------------------------------|
A#-----------------------------------------------------------------|
F#-7-7-7-7-7-7-7-7-7-7-7-7-7-7-7-7-7-7-7-7-7-7-7-7-7-7-7-7-7-7-7-7-|
C#-----------------------------------------------------------------|
G#-----------------------------------------------------------------|
C#-----------------------------------------------------------------|

Guitar 3
D#---------------------------------------------8~~~~~~~~-----------|
A#---------8~~-11~~~~~~~~~~~~~~~~~---------8~~~~~~~~~~~~-----------|
F#-----8~~~~~~~~~~~~~~-10~~~~~~~~~-----8~~~~~~~~~~~~~~~~-7-8-7-----|
C#-8~~~~~~~~~~~~~~~~~~~~~~~~~~~~~~-8~~~~~~~~~~~~~~~~~~~~-------8~~-|
G#-----------------------------------------------------------------|
D#-----------------------------------------------------------------|

===================================================================

Guitar 1
D#-----------------------------------------------------------------|
A#-----------------------------------------------------------------|
F#-7-7-7-7-7-7-7-7-7-7-7-7-7-7-5-5-5-5-5-5-5-5-5-5-5-5-5-5-5-5-5-5-|
C#-----------------------------------------------------------------|
G#-----------------------------------------------------------------|
C#-----------------------------------------------------------------|

Guitar 3
D#-3~~-3~~-3~~-3~~-3~~-3~~-3~~-1~~~~~~-1~~-1~~-1~~-1~~-1~~-1~~-1~~-|
A#-3~~-3~~-3~~-3~~-3~~-3~~-3~~-1~~~~~~-1~~-1~~-1~~-1~~-1~~-1~~-1~~-|
F#-3~~-3~~-3~~-3~~-3~~-3~~-3~~-2~~~~~~-2~~-2~~-2~~-2~~-2~~-2~~-2~~-|
C#-5~~-5~~-5~~-5~~-5~~-5~~-5~~-3~~~~~~-3~~-3~~-3~~-3~~-3~~-3~~-3~~-|
G#-5~~-5~~-5~~-5~~-5~~-5~~-5~~-3~~~~~~-3~~-3~~-3~~-3~~-3~~-3~~-3~~-|
D#-----------------------------------------------------------------|

===================================================================

Guitar 1
D#-----------------------------------------------------------------|
A#-----------------------------------------------------------------|
F#-7-7-7-7-7-7-7-7-7-7-7-7-7-7-5-5-5-5-5-5-5-5-5-5-5-5-5-5-5-5-5-5-|
C#-----------------------------------------------------------------|
G#-----------------------------------------------------------------|
C#-----------------------------------------------------------------|

Guitar 3
D#-----------------------------------------------------------------|
A#-8~~-8~~-8~~-8~~-8~~-8~~-8~~-8~~~~~~-8~~-8~~-8~~-----------------|
F#-8~~-8~~-8~~-8~~-8~~-8~~-8~~-8~~~~~~-8~~-8~~-8~~-5br-7~~-5-------|
C#-8~~-8~~-8~~-8~~-8~~-8~~-8~~-8~~~~~~-8~~-8~~-8~~-----------8-7~~-|
G#-6~~-6~~-6~~-6~~-6~~-6~~-6~~-6~~~~~~-6~~-6~~-6~~-----------------|
D#-----------------------------------------------------------------|

===================================================================

Guitar 1
D#-----------------------------------------------------------------|
A#-----------------------------------------------------------------|
F#-7-7-7-7-7-7-7-7-7-7-7-7-7-7-5-5-5-5-5-5-5-5-5-5-5-5-5-5-5-5-5-5-|
C#-----------------------------------------------------------------|
G#-----------------------------------------------------------------|
C#-----------------------------------------------------------------|

Guitar 3
D#-3~~-3~~-3~~-3~~-3~~-3~~-3~~-1~~~~~~-1~~-1~~-1~~-1~~-1~~-1~~-1~~-|
A#-3~~-3~~-3~~-3~~-3~~-3~~-3~~-1~~~~~~-1~~-1~~-1~~-1~~-1~~-1~~-1~~-|
F#-3~~-3~~-3~~-3~~-3~~-3~~-3~~-2~~~~~~-2~~-2~~-2~~-2~~-2~~-2~~-2~~-|
C#-5~~-5~~-5~~-5~~-5~~-5~~-5~~-3~~~~~~-3~~-3~~-3~~-3~~-3~~-3~~-3~~-|
G#-5~~-5~~-5~~-5~~-5~~-5~~-5~~-3~~~~~~-3~~-3~~-3~~-3~~-3~~-3~~-3~~-|
D#-----------------------------------------------------------------|

===================================================================

Guitar 1
D#-----------------------------------------------------------------|
A#-----------------------------------------------------------------|
F#-7-7-7-7-7-7-7-7-7-7-7-7-7-7-7-7-7-7-7-7-7-7-7-7-7-7-7-7-7-7-7-7-|
C#-----------------------------------------------------------------|
G#-----------------------------------------------------------------|
C#-----------------------------------------------------------------|

Guitar 3
D#---------------------------------------------8~~~~-8-10-8-6------|
A#---------8~~-11~~~~~~~~~~~~~~~~~---------8~~~~~~~~----------10-6-|
F#-----8~~~~~~~~~~~~~~-10~~~~~~~~~-----8~~~~~~~~~~~~---------------|
C#-8~~~~~~~~~~~~~~~~~~~~~~~~~~~~~~-8~~~~~~~~~~~~~~~~---------------|
G#-----------------------------------------------------------------|
D#-----------------------------------------------------------------|

===================================================================
===================================================================


Bridge 1

Guitar 3
D#----------------------------------------------------------------|
A#----------------------------------------------------3-5-3-------|
F#----------------------------------------------------------5-3-0-|
C#----------------------------------------------------------------|
G#----------------------------------------------------------------|
D#----------------------------------------------------------------|

==================================================================
==================================================================


Verse 2

Guitar 1
D#-----------------------------------------------------------------|
A#-----------------------------------------------------16~-15~-----|
F#-12~~~~~~~~~~~~~~~~~-15~-14~---------------------------------17~-|
C#-----------------------------15~---------------------------------|
G#-----------------------------------------------------------------|
C#-----------------------------------------------------------------|

Guitar 2
D#-----------------------------------------------------------------|
A#-----------------------------------------------------------------|
F#-----------------------------------------------------------------|
C#-5---5---5---5---5---5---5---5---8---8---8---8---8---8---8---8---|
G#-5---5---5---5---5---5---5---5---8---8---8---8---8---8---8---8---|
C#-5---5---5---5---5---5---5---5---8---8---8---8---8---8---8---8---|
Pm .   .   .   .   .   .   .   .   .   .   .   .   .   .   .   .

Guitar 3
D#------------------------------------------------------------------|
A#------------------------------------------------------------------|
F#/5~~~~~~-3~~~~~~---------------------------------------------3~~~-|
C#-----------------3~~-5~~-5~~-3~~~~~~-5~~~~~~~~~~-3~~-5~~-5~~------|
G#------------------------------------------------------------------|
D#------------------------------------------------------------------|

===================================================================

Guitar 1
D#-----------------------------------------------------------------|
A#---------15~-----------------------------------------------------|
F#-------------15~-------------12~-14~-----------------15~-14~-----|
C#-------------------------------------------------------------13~-|
G#-----------------------------------------------------------------|
C#-----------------------------------------------------------------|

Guitar 2
D#-----------------------------------------------------------------|
A#-----------------------------------------------------------------|
F#-----------------------------------------------------------------|
C#-3---3---3---3---3---3---3---3---3---3---3---3---3---3---3---3---|
G#-3---3---3---3---3---3---3---3---3---3---3---3---3---3---3---3---|
C#-3---3---3---3---3---3---3---3---3---3---3---3---3---3---3---3---|
Pm .   .   .   .   .   .   .   .   .   .   .   .   .   .   .   .

Guitar 3
D#-----------------------------------------------------------------|
A#-------------------------2~~-3~~~~~~-2~~-----------------------3-|
F#-~~~-2~~~~~~~~~~-3~~~~~~-----------------5~~~~~~-5-3-0-2-5-2-0---|
C#---------------------5~~-----------------------------------------|
G#-----------------------------------------------------------------|
D#-----------------------------------------------------------------|

===================================================================

Guitar 1
D#---------------------------------------------------------13~-15~-|
A#-------------------------15~-16~---------------------------------|
F#-----------------------------------------------------------------|
C#-----------------------------------------------------------------|
G#-----------------------------------------------------------------|
C#-----------------------------------------------------------------|

Guitar 2
D#-----------------------------------------------------------------|
A#-----------------------------------------------------------------|
F#-8---8---8---8---8---8---8---8---8---8---8---8---8---8---8---8---|
C#-8---8---8---8---8---8---8---8---8---8---8---8---8---8---8---8---|
G#-6---6---6---6---6---6---6---6---6---6---6---6---6---6---6---6---|
C#-----------------------------------------------------------------|
Pm .   .   .   .   .   .   .   .   .   .   .   .   .   .   .   .

Guitar 3
D#-----------------------------------------------------------------|
A#-------------------------------------3~~-------------------------|
F#---------------------------------5br-----5~~-3~~-3~~~~~~-3~~-3~~-|
C#---------5~~---------5~~-----------------------------------------|
G#-----------------------------------------------------------------|
D#-----------------------------------------------------------------|

===================================================================

Guitar 1
D#-----------------------------------------------------------------|
A#-----------------------------------------------------------------|
F#-----------------------------------------------------------------|
C#-----------------------------------------------------------------|
G#-----------------------------------------------------------------|
C#-----------------------------------------------------------------|

Guitar 2
D#-----------------------------------------------------------------|
A#-----------------------------------------------------------------|
F#-7~~-7~~-7~~-7~~-7~~-5~~-5~~-3~~-3~~-3~~-3~~-3~~-3~~-3~~-3~~-3~~-|
C#-5~~-5~~-5~~-5~~-5~~-3~~-3~~-1~~-1~~-1~~-1~~-1~~-1~~-1~~-1~~-1~~-|
G#-----------------------------------------------------------------|
C#-----------------------------------------------------------------|

Guitar 3
D#-------------------------------------3~~-------------3~~---------|
A#--------------------------------/3~~------------/3~~-----3-------|
F#-----------------------------------------3-0~~-------------5-3-2-|
C#-----------------------------------------------------------------|
G#-----------------------------------------------------------------|
D#-----------------------------------------------------------------|

===================================================================

Guitar 1
D#-----------------------------------------------------------------|
A#-----------------------------------------------------16~-15~-----|
F#-12~~~~~~~~~~~~~~~~~-15~-14~---------------------------------17~-|
C#-----------------------------15~---------------------------------|
G#-----------------------------------------------------------------|
C#-----------------------------------------------------------------|

Guitar 2
D#-----------------------------------------------------------------|
A#-----------------------------------------------------------------|
F#-----------------------------------------------------------------|
C#-5---5---5---5---5---5---5---5---8---8---8---8---8---8---8---8---|
G#-5---5---5---5---5---5---5---5---8---8---8---8---8---8---8---8---|
C#-5---5---5---5---5---5---5---5---8---8---8---8---8---8---8---8---|
Pm .   .   .   .   .   .   .   .   .   .   .   .   .   .   .   .

Guitar 3
D#---------1~~~~-1-------------------------------------------------|
A#-----------------3~~-----------------------------------------3~~-|
F#-0~~~~~~-------------0~~-3~~-------------------------3~~~~~~~~~~-|
C#-----------------------------3~~~~~~~~~~~~~~~~~~-3~~~~~~-3~~~~~~-|
G#-----------------------------------------------------------------|
D#-----------------------------------------------------------------|

===================================================================

Guitar 1
D#-----------------------------------------------------------------|
A#---------15~-----------------------------------------------------|
F#-------------15~-------------12~-14~-----------------15~-14~-----|
C#-------------------------------------------------------------13~-|
G#-----------------------------------------------------------------|
C#-----------------------------------------------------------------|

Guitar 2
D#-----------------------------------------------------------------|
A#-----------------------------------------------------------------|
F#-----------------------------------------------------------------|
C#-3---3---3---3---3---3---3---3---3---3---3---3---3---3---3---3---|
G#-3---3---3---3---3---3---3---3---3---3---3---3---3---3---3---3---|
C#-3---3---3---3---3---3---3---3---3---3---3---3---3---3---3---3---|
Pm .   .   .   .   .   .   .   .   .   .   .   .   .   .   .   .

Guitar 3
D#-----------------------------13~---------------------------------|
A#---------------------10~~~~~~~~~-----8~~~~~~~~~~-----------------|
F#-------------------------10~~~~~---------7~~~~~~-----7~~~~~~-8~~-|
C#---------------------------------------------10~---------10~~~~~-|
G#-----------------------------------------------------------------|
D#-----------------------------------------------------------------|

===================================================================

Guitar 1
D#---------------------------------------------------------13~-15~-|
A#-------------------------15~-16~---------------------------------|
F#-----------------------------------------------------------------|
C#-----------------------------------------------------------------|
G#-----------------------------------------------------------------|
C#-----------------------------------------------------------------|

Guitar 2
D#-----------------------------------------------------------------|
A#-----------------------------------------------------------------|
F#-8---8---8---8---8---8---8---8---8---8---8---8---8---8---8---8---|
C#-8---8---8---8---8---8---8---8---8---8---8---8---8---8---8---8---|
G#-6---6---6---6---6---6---6---6---6---6---6---6---6---6---6---6---|
C#-----------------------------------------------------------------|
Pm .   .   .   .   .   .   .   .   .   .   .   .   .   .   .   .

Guitar 3
D#-----------------------------------------------------------------|
A#-----11-11-11~~~-11-11-11~-10~-8/10-10~~~~-8~~---------------8~~-|
F#----------------------------------------------------10-7-10~-----|
C#-----------------------------------------------------------------|
G#-----------------------------------------------------------------|
D#-----------------------------------------------------------------|

===================================================================

Guitar 1
D#-----------------------------------------------------------------|
A#-----------------------------------------------------------------|
F#-----------------------------------------------------------------|
C#-----------------------------------------------------------------|
G#-----------------------------------------------------------------|
C#-----------------------------------------------------------------|

Guitar 2
D#-----------------------------------------------------------------|
A#-----------------------------------------------------------------|
F#-------------7~~~~~~-5~~-5~~-3~~-3~~-3~~-3~~-3~~-3~~-3~~-3~~-3~~-|
C----------5~~~~~~~~~~-3~~-3~~-1~~-1~~-1~~-1~~-1~~-1~~-1~~-1~~-1~~-|
G#-----------------------------------------------------------------|
C#-----------------------------------------------------------------|

Guitar 3
D#-------------------------------------15~~~~~-15~~~~~-15~~~~~-15~-|
A#-------------------------------18b~~~~-18b~~~~-18b~~~~-18b~~~~~~-|
F#-----------------------------------------------------------------|
C#-----------------------------------------------------------------|
G#-----------------------------------------------------------------|
D#-----------------------------------------------------------------|

===================================================================
===================================================================


Chorus 2

Guitar 1
D#-----------------------------------------------------------------|
A#-----------------------------------------------------------------|
F#-7-7-7-7-7-7-7-7-7-7-7-7-7-7-5-5-5-5-5-5-5-5-5-5-5-5-5-5-5-5-5-5-|
C#-----------------------------------------------------------------|
G#-----------------------------------------------------------------|
C#-----------------------------------------------------------------|

Guitar 2
D#-----------------------------------------------------------------|
A#-----------------------------------------------------------------|
F#-----------------------------------------------------------------|
C#-5---5---5---5---5---5---5---3---3---3---3---3---3---3---3---3---|
G#-5---5---5---5---5---5---5---3---3---3---3---3---3---3---3---3---|
C#-5---5---5---5---5---5---5---3---3---3---3---3---3---3---3---3---|

Guitar 3
D#-3~~-3~~-3~~-3~~-3~~-3~~-3~~-1~~~~~~-1~~-1~~-1~~-1~~-1~~-1~~-1~~-|
A#-3~~-3~~-3~~-3~~-3~~-3~~-3~~-1~~~~~~-1~~-1~~-1~~-1~~-1~~-1~~-1~~-|
F#-3~~-3~~-3~~-3~~-3~~-3~~-3~~-2~~~~~~-2~~-2~~-2~~-2~~-2~~-2~~-2~~-|
C#-5~~-5~~-5~~-5~~-5~~-5~~-5~~-3~~~~~~-3~~-3~~-3~~-3~~-3~~-3~~-3~~-|
G#-5~~-5~~-5~~-5~~-5~~-5~~-5~~-3~~~~~~-3~~-3~~-3~~-3~~-3~~-3~~-3~~-|
D#-----------------------------------------------------------------|

===================================================================

Guitar 1
D#-----------------------------------------------------------------|
A#-----------------------------------------------------------------|
F#-7-7-7-7-7-7-7-7-7-7-7-7-7-7-5-5-5-5-5-5-5-5-5-5-5-5-5-5-5-5-5-5-|
C#-----------------------------------------------------------------|
G#-----------------------------------------------------------------|
C#-----------------------------------------------------------------|

Guitar 2
D#-----------------------------------------------------------------|
A#-----------------------------------------------------------------|
F#-8---8---8---8---8---8---8---8---8---8---8---8---8---8---8---8---|
C#-8---8---8---8---8---8---8---8---8---8---8---8---8---8---8---8---|
G#-6---6---6---6---6---6---6---6---6---6---6---6---6---6---6---6---|
C#-----------------------------------------------------------------|

Guitar 3
D#-----------------------------------------------------------------|
A#-8~~-8~~-8~~-8~~-8~~-8~~-8~~-8~~~~~~-8~~-8~~-8~~-----------------|
F#-8~~-8~~-8~~-8~~-8~~-8~~-8~~-8~~~~~~-8~~-8~~-8~~-5br-7~~-5-------|
C#-8~~-8~~-8~~-8~~-8~~-8~~-8~~-8~~~~~~-8~~-8~~-8~~-----------8-7~~-|
G#-6~~-6~~-6~~-6~~-6~~-6~~-6~~-6~~~~~~-6~~-6~~-6~~-----------------|
D#-----------------------------------------------------------------|

===================================================================

Guitar 1
D#-----------------------------------------------------------------|
A#-----------------------------------------------------------------|
F#-7-7-7-7-7-7-7-7-7-7-7-7-7-7-5-5-5-5-5-5-5-5-5-5-5-5-5-5-5-5-5-5-|
C#-----------------------------------------------------------------|
G#-----------------------------------------------------------------|
C#-----------------------------------------------------------------|

Guitar 2
D#-----------------------------------------------------------------|
A#-----------------------------------------------------------------|
F#-----------------------------------------------------------------|
C#-5---5---5---5---5---5---5---3---3---3---3---3---3---3---3---3---|
G#-5---5---5---5---5---5---5---3---3---3---3---3---3---3---3---3---|
C#-5---5---5---5---5---5---5---3---3---3---3---3---3---3---3---3---|

Guitar 3
D#-3~~-3~~-3~~-3~~-3~~-3~~-3~~-1~~~~~~-1~~-1~~-1~~-1~~-1~~-1~~-1~~-|
A#-3~~-3~~-3~~-3~~-3~~-3~~-3~~-1~~~~~~-1~~-1~~-1~~-1~~-1~~-1~~-1~~-|
F#-3~~-3~~-3~~-3~~-3~~-3~~-3~~-2~~~~~~-2~~-2~~-2~~-2~~-2~~-2~~-2~~-|
C#-5~~-5~~-5~~-5~~-5~~-5~~-5~~-3~~~~~~-3~~-3~~-3~~-3~~-3~~-3~~-3~~-|
G#-5~~-5~~-5~~-5~~-5~~-5~~-5~~-3~~~~~~-3~~-3~~-3~~-3~~-3~~-3~~-3~~-|
D#-----------------------------------------------------------------|

===================================================================

Guitar 1
D#-----------------------------------------------------------------|
A#-----------------------------------------------------------------|
F#-7-7-7-7-7-7-7-7-7-7-7-7-7-7-7-7-7-7-7-7-7-7-7-7-7-7-7-7-7-7-7-7-|
C#-----------------------------------------------------------------|
G#-----------------------------------------------------------------|
C#-----------------------------------------------------------------|

Guitar 2
D#-----------------------------------------------------------------|
A#-----------------------------------------------------------------|
F#-8---8---8---8---8---8---8---8---8---8---8---8---8---8---8---8---|
C#-8---8---8---8---8---8---8---8---8---8---8---8---8---8---8---8---|
G#-6---6---6---6---6---6---6---6---6---6---6---6---6---6---6---6---|
C#-----------------------------------------------------------------|

Guitar 3
D#---------------------------------------------8~~~~~~~~-----------|
A#---------8~~-11~~~~~~~~~~~~~~~~~---------8~~~~~~~~~~~~-----------|
F#-----8~~~~~~~~~~~~~~-10~~~~~~~~~-----8~~~~~~~~~~~~~~~~-7-8-7-----|
C#-8~~~~~~~~~~~~~~~~~~~~~~~~~~~~~~-8~~~~~~~~~~~~~~~~~~~~-------8~~-|
G#-----------------------------------------------------------------|
D#-----------------------------------------------------------------|

===================================================================

Guitar 1
D#-----------------------------------------------------------------|
A#-----------------------------------------------------------------|
F#-7-7-7-7-7-7-7-7-7-7-7-7-7-7-5-5-5-5-5-5-5-5-5-5-5-5-5-5-5-5-5-5-|
C#-----------------------------------------------------------------|
G#-----------------------------------------------------------------|
C#-----------------------------------------------------------------|

Guitar 2
D#-----------------------------------------------------------------|
A#-----------------------------------------------------------------|
F#-----------------------------------------------------------------|
C#-5---5---5---5---5---5---5---3---3---3---3---3---3---3---3---3---|
G#-5---5---5---5---5---5---5---3---3---3---3---3---3---3---3---3---|
C#-5---5---5---5---5---5---5---3---3---3---3---3---3---3---3---3---|

Guitar 3
D#-3~~-3~~-3~~-3~~-3~~-3~~-3~~-1~~~~~~-1~~-1~~-1~~-1~~-1~~-1~~-1~~-|
A#-3~~-3~~-3~~-3~~-3~~-3~~-3~~-1~~~~~~-1~~-1~~-1~~-1~~-1~~-1~~-1~~-|
F#-3~~-3~~-3~~-3~~-3~~-3~~-3~~-2~~~~~~-2~~-2~~-2~~-2~~-2~~-2~~-2~~-|
C#-5~~-5~~-5~~-5~~-5~~-5~~-5~~-3~~~~~~-3~~-3~~-3~~-3~~-3~~-3~~-3~~-|
G#-5~~-5~~-5~~-5~~-5~~-5~~-5~~-3~~~~~~-3~~-3~~-3~~-3~~-3~~-3~~-3~~-|
D#-----------------------------------------------------------------|

===================================================================

Guitar 1
D#-----------------------------------------------------------------|
A#-----------------------------------------------------------------|
F#-7-7-7-7-7-7-7-7-7-7-7-7-7-7-5-5-5-5-5-5-5-5-5-5-5-5-5-5-5-5-5-5-|
C#-----------------------------------------------------------------|
G#-----------------------------------------------------------------|
C#-----------------------------------------------------------------|

Guitar 2
D#-----------------------------------------------------------------|
A#-----------------------------------------------------------------|
F#-8---8---8---8---8---8---8---8---8---8---8---8---8---8---8---8---|
C#-8---8---8---8---8---8---8---8---8---8---8---8---8---8---8---8---|
G#-6---6---6---6---6---6---6---6---6---6---6---6---6---6---6---6---|
C#-----------------------------------------------------------------|

Guitar 3
D#-----------------------------------------------------------------|
A#-8~~-8~~-8~~-8~~-8~~-8~~-8~~-8~~~~~~-8~~-8~~-8~~-----------------|
F#-8~~-8~~-8~~-8~~-8~~-8~~-8~~-8~~~~~~-8~~-8~~-8~~-5br-7~~-5-------|
C#-8~~-8~~-8~~-8~~-8~~-8~~-8~~-8~~~~~~-8~~-8~~-8~~-----------8-7~~-|
G#-6~~-6~~-6~~-6~~-6~~-6~~-6~~-6~~~~~~-6~~-6~~-6~~-----------------|
D#-----------------------------------------------------------------|

===================================================================

Guitar 1
D#-----------------------------------------------------------------|
A#-----------------------------------------------------------------|
F#-7-7-7-7-7-7-7-7-7-7-7-7-7-7-5-5-5-5-5-5-5-5-5-5-5-5-5-5-5-5-5-5-|
C#-----------------------------------------------------------------|
G#-----------------------------------------------------------------|
C#-----------------------------------------------------------------|

Guitar 2
D#-----------------------------------------------------------------|
A#-----------------------------------------------------------------|
F#-----------------------------------------------------------------|
C#-5---5---5---5---5---5---5---3---3---3---3---3---3---3---3---3---|
G#-5---5---5---5---5---5---5---3---3---3---3---3---3---3---3---3---|
C#-5---5---5---5---5---5---5---3---3---3---3---3---3---3---3---3---|

Guitar 3
D#-3~~-3~~-3~~-3~~-3~~-3~~-3~~-1~~~~~~-1~~-1~~-1~~-1~~-1~~-1~~-1~~-|
A#-3~~-3~~-3~~-3~~-3~~-3~~-3~~-1~~~~~~-1~~-1~~-1~~-1~~-1~~-1~~-1~~-|
F#-3~~-3~~-3~~-3~~-3~~-3~~-3~~-2~~~~~~-2~~-2~~-2~~-2~~-2~~-2~~-2~~-|
C#-5~~-5~~-5~~-5~~-5~~-5~~-5~~-3~~~~~~-3~~-3~~-3~~-3~~-3~~-3~~-3~~-|
G#-5~~-5~~-5~~-5~~-5~~-5~~-5~~-3~~~~~~-3~~-3~~-3~~-3~~-3~~-3~~-3~~-|
D#-----------------------------------------------------------------|

===================================================================

Guitar 1
D#-----------------------------------------------------------------|
A#-----------------------------------------------------------------|
F#-7-7-7-7-7-7-7-7-7-7-7-7-7-7-7-7-7-7-7-7-7-7-7-7-7-7-7-7-7-7-7-7-|
C#-----------------------------------------------------------------|
G#-----------------------------------------------------------------|
C#-----------------------------------------------------------------|

Guitar 2
D#-----------------------------------------------------------------|
A#-----------------------------------------------------------------|
F#-8---8---8---8---8---8---8---8---8---8---8---8---8---8---8---8---|
C#-8---8---8---8---8---8---8---8---8---8---8---8---8---8---8---8---|
G#-6---6---6---6---6---6---6---6---6---6---6---6---6---6---6---6---|
C#-----------------------------------------------------------------|

Guitar 3
D#---------------------------------------------8~~~~~~~~~~~~~~~~~~-|
A#---------8~~-11~~~~~~~~~~~~~~~~~---------8~~~~~~~~~~~~~~~~~~~~~~-|
F#-----8~~~~~~~~~~~~~~-10~~~~~~~~~-----8~~~~~~~~~~~~~~~~~~~~~~~~~~-|
C#-8~~~~~~~~~~~~~~~~~~~~~~~~~~~~~~-8~~~~~~~~~~~~~~~~~~~~~~~~~~~~~~-
G#-----------------------------------------------------------------|
D#-----------------------------------------------------------------|

===================================================================
===================================================================


Interlude 1

Guitar 1 & 2
D#-----------------------------------------------------------------|
A#-----------------------------------------------------------------|
F#-----------------------------------------------------------------|
C#-5---5---5---5---5---5---5---5---8---8---8---8---8---8---8---8---|
G#-5---5---5---5---5---5---5---5---8---8---8---8---8---8---8---8---|
C#-5---5---5---5---5---5---5---5---8---8---8---8---8---8---8---8---|

Guitar 3
D#-----------------------------------------------------------------|
A#-----------------------------------------------------------------|
F#-----------------------------------------------------------------|
C#-5---5---5---5---5---5---5---5---5---5---5---5---5---3---3---3---|
G#-----------------------------------------------------------------|
D#-----------------------------------------------------------------|

===================================================================

Guitar 1 & 2
D#-----------------------------------------------------------------|
A#-----------------------------------------------------------------|
F#---------------------------------------------7---7---7---7---7---|
C#-10--10--10--10--10--10--10--10--11--11--11--7---7---7---7---7---|
G#-10--10--10--10--10--10--10--10--11--11--11--5---5---5---5---5---|
C#-10--10--10--10--10--10--10--10--11--11--11----------------------|

Guitar 3
D#-----------------------------------------------------------------|
A#-----------------------------------------------------------------|
F#-----------------------------------------------------------------|
C#-5---5---0---3---5---5---0---3---1---1---1---0---0---0---0---0---|
G#-----------------------------------------------------------------|
D#-----------------------------------------------------------------|

===================================================================

Guitar 1 & 2
D#-----------------------------------------------------------------|
A#-----------------------------------------------------------------|
F#-----------------------------------------------------------------|
C#-5---5---5---5---5---5---5---5---8---8---8---8---8---8---8---8---|
G#-5---5---5---5---5---5---5---5---8---8---8---8---8---8---8---8---|
C#-5---5---5---5---5---5---5---5---8---8---8---8---8---8---8---8---|

Guitar 3
D#-----------------------------------------------------------------|
A#-----------------------------------------------------------------|
F#-----------------------------------------------------------------|
C#-5---5---5---5---5---5---5---5---5---5---5---5---5---3---3---3---|
G#-----------------------------------------------------------------|
D#-----------------------------------------------------------------|

===================================================================

Guitar 1 & 2
D#-----------------------------------------------------------------|
A#-----------------------------------------------------------------|
F#---------------------------------------------7---7---7---7---7---|
C#-10--10--10--10--10--10--10--10--11--11--11--7---7---7---7---7---|
G#-10--10--10--10--10--10--10--10--11--11--11--5---5---5---5---5---|
C#-10--10--10--10--10--10--10--10--11--11--11----------------------|

Guitar 3
D#-----------------------------------------------------------------|
A#-----------------------------------------------------------------|
F#-----------------------------------------------------------------|
C#-5---5---0---3---5---5---0---3---5---5---5---1---1---0---0---0---|
G#-----------------------------------------------------------------|
D#-----------------------------------------------------------------|

===================================================================
===================================================================


Interlude 2

Guitar 1
D#-----------------------------------------------------------------|
A#-----------------------------------------------------------------|
F#-----------------------------------------------------------------|
C#-5---5---5---5---5---5---5---5---8---8---8---8---8---8---8---8---|
G#-5---5---5---5---5---5---5---5---8---8---8---8---8---8---8---8---|
C#-5---5---5---5---5---5---5---5---8---8---8---8---8---8---8---8---|

Guitar 2
D#---------------------------------5-6-5---------------------------|
A#-8---8-6-----6---8---8---8---8---------8-6-8-6---6---6---6---6---|
F#---------7-------------------------------------7-----------------|
C#-----------------------------------------------------------------|
G#-----------------------------------------------------------------|
C#-----------------------------------------------------------------|

Guitar 3
D#-----------------------------------------------------------------|
A#-----------------------------------------------------------------|
F#-----------------------------------------------------------------|
C#-5---5-3-0---3---5---5---5---5---5---5---5---3-0-3---3---3---3---|
G#-----------------------------------------------------------------|
D#-----------------------------------------------------------------|

===================================================================

Guitar 1
D#-----------------------------------------------------------------|
A#-----------------------------------------------------------------|
F#---------------------------------------------7---7---7---7---7---|
C#-10--10--10--10--10--10--10--10--11--11--11--7---7---7---7---7---|
G#-10--10--10--10--10--10--10--10--11--11--11--5---5---5---5---5---|
C#-10--10--10--10--10--10--10--10--11--11--11----------------------|

Guitar 2
D#---------------------------------|
A#-8---8-6-----6---8---8-------6---|
F#---------7---------------7-------|
C#---------------------------------|
G#---------------------------------|
C#---------------------------------|

Guitar 2 continued
D#-10-13-10-------------------------------|
A#----------13-11-13br~-13-15-13-11-13-11-|
F#----------------------------------------|
C#----------------------------------------|
G#----------------------------------------|
C#----------------------------------------|

Guitar 3
D#-----------------------------------------------------------------|
A#-----------------------------------------------------------------|
F#-----------------------------------------------------------------|
C#-5---5-3-0---3---5---5---0---3---7---7---7---8---8---8---7---7---|
G#-----------------------------------------------------------------|
D#-----------------------------------------------------------------|

===================================================================

Guitar 1
D#-----------------------------------------------------------------|
A#-----------------------------------------------------------------|
F#-----------------------------------------------------------------|
C#-5---5---5---5---5---5---5---5---8---8---8---8---8---8---8---8---|
G#-5---5---5---5---5---5---5---5---8---8---8---8---8---8---8---8---|
C#-5---5---5---5---5---5---5---5---8---8---8---8---8---8---8---8---|

Guitar 2
D#---------------------------------5-6-5---------------------------|
A#-8---8-6-----6---8---8---8---8---------8-6-8-6---6---6---6---6---|
F#---------7-------------------------------------7-----------------|
C#-----------------------------------------------------------------|
G#-----------------------------------------------------------------|
C#-----------------------------------------------------------------|

Guitar 3
D#-----------------------------------------------------------------|
A#-----------------------------------------------------------------|
F#-----------------------------------------------------------------|
C#-5---5-3-0---3---5---5---5---5---5---5---5---3-0-3---3---3---3---|
G#-----------------------------------------------------------------|
D#-----------------------------------------------------------------|

===================================================================

Guitar 1
D#-----------------------------------------------------------------|
A#-----------------------------------------------------------------|
F#---------------------------------------------8---8---8---8---8---|
C#-10--10--10--10--10--10--10--10--11--11--11--8---8---8---8---8---|
G#-10--10--10--10--10--10--10--10--11--11--11--6---6---6---6---6---|
C#-10--10--10--10--10--10--10--10--11--11--11----------------------|

Guitar 2
D#---------------------------------|
A#-8---8-6-----6---8---8-------6---|
F#---------7---------------7-------|
C#---------------------------------|
G#---------------------------------|
C#---------------------------------|

Guitar 2 continued
D#-------------------------------------15-18-15----|
A#----------------------------15-16-18----------18-|
F#-------------------14-15-17----------------------|
C#----------13-15-17-------------------------------|
G#-13-15-17----------------------------------------|
C#-------------------------------------------------|

Guitar 3
D#-----------------------------------------------------------------|
A#-----------------------------------------------------------------|
F#-----------------------------------------------------------------|
C#-5---5-3-0---3---5---5---0---3---8---8---8---8---7---7---7---7---|
G#-----------------------------------------------------------------|
D#-----------------------------------------------------------------|

===================================================================
===================================================================


Bridge 2

Guitar 1
D#-----------------------------------------------------------------|
A#-----------------------------------------------------16~-15~-----|
F#-12~~~~~~~~~~~~~~~~~-15~-14~---------------------------------17~-|
C#-----------------------------15~---------------------------------|
G#-----------------------------------------------------------------|
C#-----------------------------------------------------------------|

===================================================================

Guitar 1
D#-----------------------------------------------------------------|
A#---------15~-----------------------------------------------------|
F#-------------15~-------------12~-14~-----------------15~-14~-----|
C#-------------------------------------------------------------13~-|
G#-----------------------------------------------------------------|
C#-----------------------------------------------------------------|

===================================================================

Guitar 1
D#---------------------------------------------------------13~-15~-|
A#-------------------------15~-16~---------------------------------|
F#-----------------------------------------------------------------|
C#-----------------------------------------------------------------|
G#-----------------------------------------------------------------|
C#-----------------------------------------------------------------|

===================================================================

Guitar 1 & 2 (Fade In)
D#-----------------------------------------------------------------|
A#-----------------------------------------------------------------|
F#-----------------------------------------------------------------|
C#-0~~~~~~~~~~~~~~~~~~~~~~~~~~~~~~~~~~~~~~~~~~~~~~~~~~~~~~~~~~~~~~-
G#-0~~~~~~~~~~~~~~~~~~~~~~~~~~~~~~~~~~~~~~~~~~~~~~~~~~~~~~~~~~~~~~-
C#-0~~~~~~~~~~~~~~~~~~~~~~~~~~~~~~~~~~~~~~~~~~~~~~~~~~~~~~~~~~~~~~-

===================================================================
===================================================================


Chorus 3

Guitar 1 & 2
D#-----------------------------------------------------------------|
A#-----------------------------------------------------------------|
F#-----------------------------------------------------------------|
C#-5---5---5---5---5---5---5---5---3---3---3---3---3---3---3---3---|
G#-5---5---5---5---5---5---5---5---3---3---3---3---3---3---3---3---|
C#-5---5---5---5---5---5---5---5---3---3---3---3---3---3---3---3---|

Guitar 3
D#-3~~-3~~-3~~-3~~-3~~-3~~-3~~-3~~-1~~-1~~-1~~-1~~-1~~-1~~-1~~-1~~-|
A#-3~~-3~~-3~~-3~~-3~~-3~~-3~~-3~~-1~~-1~~-1~~-1~~-1~~-1~~-1~~-1~~-|
F#-3~~-3~~-3~~-3~~-3~~-3~~-3~~-3~~-2~~-2~~-2~~-2~~-2~~-2~~-2~~-2~~-|
C#-5~~-5~~-5~~-5~~-5~~-5~~-5~~-5~~-3~~-3~~-3~~-3~~-3~~-3~~-3~~-3~~-|
G#-5~~-5~~-5~~-5~~-5~~-5~~-5~~-5~~-3~~-3~~-3~~-3~~-3~~-3~~-3~~-3~~-|
D#-----------------------------------------------------------------|

===================================================================

Guitar 1 & 2
D#-----------------------------------------------------------------|
A#-----------------------------------------------------------------|
F#-8---8---8---8---8---8---8---8---8---8---8---8---8---8---8---8---|
C#-8---8---8---8---8---8---8---8---8---8---8---8---8---8---8---8---|
G#-6---6---6---6---6---6---6---6---6---6---6---6---6---6---6---6---|
C#-----------------------------------------------------------------|

Guitar 3
D#-----------------------------------------------------------------|
A#-8~~-8~~-8~~-8~~-8~~-8~~-8~~-8~~-8~~-8~~-8~~-8~~-8~~-8~~-8~~-8~~-|
F#-8~~-8~~-8~~-8~~-8~~-8~~-8~~-8~~-8~~-8~~-8~~-8~~-8~~-8~~-8~~-8~~-|
C#-8~~-8~~-8~~-8~~-8~~-8~~-8~~-8~~-8~~-8~~-8~~-8~~-8~~-8~~-8~~-8~~-|
G#-6~~-6~~-6~~-6~~-6~~-6~~-6~~-6~~-6~~-6~~-6~~-6~~-6~~-6~~-6~~-6~~-|
D#-----------------------------------------------------------------|

===================================================================

Guitar 1 & 2
D#-----------------------------------------------------------------|
A#-----------------------------------------------------------------|
F#-----------------------------------------------------------------|
C#-5---5---5---5---5---5---5---5---3---3---3---3---3---3---3---3---|
G#-5---5---5---5---5---5---5---5---3---3---3---3---3---3---3---3---|
C#-5---5---5---5---5---5---5---5---3---3---3---3---3---3---3---3---|

Guitar 3
D#-3~~-3~~-3~~-3~~-3~~-3~~-3~~-3~~-1~~-1~~-1~~-1~~-1~~-1~~-1~~-1~~-|
A#-3~~-3~~-3~~-3~~-3~~-3~~-3~~-3~~-1~~-1~~-1~~-1~~-1~~-1~~-1~~-1~~-|
F#-3~~-3~~-3~~-3~~-3~~-3~~-3~~-3~~-2~~-2~~-2~~-2~~-2~~-2~~-2~~-2~~-|
C#-5~~-5~~-5~~-5~~-5~~-5~~-5~~-5~~-3~~-3~~-3~~-3~~-3~~-3~~-3~~-3~~-|
G#-5~~-5~~-5~~-5~~-5~~-5~~-5~~-5~~-3~~-3~~-3~~-3~~-3~~-3~~-3~~-3~~-|
D#-----------------------------------------------------------------|

===================================================================

Guitar 1 & 2
D#-----------------------------------------------------------------|
A#-----------------------------------------------------------------|
F#-8---8---8---8---8---8---8---8---8---8---8---8---8---8---8---8---|
C#-8---8---8---8---8---8---8---8---8---8---8---8---8---8---8---8---|
G#-6---6---6---6---6---6---6---6---6---6---6---6---6---6---6---6---|
C#-----------------------------------------------------------------|

Guitar 3
D#-----------------------------------------------------------------|
A#-8~~-8~~-8~~-8~~-8~~-8~~-8~~-8~~-8~~-8~~-8~~-8~~-8~~-8~~-8~~-8~~-|
F#-8~~-8~~-8~~-8~~-8~~-8~~-8~~-8~~-8~~-8~~-8~~-8~~-8~~-8~~-8~~-8~~-|
C#-8~~-8~~-8~~-8~~-8~~-8~~-8~~-8~~-8~~-8~~-8~~-8~~-8~~-8~~-8~~-8~~-|
G#-6~~-6~~-6~~-6~~-6~~-6~~-6~~-6~~-6~~-6~~-6~~-6~~-6~~-6~~-6~~-6~~-|
D#-----------------------------------------------------------------|

===================================================================

Guitar 1 & 2
D#-----------------------------------------------------------------|
A#-----------------------------------------------------------------|
F#-----------------------------------------------------------------|
C#-5---5---5---5---5---5---5---5---3---3---3---3---3---3---3---3---|
G#-5---5---5---5---5---5---5---5---3---3---3---3---3---3---3---3---|
C#-5---5---5---5---5---5---5---5---3---3---3---3---3---3---3---3---|

Guitar 3
D#-3~~-3~~-3~~-3~~-3~~-3~~-3~~-3~~-1~~-1~~-1~~-1~~-1~~-1~~-1~~-1~~-|
A#-3~~-3~~-3~~-3~~-3~~-3~~-3~~-3~~-1~~-1~~-1~~-1~~-1~~-1~~-1~~-1~~-|
F#-3~~-3~~-3~~-3~~-3~~-3~~-3~~-3~~-2~~-2~~-2~~-2~~-2~~-2~~-2~~-2~~-|
C#-5~~-5~~-5~~-5~~-5~~-5~~-5~~-5~~-3~~-3~~-3~~-3~~-3~~-3~~-3~~-3~~-|
G#-5~~-5~~-5~~-5~~-5~~-5~~-5~~-5~~-3~~-3~~-3~~-3~~-3~~-3~~-3~~-3~~-|
D#-----------------------------------------------------------------|

===================================================================

Guitar 1
D#-----------------------------------------------------------------|
A#-----------------------------------------------------------------|
F#-8---8---8---8---8---8---8---8-----------------------------------|
C#-8---8---8---8---8---8---8---8---------------3---3---5---5---5---|
G#-6---6---6---6---6---6---6---6---3---5---5-----------------------|
C#-----------------------------------------------------------------|

Guitar 2
D#-----------------------------------------------------------------|
A#-----------------------------------------------------------------|
F#-8---8---8---8---8---8---8---8-----------------------------------|
C#-8---8---8---8---8---8---8---8---------------7---7---8---8---8---|
G#-6---6---6---6---6---6---6---6---3---5---5-----------------------|
C#-----------------------------------------------------------------|

Guitar 3
D#-----------------------------------------------------------------|
A#-8~~-8~~-8~~-8~~-8~~-8~~-8~~-8~~-8~~-8~~-8~~-8~~-8~~-8~~-8~~-8~~-|
F#-8~~-8~~-8~~-8~~-8~~-8~~-8~~-8~~-8~~-8~~-8~~-8~~-8~~-8~~-8~~-8~~-|
C#-8~~-8~~-8~~-8~~-8~~-8~~-8~~-8~~-8~~-8~~-8~~-8~~-8~~-8~~-8~~-8~~-|
G#-6~~-6~~-6~~-6~~-6~~-6~~-6~~-6~~-6~~-6~~-6~~-6~~-6~~-6~~-6~~-6~~-|
D#-----------------------------------------------------------------|

===================================================================

Guitar 1 & 2
D#-----------------------------------------------------------------|
A#-----------------------------------------------------------------|
F#-----------------------------------------------------------------|
C#-5---5---5---5---5---5---5---5---3---3---3---3---3---3---3---3---|
G#-5---5---5---5---5---5---5---5---3---3---3---3---3---3---3---3---|
C#-5---5---5---5---5---5---5---5---3---3---3---3---3---3---3---3---|

Guitar 3
D#-3~~-3~~-3~~-3~~-3~~-3~~-3~~-3~~-1~~-1~~-1~~-1~~-1~~-1~~-1~~-1~~-|
A#-3~~-3~~-3~~-3~~-3~~-3~~-3~~-3~~-1~~-1~~-1~~-1~~-1~~-1~~-1~~-1~~-|
F#-3~~-3~~-3~~-3~~-3~~-3~~-3~~-3~~-2~~-2~~-2~~-2~~-2~~-2~~-2~~-2~~-|
C#-5~~-5~~-5~~-5~~-5~~-5~~-5~~-5~~-3~~-3~~-3~~-3~~-3~~-3~~-3~~-3~~-|
G#-5~~-5~~-5~~-5~~-5~~-5~~-5~~-5~~-3~~-3~~-3~~-3~~-3~~-3~~-3~~-3~~-|
D#-----------------------------------------------------------------|

===================================================================

Guitar 1
D#-----------------------------------------------------------------|
A#-----------------------------------------------------------------|
F#-8---8---8---8---8---8---8---8---8---8---8---8---8---8---8---8---|
C#-8---8---8---8---8---8---8---8---8---8---8---8---8---8---8---8---|
G#-6---6---6---6---6---6---6---6---6---6---6---6---6---6---6---6---|
C#-----------------------------------------------------------------|

Guitar 2
D#-----------------------------------------------------------------|
A#-----------------------------------------------------------------|
F#-8---8---8---8---8---8---8---8---5---5---5---2---2---3---3---3---|
C#-8---8---8---8---8---8---8---8---x---x---x---x---x---x---x---x---|
G#-6---6---6---6---6---6---6---6---3---3---3---0---0---1---1---1---|
C#-----------------------------------------------------------------|

Guitar 3
D#-----------------------------------------------------------------|
A#-8~~-8~~-8~~-8~~-8~~-8~~-8~~-8~~-8~~-8~~-8~~-8~~-8~~-8~~-8~~-8~~-|
F#-8~~-8~~-8~~-8~~-8~~-8~~-8~~-8~~-8~~-8~~-8~~-8~~-8~~-8~~-8~~-8~~-|
C#-8~~-8~~-8~~-8~~-8~~-8~~-8~~-8~~-8~~-8~~-8~~-8~~-8~~-8~~-8~~-8~~-|
G#-6~~-6~~-6~~-6~~-6~~-6~~-6~~-6~~-6~~-6~~-6~~-6~~-6~~-6~~-6~~-6~~-|
D#-----------------------------------------------------------------|

===================================================================
===================================================================


Outro

Guitar 1
D#-----------------------------------------------------------------|
A#-----------------------------------------------------16~-15~-----|
F#-12~~~~~~~~~~~~~~~~~-15~-14~---------------------------------17~-|
C#-----------------------------15~---------------------------------|
G#-----------------------------------------------------------------|
C#-----------------------------------------------------------------|

Guitar 2
D#-----------------------------------------------------------------|
A#-----------------------------------------------------------------|
F#-----------------------------------------------------------------|
C#-5~~~~~~~~~~~~~~~~~~~~~~~~~~~~~~~~~~~~~~~~~~~~~~~~~~~~~~~~~~~~~~-
G#-5~~~~~~~~~~~~~~~~~~~~~~~~~~~~~~~~~~~~~~~~~~~~~~~~~~~~~~~~~~~~~~-
C#-5~~~~~~~~~~~~~~~~~~~~~~~~~~~~~~~~~~~~~~~~~~~~~~~~~~~~~~~~~~~~~~-

Guitar 3
D#-3~~~~~~~~~~~~~~~~~~~~~~~~~~~~~~~~~~~~~~~~~~~~~~~~~~~~~~~~~~~~~~-
A#-3~~~~~~~~~~~~~~~~~~~~~~~~~~~~~~~~~~~~~~~~~~~~~~~~~~~~~~~~~~~~~~-
F#-3~~~~~~~~~~~~~~~~~~~~~~~~~~~~~~~~~~~~~~~~~~~~~~~~~~~~~~~~~~~~~~-
C#-5~~~~~~~~~~~~~~~~~~~~~~~~~~~~~~~~~~~~~~~~~~~~~~~~~~~~~~~~~~~~~~-
G#-5~~~~~~~~~~~~~~~~~~~~~~~~~~~~~~~~~~~~~~~~~~~~~~~~~~~~~~~~~~~~~~-
D#-----------------------------------------------------------------

===================================================================

Guitar 1
D#-----------------------------------------------------------------|
A#---------15~-----------------------------------------------------|
F#-------------15~-------------12~-14~-----------------15~-14~-----|
C#-------------------------------------------------------------13~-|
G#-----------------------------------------------------------------|
C#-----------------------------------------------------------------|

===================================================================

Guitar 1 (Fade Out)
D#---------------------------------------------------------13~-15~-|
A#-------------------------15~-16~---------------------------------|
F#-----------------------------------------------------------------|
C#-----------------------------------------------------------------|
G#-----------------------------------------------------------------|
C#-----------------------------------------------------------------|

===================================================================
===================================================================
===================================================================


Tab Legend
h  - hammer-on
p  - pull-off
/  - slide up
\  - slide down
ps/- pickslide up
ps\- pickslide down
~  - let ring
pm.- palm mute
b  - bend
r  - return from bend
t  - finger tapping
*  - harmonic
x  - dead note
^  - Whammy bar
^\ - Whammy bar (hold down)

That is all! I hope this helped, and be sure to check out my cover if you are
having problems with the tab. Thanks, oh and one last thing... ROCK OUT!!!!
comments
We did not receive enough feedback on this tab! Please rate:
print report bad tab
1 2 3 4 5
1 comment total.
0 reply
AsILayDying504 wrote on June 30 2012, 02:22 pm

Just a suggestion, you might want to edit this tab and change the title to "Miles Away". I don't know if you noticed your mistake or not. :p

I want to post or [tab]
guest
You may want to rate the tab now too:
select rating
Please do not post tabs as comments. Select "correction" instead!