Oops, an error
Loading. Please wait.

Prove Me Right Tab

ver1
ver1

Whole song

More versions @911Tabs.com
19,816 views 54 this week
no commentswrite comment
1 2 3 4 5
accurate
x 7
Autoscroll
+/-
esc
set tempo
stop
Contributor
Difficulty
intermediate
Hey! There's an official Ultimate Guitar app which is ideal
for learning songs when you're away from computer. Get the app
WARNING: You are trying to view
                                    content from Ultimate-Guitar.com
                                    in an unauthorized application,
                                    which is prohibited.

                                    Please use an official Ultimate
                                    Guitar Tabs application for iPhone,
                                    iPad or Android to access legitimate
                                    chords, guitar, bass, and drum tabs
                                    from Ultimate-Guitar.com database.

                                    Type "ultimate guitar tabs" in Apple
                                    App Store's or Android Market's
                                    search to find the application.
----------------------------------------------------------------------------
                             Prove Me Right
                            Memphis May Fire
----------------------------------------------------------------------------

MMF has just grown so much it is incredible. This song is so intense and very creative.
They really put their soul into uncovering the record companies’ greed. In my point of
view, it is a dark and very emotional song and I love the guitar riffs for relating 
perfectly with the tone of the song. Enjoy!

Username: dkm817 (same on X box live)
Youtube Cover: http://www.youtube.com/watch?v=wk0e8BRifAU
Email: guitardrums@rockfan.com

Guitar 1 Rhythmic (G# D# G# C# F  A#)
Guitar 2 Lead     (G# D# G# C# F  A#)

Tab Guide...
==================================================================
(end of measures)

==================================================================
==================================================================
(end of parts)

==================================================================
==================================================================
==================================================================
(end of song)
(If there is a “continued” it is because the numbers could not
fit on 1 line or connecting times played.)


Intro

Guitar 1
A#-----------------------------------------------------------------|
F -----------------------------------------------------------------|
C#-----------------------------------------------------------------|
G#-----------------------------------------------------------------|
D#-----------------------------------------------------------------|
G#-12--12--12--12--12--12--12--12--8---8---8---8---8---8---8---8---|

Guitar 2
A#-----------------------------------------------------------------|
F -10--10--11------10--10--10--10--11------10--10--10--10--10--10--|
C#-------------12----------------------12--------------------------|
G#-----------------------------------------------------------------|
D#-----------------------------------------------------------------|
G#-----------------------------------------------------------------|

===================================================================

Guitar 1
A#-----------------------------------------------------------------|
F -----------------------------------------------------------------|
C#-----------------------------------------------------------------|
G#-----------------------------------------------------------------|
D#-----------------------------------------------------------------|
G#-11--11--11--11--11--11--11--11--7---7---7---7---7---3---3---5---|

Guitar 2
A#-----------------------------------------------------------------|
F -10--10--11------10--10--10--10--11------10--10--13--13--11--11--|
C#-------------12----------------------12--------------------------|
G#-----------------------------------------------------------------|
D#-----------------------------------------------------------------|
G#-----------------------------------------------------------------|

===================================================================

Guitar 1
A#-----------------------------------------------------------------|
F -----------------------------------------------------------------|
C#-----------------------------------------------------------------|
G#-----------------------------------------------------------------|
D#-----------------------------------------------------------------|
G#-12--12--12--12--12--12--12--12--8---8---8---8---8---8---8---8---|

Guitar 2
A#-----------------------------------------------------------------|
F -10--10--11------10--10--10--10--11------10--10--10--10--10--10--|
C#-------------12----------------------12--------------------------|
G#-----------------------------------------------------------------|
D#-----------------------------------------------------------------|
G#-----------------------------------------------------------------|

===================================================================

Guitar 1
A#-----------------------------------------------------------------|
F -----------------------------------------------------------------|
C#-----------------------------------------2*~---------2*~---------|
G#---------------------------------x-x-x-x-2*~-x-x-x-x-2*~-x-x-x-x-|
D#---------------------------------x-x-x-x-0*~-x-x-x-x-0*~-x-x-x-x-|
G#-11--11--11--11--11--11--11--11--x-x-x-x-----x-x-x-x-----x-x-x-x-|

Guitar 2
A#-----------------------------------------------------------------|
F -10--10--11------10--10--10--10----------------------------------|
C#-------------12--------------------------2*~---------2*~---------|
G#---------------------------------x-x-x-x-2*~-x-x-x-x-2*~-x-x-x-x-|
D#---------------------------------x-x-x-x-0*~-x-x-x-x-0*~-x-x-x-x-|
G#---------------------------------x-x-x-x-----x-x-x-x-----x-x-x-x-|

===================================================================
===================================================================


Verse 1

Guitar 1 & 2
A#-----------------------------------------------------------------|
F -----------------------------------------------------------------|
C#-----------------------------------------------------------------|
G#-------------------------------------------------5---7-----------|
D#---------5-------8-8-8-------------------3---5-----------8---7---|
G#-0---0-------0-----------0---2---3---0---------------------------|

===================================================================

Guitar 1
A#-----------------------------------------------------------------|
F -----------------------------------------------------------------|
C#-----------------------------------------------------------------|
G#-----7---7-------7---7---7-7-7-7-7---5---5-------3---2-----------|
D#-0-----------0-----------7-7-7-7-7-----------------------3---5---|
G#-------------------------7-7-7-7-7-----------5-------------------|
Pm                         . . . . .           .

Guitar 2
A#-----------------------------------------------------------------|
F -----------------------------------------------------------------|
C#-----------------------------------------------------------------|
G#-----7---7-------7---7---7-7-7-7-7---5---5-------7---5-----------|
D#-0-----------0-----------7-7-7-7-7-----------------------7---8---|
G#-------------------------7-7-7-7-7-----------5-------------------|
Pm                         . . . . .           .

===================================================================

Guitar 1 & 2
A#-----------------------------------------------------------------|
F -----------------------------------------------------------------|
C#-----------------------------------------------------------------|
G#-----------------------------------------------------------------|
D#---------5-------8-8-8-------------------3---5-------------------|
G#-0---0-------0-----------0---2---3---0-----------3---2---0---2---|

===================================================================

Guitar 1
A#-----------------------------------------------------------------|
F -----------------------------------------------------------------|
C#-----------------------------------------------------------------|
G#---------------------------------7---7---7---8---8---8---7---7---|
D#-----------------5---5---4---4-----------------------------------|
G#-8---8---8---8---------------------------------------------------|

Guitar 2
A#-----------------------------------------------------------------|
F -----------------------------------------------------------------|
C#-----------------------------------------------------------------|
G#---------------------------------7---7---7---5---5---5---3---3---|
D#-----------------------------------------------------------------|
G#-5---5---5---5---8---8---7---7-----------------------------------|

===================================================================

Guitar 1
A#-----------------------------------------------------------------|
F -----------------------------------------------------------------|
C#-----------------------------------------------------------------|
G#-------------------------------------------------5---7-----------|
D#---------5-------8-8-8-------------------3---5-----------8---7---|
G#-0---0-------0-----------0---2---3---0---------------------------|

Guitar 2
A#-----------------------------------------------------------------|
F -----------------------------------------------------------------|
C#-----------------------------------------------------------------|
G#-0-0-0-------0-0-0-------0-0-0-------0-0-0-------0-0---0-0---0-0-|
D#-0-0-0-------0-0-0-------0-0-0-------0-0-0-------0-0---0-0---0-0-|
G#-0-0-0-------0-0-0-------0-0-0-------0-0-0-------0-0---0-0---0-0-|
Pm . . .       . . .       . . .       . . .       . .   . .   . .

===================================================================

Guitar 1
A#-----------------------------------------------------------------|
F -----------------------------------------------------------------|
C#-----------------------------------------------------------------|
G#-----7---7-------7---7---7-7-7-------5---5-------3---2-----------|
D#-0-----------0-----------7-7-7---------------------------3---5---|
G#-------------------------7-7-7---------------5-------------------|
Pm                         . . .               .

Guitar 2
A#-----------------------------------------------------------------|
F -----------------------------------------------------------------|
C#-----------------------------------------------------------------|
G#-8-8-8-------8-8-8-------7-7-7-------7-7-7-------7---5-----------|
D#-8-8-8-------8-8-8-------7-7-7-------7-7-7---------------7---8---|
G#-8-8-8-------8-8-8-------7-7-7-------7-7-7-----------------------|
Pm . . .       . . .       . . .       . . .

===================================================================

Guitar 1
A#-----------------------------------------------------------------|
F -----------------------------------------------------------------|
C#-----------------------------------------------------------------|
G#---------------------------------------------------------5---7---|
D#---------5-------8-8-8-------------------3---5---5---7-----------|
G#-0---0-------0-----------0---2---3---0---------------------------|

Guitar 2
A#-----------------------------------------------------------------|
F -------------------------------------------------11--10--8-------|
C#-----------------------------------------------------------------|
G#-0-0-0-------0-0-0-------0-0-0-------0-0-0-------------------10--|
D#-0-0-0-------0-0-0-------0-0-0-------0-0-0-----------------------|
G#-0-0-0-------0-0-0-------0-0-0-------0-0-0-----------------------|
Pm . . .       . . .       . . .       . . .

===================================================================

Guitar 1
A#-----------------------------------------------------------------|
F -----------------------------------------------------------------|
C#-----------------------------------------------------------------|
G#-8---8---8---8---8---8---8---8---7---7---7---7---7---7---7---7---|
D#-8---8---8---8---8---8---8---8---7---7---7---7---7---7---7---7---|
G#-8---8---8---8---8---8---8---8---7---7---7---7---7---7---7---7---|

Guitar 2
A#-----------------------------------------------------------------|
F ---------------------------------10--10--10----------------------|
C#-----10~~~~~~~~~~~~~~~~~~~~~~~~~-------------10--10--10--9---9---|
G#-12~~~~~~~~~~~~~~~~~~~~~~~~~~~~~---------------------------------|
D#-----------------------------------------------------------------|
G#-----------------------------------------------------------------|

===================================================================
===================================================================


Pre Chorus 1

Guitar 1 & 2
A#-----------------------------------------------------------------|
F -----------------------------------------------------------------|
C#-----------------------------------------------------------------|
G#-7-----------------------5h7p5---5-------2h3p2---2---0-----------|
D#-----8-------------------------7---------------3-----------------|
G#---------0-0-0---0-0-0---------------0-------------------0-0-0---|
Pm         . . .   . . .               .                   . . .

===================================================================

Guitar 1
A#-----------------------------------------------------------------|
F -------------------------------------------------5---3-----------|
C#-----------------------------------------------------------------|
G#-7-----------------------5h7p5---5-------2h3p2-------------------|
D#-----8-------------------------7---------------3-----------------|
G#---------0-0-0---0-0-0---------------0-------------------0-0-0---|
Pm         . . .   . . .               .                   . . .

Guitar 2
A#-----------------------------------------------------------------|
F -----------------------------------------------------------------|
C#-----------------------------------------9h10p9----12-10---------|
G#-7-----------------------8h10p8----8------------10---------------|
D#-----8--------------------------10-------------------------------|
G#---------0-0-0---0-0-0---------------0-------------------0-0-0---|
Pm         . . .   . . .               .                   . . .

===================================================================

Guitar 1 & 2
A#-----------------------------------------------------------------|
F -----------------------------------------------------------------|
C#-----------------------------------------------------------------|
G#-7-----------------------5h7p5---5-------2h3p2---2---0-----------|
D#-----8-------------------------7---------------3-----------------|
G#---------0-0-0---0-0-0---------------0-------------------0-0-0---|
Pm         . . .   . . .               .                   . . .

===================================================================

Guitar 1
A#-----------------------------------------------------------------|
F -----------------------------------------------------------------|
C#-----------------------------------------------------------------|
G#-7---------------------------------------------------------------|
D#-----8-----------------------------------------------------------|
G#---------0-0-0---0-0-0---0---8---11--11--11--11--11--12--11------|
Pm         . . .   . . .

Guitar 2
A#-----------------------------------------------------------------|
F -----------------------------------------------------------------|
C#-----------------------------------------------------------------|
G#-7---------------------------------------------------------------|
D#-----8-----------------------------------------------------------|
G#---------0-0-0---0-0-0---0---5---7---7---7---7---7---8---7-------|
Pm         . . .   . . .

===================================================================
===================================================================


Chorus

Guitar 1
A#-----------------------------------------------------------------|
F -----------------------------------------------------------------|
C#-7---7---7---7---7---7---7---7-----------------------------------|
G#-7---7---7---7---7---7---7---7---8---8---8---8---8---8---8---8---|
D#-5---5---5---5---5---5---5---5---8---8---8---8---8---8---8---8---|
G#---------------------------------8---8---8---8---8---8---8---8---|

Guitar 2
A#-----------------------------------------------------------------|
F -10--10--10------------------------------------------------------|
C#-------------12--12--12--10--10--10------10------10----------10--|
G#-------------------------------------12------12------12--12------|
D#-----------------------------------------------------------------|
G#-----------------------------------------------------------------|

===================================================================

Guitar 1
A#-----------------------------------------------------------------|
F -----------------------------------------------------------------|
C#-6---6---6---6---6---6---6---6---------------------------6---6---|
G#-6---6---6---6---6---6---6---6---3---3---3---2---2---2---6---6---|
D#-4---4---4---4---4---4---4---4---------------------------4---4---|
G#-----------------------------------------------------------------|
Pm                                                         .   .

Guitar 2
A#---------------------10------------------------------------------|
F -11--11--11--10--10----------------------------------------------|
C#-------------------------12--12--12--12--12--12--12--12--12--12--|
G#-----------------------------------------------------------------|
D#-----------------------------------------------------------------|
G#-----------------------------------------------------------------|

===================================================================

Guitar 1
A#-----------------------------------------------------------------|
F -----------------------------------------------------------------|
C#-7---7---7---7---7---7---7---7-----------------------------------|
G#-7---7---7---7---7---7---7---7---8---8---8---8---8---8---8---8---|
D#-5---5---5---5---5---5---5---5---8---8---8---8---8---8---8---8---|
G#---------------------------------8---8---8---8---8---8---8---8---|

Guitar 2
A#-----------------------------------------------------------------|
F -10--10--10------------------------------------------------------|
C#-------------12--12--12--10--10--10------10------10----------10--|
G#-------------------------------------12------12------12--12------|
D#-----------------------------------------------------------------|
G#-----------------------------------------------------------------|

===================================================================

Guitar 1
A#-----------------------------------------------------------------|
F -----------------------------------------------------------------|
C#-6---6---6---6---6---6---6---------------------------------------|
G#-6---6---6---6---6---6---6---------------------------------------|
D#-4---4---4---4---4---4---4---1---1---0---0-----------------------|
G#---------------------------------------------5---5---3---2---3---|

Guitar 2
A#---------------------10--------------------------9---9---9---9---|
F -11--11--11--10--10----------------------------------------------|
C#-------------------------12--12--12--12--12--12------------------|
G#-----------------------------------------------------------------|
D#-----------------------------------------------------------------|
G#-----------------------------------------------------------------|

===================================================================

Guitar 1
A#-----------------------------------------------------------------|
F -----------------------------------------------------------------|
C#---------0---0---0---3---3---------------3---3---3---5---5-------|
G#-0-0-0-----------------------3---3-3-3-----------------------5---|
D#-0-0-0-----------------------3---3-3-3-----------------------5---|
G#-0-0-0-----------------------3---3-3-3-----------------------5---|
Pm . . .                       .   . . .                       .

Guitar 2
A#-----------------------------------------------------------------|
F -10--10--10------------------------------------------------------|
C#-------------12--12--12--10--10--10------10------10----------10--|
G#-------------------------------------12------12------12--12------|
D#-----------------------------------------------------------------|
G#-----------------------------------------------------------------|

===================================================================

Guitar 1
A#-----------------------------------------------------------------|
F -----------------------------------------------------------------|
C#---------5---5---5---5---5---8---8---7---7---5---5---------------|
G#-5-5-5-----------------------------------------------8---8---7---|
D#-5-5-5-----------------------------------------------------------|
G#-5-5-5-----------------------------------------------------------|
Pm . . .

Guitar 2
A#---------------------10--------------------------12--13--12--13--|
F -11--11--11--10--10----------------------------------------------|
C#-------------------------12--12--12--12--12--12------------------|
G#-----------------------------------------------------------------|
D#-----------------------------------------------------------------|
G#-----------------------------------------------------------------|

===================================================================

Guitar 1
A#-----------------------------------------------------------------|
F -----------------------------------------------------------------|
C#---------0---0---0---3---3---------------3---3---3---5---5-------|
G#-0-0-0-----------------------3---3-3-3-----------------------5---|
D#-0-0-0-----------------------3---3-3-3-----------------------5---|
G#-0-0-0-----------------------3---3-3-3-----------------------5---|
Pm . . .                       .   . . .                       .

Guitar 2
A#-----------------------------------------------------------------|
F -10--10--10------------------------------------------------------|
C#-------------12--12--12--10--10--10------10------10----------10--|
G#-------------------------------------12------12------12--12------|
D#-----------------------------------------------------------------|
G#-----------------------------------------------------------------|

===================================================================

Guitar 1
A#-----------------------------------------------------------------|
F -----------------------------------------------------------------|
C#---------5---5---5---5---5---8---8---7---7---5---5---------------|
G#-5-5-5-----------------------------------------------8---8---7---|
D#-5-5-5-----------------------------------------------------------|
G#-5-5-5-----------------------------------------------------------|
Pm . . .

Guitar 2
A#---------------------10--------------------------9---9---9---9---|
F -11--11--11--10--10----------------------------------------------|
C#-------------------------12--12--12--12--12--12------------------|
G#-----------------------------------------------------------------|
D#-----------------------------------------------------------------|
G#-----------------------------------------------------------------|

===================================================================
===================================================================


Bridge 1

Guitar 1
A#-----------------------------------------------------------------|
F -----------------------------------------------------------------|
C#-----------------------------------------------------------------|
G#-----------------------------------------------------------------|
D#-----------------------------------------5---1---4---------------|
G#-5*b~~~~-0---5*b~~~~-0---5---3---0---0---------------0---5---3---|
Pm         .           .               .               .

Guitar 2
A#-10~~~~~~~~~~~~~~~~~~~~~~~~~~~~~~~~~~~~~~~~~~~~~~~~~~~~~~~~~~~~~-
F -----------------------------------------------------------------|
C#-----------------------------------------------------------------|
G#-----------------------------------------------------------------|
D#-----------------------------------------------------------------|
G#-----------------------------------------------------------------|

===================================================================

Guitar 1 & 2
A#-----------------------------------------------------------------|
F -----------------------------------------------------------------|
C#-----------------------------------------------------------------|
G#-----------------------------------------------------------------|
D#-----------------------------------------5---1---4-------5---8---|
G#-5*b~~~~-0---5*b~~~~-0---5---3---0---0---------------0-----------|
Pm         .           .               .               .

===================================================================

Guitar 1 & 2
A#-----------------------------------------------------------------|
F -----------------------------------------------------------------|
C#-----------------------------------------------------------------|
G#-----------------------------------------------------------------|
D#-----------------------------------------5---1---4---------------|
G#-5*b~~~~-0---5*b~~~~-0---5---3---0---0---------------0---5---3---|
Pm         .           .               .               .

===================================================================

Guitar 1 & 2
A#-----------------------------------------------------------------|
F -----------------------------------------------------------------|
C#-----------------------------------------------------------------|
G#-------------------------------------------------x-x-x-x-x---x---|
D#-----------------------------------------5---1---x-x-x-x-x---x---|
G#-5*b~~~~-0---5*b~~~~-0---5---3---0---0-----------x-x-x-x-x---x---|
Pm         .           .               .

===================================================================


Breakdown 1

Guitar 1 & 2
A#-----------------------------------------------------------------|
F -----------------------------------------------------------------|
C#-----------------------------------------------------------------|
G#-0-0-0---0---0-0-0---0---0-0-0---0---0-0-0---0---0-0-0---3---6---|
D#-0-0-0---0---0-0-0---0---0-0-0---0---0-0-0---0---0-0-0---3---6---|
G#-0-0-0---0---0-0-0---0---0-0-0---0---0-0-0---0---0-0-0---3---6---|
Pm . . .   .   . . .   .   . . .   .   . . .   .   . . .

===================================================================

Guitar 1 & 2
A#-----------------------------------------------------------------|
F -----------------------------------------------------------------|
C#-----------------------------------------------------------------|
G#-0-0-0---0---0-0-0---0---0-0-0---0-------------------------------|
D#-0-0-0---0---0-0-0---0---0-0-0---0-------------------------------|
G#-0-0-0---0---0-0-0---0---0-0-0---0---8---8---8---8b--7---7---7---|
Pm . . .   .   . . .   .   . . .   .

===================================================================

Guitar 1 & 2
A#-----------------------------------------------------------------|
F -----------------------------------------------------------------|
C#-----------------------------------------------------------------|
G#-0-0-0---0---0-0-0---0---0-0-0---0---0-0-0---0---3---6---6---3---|
D#-0-0-0---0---0-0-0---0---0-0-0---0---0-0-0---0---3---6---6---3---|
G#-0-0-0---0---0-0-0---0---0-0-0---0---0-0-0---0---3---6---6---3---|
Pm . . .   .   . . .   .   . . .   .   . . .   .

===================================================================

Guitar 1
A#-----------------------------------------------------------------|
F -----------------------------------------------------------------|
C#-----------------------------------------------------------------|
G#-0-0-0---0---0-0-0---0---0-0-0---0-------------------------------|
D#-0-0-0---0---0-0-0---0---0-0-0---0-------------------------------|
G#-0-0-0---0---0-0-0---0---0-0-0---0---8---8---8---8b--11--11--11--|
Pm . . .   .   . . .   .   . . .   .

Guitar 2
A#-----------------------------------------------------------------|
F -----------------------------------------------------------------|
C#-----------------------------------------------------------------|
G#-0-0-0---0---0-0-0---0---0-0-0---0-------------------------------|
D#-0-0-0---0---0-0-0---0---0-0-0---0-------------------------------|
G#-0-0-0---0---0-0-0---0---0-0-0---0---8---8---8---8b--7---7---7---|
Pm . . .   .   . . .   .   . . .   .

===================================================================

Guitar 1 & 2
A#-----------------------------------------------------------------|
F -----------------------------------------------------------------|
C#-----------------------------------------------------------------|
G#-0-0-0---0---0-0-0---0---0-0-0---0---0-0-0---0---0-0-0---3---6---|
D#-0-0-0---0---0-0-0---0---0-0-0---0---0-0-0---0---0-0-0---3---6---|
G#-0-0-0---0---0-0-0---0---0-0-0---0---0-0-0---0---0-0-0---3---6---|
Pm . . .   .   . . .   .   . . .   .   . . .   .   . . .

===================================================================

Guitar 1
A#-----------------------------------------------------------------|
F -----------------------------------------------------------------|
C#-----------------------------------------------------------------|
G#-0-0-0---0---0-0-0---0---0-0-0---0-------------------------------|
D#-0-0-0---0---0-0-0---0---0-0-0---0-------------------------------|
G#-0-0-0---0---0-0-0---0---0-0-0---0---8---8---8---8b--7---7---7---|
Pm . . .   .   . . .   .   . . .   .

Guitar 1
A#-----------------------------------------------------------------|
F -----------------------------------------------------------------|
C#-------------------------------------11--11--11--11b-10--10--10--|
G#-0-0-0---0---0-0-0---0---0-0-0---0-------------------------------|
D#-0-0-0---0---0-0-0---0---0-0-0---0-------------------------------|
G#-0-0-0---0---0-0-0---0---0-0-0---0-------------------------------|
Pm . . .   .   . . .   .   . . .   .

===================================================================

Guitar 1 & 2
A#-----------------------------------------------------------------|
F -----------------------------------------------------------------|
C#-----------------------------------------------------------------|
G#-0-0-0---0---0-0-0---0---0-0-0---0---0-0-0---0---3---6---6---3---|
D#-0-0-0---0---0-0-0---0---0-0-0---0---0-0-0---0---3---6---6---3---|
G#-0-0-0---0---0-0-0---0---0-0-0---0---0-0-0---0---3---6---6---3---|
Pm . . .   .   . . .   .   . . .   .   . . .   .

===================================================================

Guitar 1
A#-----------------------------------------------------------------|
F -----------------------------------------------------------------|
C#-----------------------------------------------------------------|
G#-0-0-0---0---0-0-0---0---0-0-0---0-------------------------------|
D#-0-0-0---0---0-0-0---0---0-0-0---0-------------------------------|
G#-0-0-0---0---0-0-0---0---0-0-0---0---8---8---8---8b--11--11--11--|
Pm . . .   .   . . .   .   . . .   .

Guitar 2
A#-----------------------------------------------------------------|
F -----------------------------------------------------------------|
C#-------------------------------------11--11--11--11b-10--10--10--|
G#-0-0-0---0---0-0-0---0---0-0-0---0-------------------------------|
D#-0-0-0---0---0-0-0---0---0-0-0---0-------------------------------|
G#-0-0-0---0---0-0-0---0---0-0-0---0-------------------------------|
Pm . . .   .   . . .   .   . . .   .

===================================================================
===================================================================


Break Off

Guitar 1
A#---------------------------------|
F ---------------------------------|
C#---------------------------------|
G#---------------------------------|
D#-5-----------7-------8---4---4---|
G#-----0---0-------0---------------|
Pm     .   .       .

===================================================================
===================================================================


Verse 2

Guitar 1 & 2
A#-----------------------------------------------------------------|
F -----------------------------------------------------------------|
C#-----------------------------------------------------------------|
G#-------------------------------------------------5---7-----------|
D#---------5-------8-8-8-------------------3---5-----------8---7---|
G#-0---0-------0-----------0---2---3---0---------------------------|

===================================================================

Guitar 1
A#-----------------------------------------------------------------|
F -----------------------------------------------------------------|
C#-----------------------------------------------------------------|
G#-----7---7-------7---7---7-7-7-7-7---5---5-------3---2-----------|
D#-0-----------0-----------7-7-7-7-7-----------------------3---5---|
G#-------------------------7-7-7-7-7-----------5-------------------|
Pm                         . . . . .           .

Guitar 2
A#-----------------------------------------------------------------|
F -----------------------------------------------------------------|
C#-----------------------------------------------------------------|
G#-----7---7-------7---7---7-7-7-7-7---5---5-------7---5-----------|
D#-0-----------0-----------7-7-7-7-7-----------------------7---8---|
G#-------------------------7-7-7-7-7-----------5-------------------|
Pm                         . . . . .           .

===================================================================

Guitar 1 & 2
A#-----------------------------------------------------------------|
F -----------------------------------------------------------------|
C#-----------------------------------------------------------------|
G#-----------------------------------------------------------------|
D#---------5-------8-8-8-------------------3---5-------------------|
G#-0---0-------0-----------0---2---3---0-----------3---2---0---2---|

===================================================================

Guitar 1
A#-----------------------------------------------------------------|
F -----------------------------------------------------------------|
C#-----------------------------------------------------------------|
G#-3-3-3-3-3-3-3-3-3-3-3-3-3-3-3-3-7-7-7-7-7-7-7-7-7-7-7-7-7-7-7-7-|
D#-----------------------------------------------------------------|
G#-----------------------------------------------------------------|

Guitar 2
A#-----------------------------------------------------------------|
F -----------------------------------------------------------------|
C#-----------------------------------------------------------------|
G#---------------------------------7-7-7-7-5-5-5-5-3-3-3-3-2-2-2-2-|
D#-5-5-5-5-5-5-7-7-7-7-7-7-8-8-8-8---------------------------------|
G#-----------------------------------------------------------------|

===================================================================
===================================================================


Chorus

Guitar 1
A#-----------------------------------------------------------------|
F -----------------------------------------------------------------|
C#-7---7---7---7---7---7---7---7-----------------------------------|
G#-7---7---7---7---7---7---7---7---8---8---8---8---8---8---8---8---|
D#-5---5---5---5---5---5---5---5---8---8---8---8---8---8---8---8---|
G#---------------------------------8---8---8---8---8---8---8---8---|

Guitar 2
A#-----------------------------------------------------------------|
F -10--10--10------------------------------------------------------|
C#-------------12--12--12--10--10--10------10------10----------10--|
G#-------------------------------------12------12------12--12------|
D#-----------------------------------------------------------------|
G#-----------------------------------------------------------------|

===================================================================

Guitar 1
A#-----------------------------------------------------------------|
F -----------------------------------------------------------------|
C#-6---6---6---6---6---6---6---6---------------------------6---6---|
G#-6---6---6---6---6---6---6---6---3---3---3---2---2---2---6---6---|
D#-4---4---4---4---4---4---4---4---------------------------4---4---|
G#-----------------------------------------------------------------|
Pm                                                         .   .

Guitar 2
A#---------------------10------------------------------------------|
F -11--11--11--10--10----------------------------------------------|
C#-------------------------12--12--12--12--12--12--12--12--12--12--|
G#-----------------------------------------------------------------|
D#-----------------------------------------------------------------|
G#-----------------------------------------------------------------|

===================================================================

Guitar 1
A#-----------------------------------------------------------------|
F -----------------------------------------------------------------|
C#-7---7---7---7---7---7---7---7-----------------------------------|
G#-7---7---7---7---7---7---7---7---8---8---8---8---8---8---8---8---|
D#-5---5---5---5---5---5---5---5---8---8---8---8---8---8---8---8---|
G#---------------------------------8---8---8---8---8---8---8---8---|

Guitar 2
A#-----------------------------------------------------------------|
F -10--10--10------------------------------------------------------|
C#-------------12--12--12--10--10--10------10------10----------10--|
G#-------------------------------------12------12------12--12------|
D#-----------------------------------------------------------------|
G#-----------------------------------------------------------------|

===================================================================

Guitar 1
A#-----------------------------------------------------------------|
F -----------------------------------------------------------------|
C#-6---6---6---6---6---6---6---------------------------------------|
G#-6---6---6---6---6---6---6---------------------------------------|
D#-4---4---4---4---4---4---4---1---1---0---0-----------------------|
G#---------------------------------------------5---5---3---2---3---|

Guitar 2
A#---------------------10--------------------------9---9---9---9---|
F -11--11--11--10--10----------------------------------------------|
C#-------------------------12--12--12--12--12--12------------------|
G#-----------------------------------------------------------------|
D#-----------------------------------------------------------------|
G#-----------------------------------------------------------------|

===================================================================

Guitar 1
A#-----------------------------------------------------------------|
F -----------------------------------------------------------------|
C#---------0---0---0---3---3---------------3---3---3---5---5-------|
G#-0-0-0-----------------------3---3-3-3-----------------------5---|
D#-0-0-0-----------------------3---3-3-3-----------------------5---|
G#-0-0-0-----------------------3---3-3-3-----------------------5---|
Pm . . .                       .   . . .                       .

Guitar 2
A#-----------------------------------------------------------------|
F -10--10--10------------------------------------------------------|
C#-------------12--12--12--10--10--10------10------10----------10--|
G#-------------------------------------12------12------12--12------|
D#-----------------------------------------------------------------|
G#-----------------------------------------------------------------|

===================================================================

Guitar 1
A#-----------------------------------------------------------------|
F -----------------------------------------------------------------|
C#---------5---5---5---5---5---8---8---7---7---5---5---------------|
G#-5-5-5-----------------------------------------------8---8---7---|
D#-5-5-5-----------------------------------------------------------|
G#-5-5-5-----------------------------------------------------------|
Pm . . .

Guitar 2
A#---------------------10--------------------------12--13--12--13--|
F -11--11--11--10--10----------------------------------------------|
C#-------------------------12--12--12--12--12--12------------------|
G#-----------------------------------------------------------------|
D#-----------------------------------------------------------------|
G#-----------------------------------------------------------------|

===================================================================

Guitar 1
A#-----------------------------------------------------------------|
F -----------------------------------------------------------------|
C#---------0---0---0---3---3---------------3---3---3---5---5-------|
G#-0-0-0-----------------------3---3-3-3-----------------------5---|
D#-0-0-0-----------------------3---3-3-3-----------------------5---|
G#-0-0-0-----------------------3---3-3-3-----------------------5---|
Pm . . .                       .   . . .                       .

Guitar 2
A#-----------------------------------------------------------------|
F -10--10--10------------------------------------------------------|
C#-------------12--12--12--10--10--10------10------10----------10--|
G#-------------------------------------12------12------12--12------|
D#-----------------------------------------------------------------|
G#-----------------------------------------------------------------|

===================================================================

Guitar 1
A#-----------------------------------------------------------------|
F -----------------------------------------------------------------|
C#---------5---5---5---5---5---8---8---7---7---5---5---------------|
G#-5-5-5-----------------------------------------------8---8---7---|
D#-5-5-5-----------------------------------------------------------|
G#-5-5-5-----------------------------------------------------------|
Pm . . .

Guitar 2
A#---------------------10--------------------------9---9---9---9---|
F -11--11--11--10--10----------------------------------------------|
C#-------------------------12--12--12--12--12--12------------------|
G#-----------------------------------------------------------------|
D#-----------------------------------------------------------------|
G#-----------------------------------------------------------------|

===================================================================
===================================================================


Bridge 2

Guitar 1
A#-----------------------------------------------------------------|
F -11----------8-----------10-----------5-----------6-------3------|
C#-----------------------------------------------------------------|
G#--h12---------h8----------h10----------h5----------h8------h5----|
D#-----------------------------------------------------------------|
G#-----0---0-------0---0--------0---0-------0---0-------0------0---|
Pm     .   .       .   .        .   .       .   .       .      .

Guitar 2
A#-10~~~~~~~~~~~~~~~~~~~~~~~~~~~~~~~~~~~~~~~~~~~~~~~~~~~~~~~~~~~~~-
F -----------------------------------------------------------------|
C#-----------------------------------------------------------------|
G#-----------------------------------------------------------------|
D#-----------------------------------------------------------------|
G#-----------------------------------------------------------------|

===================================================================

Guitar 1
A#-----------------------------------------------------------------|
F -11----------8-------5-------6-----------------------------------|
C#-------------------------------------------------3h5p3p0---------|
G#--h12---------h8------h5------h8-------------------------3h5p3p0-|
D#-----------------------------------------------------------------|
G#-----0---0-------0-------0-------0---0---0---0-------------------|
Pm     .   .       .       .       .   .   .   .

Guitar 2
A#-----------------------------------------------------------------|
F -11----------8-------5-------6-----------------------------------|
C#-----------------------------------------------------------------|
G#--h12---------h8------h5------h8-----------------3h5p3p0---------|
D#---------------------------------------------------------3h5p3p0-|
G#-----0---0-------0-------0-------0---0---0---0-------------------|
Pm     .   .       .       .       .   .   .   .

===================================================================

Guitar 1
A#-----------------------------------------------------------------|
F -11----------8-----------10-----------5-----------6-------3------|
C#-----------------------------------------------------------------|
G#--h12---------h8----------h10----------h5----------h8------h5----|
D#-----------------------------------------------------------------|
G#-----0---0-------0---0--------0---0-------0---0-------0------0---|
Pm     .   .       .   .        .   .       .   .       .      .

===================================================================

Guitar 1 & 2
A#-----------------------------------------------------------------|
F -11----------8-------5-------3-----------------------------------|
C#-----------------------------------------------------------------|
G#--h12---------h8-------------------------------------------------|
D#-----------------------------------------------------------------|
G#-----0---0-------0-------0---------------------------------------|
Pm     .   .       .       .

===================================================================
===================================================================


Breakdown 2

Guitar 1 & 2
A#-----------------------------------------------------------------|
F -----------------------------------------------------------------|
C#-7-------7-------7-------7-------7-------7-----------------------|
G#-7---0---7---0---7---0---7---0---7---0---7---0---0-0-0-0-0-0-0-0-|
D#-5---0---5---0---5---0---5---0---5---0---5---0---0-0-0-0-0-0-0-0-|
G#-----0-------0-------0-------0-------0-------0---0-0-0-0-0-0-0-0-|
Pm     .       .       .       .       .       .   . . . . . . . .

===================================================================

Guitar 1 & 2
A#-----------------------------------------------------------------|
F -----------------------------------------------------------------|
C#-7-------7-------7-------7---------------------------------------|
G#-7---0---7---0---7---0---7---0-----------------------------------|
D#-5---0---5---0---5---0---5---0-----------------------------------|
G#-----0-------0-------0-------0---8---8---8---7---7---7---3---3---|
Pm     .       .       .       .

===================================================================

Guitar 1 & 2
A#-----------------------------------------------------------------|
F -----------------------------------------------------------------|
C#-7-------7-------7-------7-------7-------7-----------------------|
G#-7---0---7---0---7---0---7---0---7---0---7---0---0-0-0-0-0-0-0-0-|
D#-5---0---5---0---5---0---5---0---5---0---5---0---0-0-0-0-0-0-0-0-|
G#-----0-------0-------0-------0-------0-------0---0-0-0-0-0-0-0-0-|
Pm     .       .       .       .       .       .   . . . . . . . .

===================================================================

Guitar 1 & 2
A#-----------------------------------------------------------------|
F -----------------------------------------------------------------|
C#-7-------7-------7-------7---------------------------------------|
G#-7---0---7---0---7---0---7---0-----------------------------------|
D#-5---0---5---0---5---0---5---0-----------------------------------|
G#-----0-------0-------0-------0---7---7---7---3---3---3---5---5---|
Pm     .       .       .       .

===================================================================

Guitar 1 & 2
A#-----------------------------------------------------------------|
F -----------------------------------------------------------------|
C#-7-------7-------7-------7-------7-------7-----------------------|
G#-7---0---7---0---7---0---7---0---7---0---7---0---0-0-0-0-0-0-0-0-|
D#-5---0---5---0---5---0---5---0---5---0---5---0---0-0-0-0-0-0-0-0-|
G#-----0-------0-------0-------0-------0-------0---0-0-0-0-0-0-0-0-|
Pm     .       .       .       .       .       .   . . . . . . . .

===================================================================

Guitar 1
A#-----------------------------------------------------------------|
F -----------------------------------------------------------------|
C#-7-------7-------7-------7---------------------------------------|
G#-7---0---7---0---7---0---7---0-----------------------------------|
D#-5---0---5---0---5---0---5---0-----------------------------------|
G#-----0-------0-------0-------0-----------------------------------|
Pm     .       .       .       .

Guitar 2
A#-----------------------------------------------------------------|
F -----------------------------------------------------------------|
C#-7-------7-------7-------7---------------------------------------|
G#-7---0---7---0---7---0---7---0-----------------------------------|
D#-5---0---5---0---5---0---5---0-----------------------------------|
G#-----0-------0-------0-------0---8---8---8---7---7---7---3---3---|
Pm     .       .       .       .

===================================================================

Guitar 1 & 2
A#-----------------------------------------------------------------|
F -----------------------------------------------------------------|
C#-7-------7-------7-------7-------7-------7-----------------------|
G#-7---0---7---0---7---0---7---0---7---0---7---0---0-0-0-0-0-0-0-0-|
D#-5---0---5---0---5---0---5---0---5---0---5---0---0-0-0-0-0-0-0-0-|
G#-----0-------0-------0-------0-------0-------0---0-0-0-0-0-0-0-0-|
Pm     .       .       .       .       .       .   . . . . . . . .

===================================================================

Guitar 1 & 2
A#----------------------------------------------------------------------|
F ----------------------------------------------------------------------|
C#-7-------7-------7----------------------------------------------------|
G#-7---0---7---0---7---0---0--3--5--5--3--0--7--5--0--8--7--0--5--3--0--|
D#-5---0---5---0---5---0---0--3--5--5--3--0--7--5--0--8--7--0--5--3--0--|
G#-----0-------0-------0---0--3--5--5--3--0--7--5--0--8--7--0--5--3--0--|
Pm     .       .       .   .  .  .  .  .  .  .  .  .  .  .  .  .  .  .

===================================================================
===================================================================


Bridge 3

Guitar 1
A#-----------------------------------------------------------------|
F -----------------------------------------------------------------|
C#-----------------------------------------------------------------|
G#-0~~~~~~~~~~~~~~~~~~~~~~~~~~~~~~~~~~~~~~~~~~~~~~~~~~~~~~~~~~~~~~-
D#-0~~~~~~~~~~~~~~~~~~~~~~~~~~~~~~~~~~~~~~~~~~~~~~~~~~~~~~~~~~~~~~-
G#-0~~~~~~~~~~~~~~~~~~~~~~~~~~~~~~~~~~~~~~~~~~~~~~~~~~~~~~~~~~~~~~-

Guitar 2
A#-----------------------------------------------------------------|
F -10--10--11------10--10--10--10--11------10--10--10--10--10--10--|
C#-------------12----------------------12--------------------------|
G#-----------------------------------------------------------------|
D#-----------------------------------------------------------------|
G#-----------------------------------------------------------------|

===================================================================

Guitar 1
A#-----------------------------------------------------------------|
F -----------------------------------------------------------------|
C#-----------------------------------------------------------------|
G#---------------------------------ps\~~~~~~~~~~~~~~~~~~~~~~~~~~~~-|
D#---------------------------------ps\~~~~~~~~~~~~~~~~~~~~~~~~~~~~-|
G#---------------------------------ps\~~~~~~~~~~~~~~~~~~~~~~~~~~~~-|

Guitar 2
A#-----------------------------------------------------------------|
F -10--10--11------10--10--10--10----------------------------------|
C#-------------12--------------------------------------------------|
G#---------------------------------ps\~~~~~~~~~~~~~~~~~~~~~~~~~~~~-|
D#---------------------------------ps\~~~~~~~~~~~~~~~~~~~~~~~~~~~~-|
G#---------------------------------ps\~~~~~~~~~~~~~~~~~~~~~~~~~~~~-|

===================================================================
===================================================================


Chorus

Guitar 1
A#-----------------------------------------------------------------|
F -----------------------------------------------------------------|
C#-7---7---7---7---7---7---7---7-----------------------------------|
G#-7---7---7---7---7---7---7---7---8---8---8---8---8---8---8---8---|
D#-5---5---5---5---5---5---5---5---8---8---8---8---8---8---8---8---|
G#---------------------------------8---8---8---8---8---8---8---8---|

Guitar 2
A#-----------------------------------------------------------------|
F -10--10--10------------------------------------------------------|
C#-------------12--12--12--10--10--10------10------10----------10--|
G#-------------------------------------12------12------12--12------|
D#-----------------------------------------------------------------|
G#-----------------------------------------------------------------|

===================================================================

Guitar 1
A#-----------------------------------------------------------------|
F -----------------------------------------------------------------|
C#-6---6---6---6---6---6---6---6---------------------------6---6---|
G#-6---6---6---6---6---6---6---6---3---3---3---2---2---2---6---6---|
D#-4---4---4---4---4---4---4---4---------------------------4---4---|
G#-----------------------------------------------------------------|
Pm                                                         .   .

Guitar 2
A#---------------------10------------------------------------------|
F -11--11--11--10--10----------------------------------------------|
C#-------------------------12--12--12--12--12--12--12--12--12--12--|
G#-----------------------------------------------------------------|
D#-----------------------------------------------------------------|
G#-----------------------------------------------------------------|

===================================================================

Guitar 1
A#-----------------------------------------------------------------|
F -----------------------------------------------------------------|
C#-7---7---7---7---7---7---7---7-----------------------------------|
G#-7---7---7---7---7---7---7---7---8---8---8---8---8---8---8---8---|
D#-5---5---5---5---5---5---5---5---8---8---8---8---8---8---8---8---|
G#---------------------------------8---8---8---8---8---8---8---8---|

Guitar 2
A#-----------------------------------------------------------------|
F -10--10--10------------------------------------------------------|
C#-------------12--12--12--10--10--10------10------10----------10--|
G#-------------------------------------12------12------12--12------|
D#-----------------------------------------------------------------|
G#-----------------------------------------------------------------|

===================================================================

Guitar 1
A#-----------------------------------------------------------------|
F -----------------------------------------------------------------|
C#-6---6---6---6---6---6---6---------------------------------------|
G#-6---6---6---6---6---6---6---------------------------------------|
D#-4---4---4---4---4---4---4---1---1---0---0-----------------------|
G#---------------------------------------------5---5---3---2---3---|

Guitar 2
A#---------------------10--------------------------9---9---9---9---|
F -11--11--11--10--10----------------------------------------------|
C#-------------------------12--12--12--12--12--12------------------|
G#-----------------------------------------------------------------|
D#-----------------------------------------------------------------|
G#-----------------------------------------------------------------|

===================================================================

Guitar 1
A#-----------------------------------------------------------------|
F -----------------------------------------------------------------|
C#---------0---0---0---3---3---------------3---3---3---5---5-------|
G#-0-0-0-----------------------3---3-3-3-----------------------5---|
D#-0-0-0-----------------------3---3-3-3-----------------------5---|
G#-0-0-0-----------------------3---3-3-3-----------------------5---|
Pm . . .                       .   . . .                       .

Guitar 2
A#-----------------------------------------------------------------|
F -10--10--10------------------------------------------------------|
C#-------------12--12--12--10--10--10------10------10----------10--|
G#-------------------------------------12------12------12--12------|
D#-----------------------------------------------------------------|
G#-----------------------------------------------------------------|

===================================================================

Guitar 1
A#-----------------------------------------------------------------|
F -----------------------------------------------------------------|
C#---------5---5---5---5---5---8---8---7---7---5---5---------------|
G#-5-5-5-----------------------------------------------8---8---7---|
D#-5-5-5-----------------------------------------------------------|
G#-5-5-5-----------------------------------------------------------|
Pm . . .

Guitar 2
A#---------------------10--------------------------12--13--12--13--|
F -11--11--11--10--10----------------------------------------------|
C#-------------------------12--12--12--12--12--12------------------|
G#-----------------------------------------------------------------|
D#-----------------------------------------------------------------|
G#-----------------------------------------------------------------|

===================================================================

Guitar 1
A#-----------------------------------------------------------------|
F -----------------------------------------------------------------|
C#---------0---0---0---3---3---------------3---3---3---5---5-------|
G#-0-0-0-----------------------3---3-3-3-----------------------5---|
D#-0-0-0-----------------------3---3-3-3-----------------------5---|
G#-0-0-0-----------------------3---3-3-3-----------------------5---|
Pm . . .                       .   . . .                       .

Guitar 2
A#-----------------------------------------------------------------|
F -10--10--10------------------------------------------------------|
C#-------------12--12--12--10--10--10------10------10----------10--|
G#-------------------------------------12------12------12--12------|
D#-----------------------------------------------------------------|
G#-----------------------------------------------------------------|

===================================================================

Guitar 1
A#-----------------------------------------------------------------|
F -----------------------------------------------------------------|
C#---------5---5---5---5---5---8---8---7---7---5---5---------------|
G#-5-5-5-----------------------------------------------8---8---7---|
D#-5-5-5-----------------------------------------------------------|
G#-5-5-5-----------------------------------------------------------|
Pm . . .

Guitar 2
A#---------------------10--------------------------9---9---9---9---|
F -11--11--11--10--10----------------------------------------------|
C#-------------------------12--12--12--12--12--12------------------|
G#-----------------------------------------------------------------|
D#-----------------------------------------------------------------|
G#-----------------------------------------------------------------|

===================================================================
===================================================================


Bridge 1

Guitar 1
A#-----------------------------------------------------------------|
F -----------------------------------------------------------------|
C#-----------------------------------------------------------------|
G#-----------------------------------------------------------------|
D#-----------------------------------------5---1---4---------------|
G#-5*b~~~~-0---5*b~~~~-0---5---3---0---0---------------0---5---3---|
Pm         .           .               .               .

Guitar 2
A#-10~~~~~~~~~~~~~~~~~~~~~~~~~~~~~~~~~~~~~~~~~~~~~~~~~~~~~~~~~~~~~-
F -----------------------------------------------------------------|
C#-----------------------------------------------------------------|
G#-----------------------------------------------------------------|
D#-----------------------------------------------------------------|
G#-----------------------------------------------------------------|

===================================================================

Guitar 1 & 2
A#-----------------------------------------------------------------|
F -----------------------------------------------------------------|
C#-----------------------------------------------------------------|
G#-----------------------------------------------------------------|
D#-----------------------------------------5---1---4---4---4-4-4-4-|
G#-5*b~~~~-0---5*b~~~~-0---5---3---0---0---------------------------|
Pm         .           .               .

===================================================================

Guitar 1 & 2
A#-----------------------------------------------------------------|
F -----------------------------------------------------------------|
C#-----------------------------------------------------------------|
G#-----------------------------------------------------------------|
D#-----------------------------------------5---1---4---4---4-4-4-4-|
G#-5*b~~~~-0---5*b~~~~-0---5---3---0---0---------------------------|
Pm         .           .               .

===================================================================
===================================================================


Outro

Guitar 1 & 2 (x3)
A#-----------------------------------------------------------------|
F -----------------------------------------------------------------|
C#-----------------------------------------------------------------|
G#-0-0-0-------0-0-0-------0-0-0-------0-0-0-------0-0---0-0---0-0-|
D#-0-0-0-------0-0-0-------0-0-0-------0-0-0-------0-0---0-0---0-0-|
G#-0-0-0-------0-0-0-------0-0-0-------0-0-0-------0-0---0-0---0-0-|
Pm . . .       . . .       . . .       . . .       . .   . .   . .

===================================================================

Guitar 1 & 2
A#-----------------------------------------------------------------|
F -----------------------------------------------------------------|
C#-----------------------------------------------------------------|
G#-0-0-0-------0-0-0-------0-0-0-------0-0-0-------0-0-0---0-0-0-0-|
D#-0-0-0-------0-0-0-------0-0-0-------0-0-0-------0-0-0---0-0-0-0-|
G#-0-0-0-------0-0-0-------0-0-0-------0-0-0-------0-0-0---0-0-0-0-|
Pm . . .       . . .       . . .       . . .       . . .   . . . .

===================================================================

Guitar 1 & 2
A#-----------------------------------------------------------------|
F -----------------------------------------------------------------|
C#-----------------------------------------------------------------|
G#-0---------------------------------------------------------------|
D#-0---------------------------------------------------------------|
G#-0---------------------------------------------------------------|
Pm .

===================================================================
===================================================================
===================================================================


Tab Legend
h  - hammer-on
p  - pull-off
/  - slide up
\  - slide down
ps/- pickslide up
ps\- pickslide down
~  - let ring
pm.- palm mute
b  - bend
r  - return from bend
t  - finger tapping
*  - harmonic
x  - dead note
^  - Whammy bar
^\ - Whammy bar (hold down)

That’s the end of it! I hope this helped, and be sure to check out my cover if you are
having problems with the tab. Thanks, oh and one last thing... ROCK OUT!!!!
comments
print report bad tab
I want to post or [tab]
guest
You may want to rate the tab now too:
select rating
Please do not post tabs as comments. Select "correction" instead!