Oops, an error
Loading. Please wait.

Red In Tooth Claw Tab

ver1
ver1

Whole song

Interactive

More versions @911Tabs.com
3,330 views 6 this week
no commentswrite comment
1 2 3 4 5
excellent!
x 2
Autoscroll
+/-
esc
set tempo
stop
Contributor
Difficulty
intermediate
Hey! There's an official Ultimate Guitar app which is ideal
for learning songs when you're away from computer. Get the app
WARNING: You are trying to view
                                    content from Ultimate-Guitar.com
                                    in an unauthorized application,
                                    which is prohibited.

                                    Please use an official Ultimate
                                    Guitar Tabs application for iPhone,
                                    iPad or Android to access legitimate
                                    chords, guitar, bass, and drum tabs
                                    from Ultimate-Guitar.com database.

                                    Type "ultimate guitar tabs" in Apple
                                    App Store's or Android Market's
                                    search to find the application.
----------------------------------------------------------------------------
                          Red in Tooth & Claw
                           Memphis May Fire
----------------------------------------------------------------------------

Memphis May Fire’s “Challenger” has got to be one of the best, if not the best, album of
2012. Songs like Red in Tooth & Claw are so sophisticated in its musical stanza that it
makes it appear like it is a different genre of rock/metal. With such heart pumping 
lyrics, creative guitar riffs, and impeccable beats offered by the drums and bass, it is hard
not to fall in love with it. Enjoy!

Username: dkm817 (same on X box live)
Youtube Cover: http://www.youtube.com/watch?v=E0cBPF4bOrE
Email: guitardrums@rockfan.com

Guitar 1 Rhythmic (G# D# G# C# F  A#)
Guitar 2 Lead     (G# D# G# C# F  A#)

Tab Guide...
===================================================================
(end of measures)

===================================================================
===================================================================
(end of parts)

===================================================================
===================================================================
===================================================================
(end of song)
(If there is a “continued” it is because the numbers could not
fit on 1 line or connecting times played.)

===================================================================
Guitar 1
===================================================================


Intro

(x2)

Guitar 1
A#-----------------------------------------------------------------|
F -------------------------------10-10-10-------8-8-8--------------|
C#-----------------------------------------------------------------|
G#-----------------------------0----------0-0-0--------0---5~~~~~~-|
D#---------------------3-5-3---0----------0-0-0--------0-----------|
G#-0~~~~~~-5-7-5---3-----------0----------0-0-0--------0-----------|
Pm                             .          . . .        .

===================================================================

Guitar 1
A#-----------------------------------------------------------------|
F -------------------------------10-10-10-------8-8-8--------------|
C#-----------------------------------------------------------------|
G#-----------------------------0----------0-0-0--------------------|
D#---------------------3~b~r~~-0----------0-0-0--------8---7-------|
G#-0~~~~~~-5-7-5---3-----------0----------0-0-0----------------10--|
Pm                             .          . . .

===================================================================

Guitar 1
A#-----------------------------------------------------------------|
F -----------------------------------------------------------------|
C#-----------------------------------------------------------------|
G#-8~~~~-8~~~~-8~~~~-8-7---8~~~~-8~~~~-8-8-8---8-8-10--10-10-12~~~-|
D#-8~~~~-8~~~~-8~~~~-8-7---8~~~~-8~~~~-8-8-8---8-8-10--10-10-12~~~-|
G#-8~~~~-8~~~~-8~~~~-8-7---8~~~~-8~~~~-8-8-8---8-8-10--10-10-12~~~-|
Pm                   .                 . .     . .     .  .

===================================================================

Guitar 1
A#-----------------------------------------------------------------|
F -----------------------------------------------------------------|
C#-----------------------------------------------------------------|
G#-8~~~~-8~~~~-8~~~~-8-7---8---8-8---------------------------------|
D#-8~~~~-8~~~~-8~~~~-8-7---8---8-8---------------------------------|
G#-8~~~~-8~~~~-8~~~~-8-7---8---8-8-7---7---7---7---7---5---2---3---|
Pm                   .         . .

===================================================================
===================================================================


Verse 1

Guitar 1
A#-----------------------------------------------------------------|
F -----------------------------------------------------------------|
C#-----------------------------------------------------------------|
G#-0-------------------0---------------0---------------------------|
D#-0-------------------0---------------0---------------------------|
G#-0-------------------0---------------0-----------3-3-3-3-3---5---|

===================================================================

Guitar 1
A#-----------------------------------------------------------------|
F -----------------------------------------------------------------|
C#-----------------------------------------------------------------|
G#-0-------------------0---------------0---------------------------|
D#-0-------------------0---------------0---------------------------|
G#-0-------------------0---------------0-------10-10-10-10-10--12--|

===================================================================

Guitar 1
A#-----------------------------------------------------------------|
F -----------------------------------------------------------------|
C#-----------------------------------------------------------------|
G#-0-------------------0---------------0---------------------------|
D#-0-------------------0---------------0---------------------------|
G#-0-------------------0---------------0-----------3-3-3-3-3---5---|

===================================================================

Guitar 1
A#-----------------------------------------------------------------|
F -----------------------------------------------------------------|
C#-----------------------------------------------------------------|
G#-0-------------------0---------------0---------------------------|
D#-0-------------------0---------------0---------------------------|
G#-0-------------------0---------------0-----------8-8-8-8-8---5---|

===================================================================

Guitar 1
A#-----------------------------------------------------------------|
F -----------------------------------------------------------------|
C#-----------------------------------------------------------------|
G#-0-------------------0---------------0---------------------------|
D#-0-------------------0---------------0---------------------------|
G#-0-------------------0---------------0-----------3-3-3-3-3---5---|

===================================================================

Guitar 1
A#-----------------------------------------------------------------|
F -----------------------------------------------------------------|
C#-----------------------------------------------------------------|
G#-0-------------------0---------------0---------------------------|
D#-0-------------------0---------------0---------------------------|
G#-0-------------------0---------------0-------10-10-10-10-10--12--|

===================================================================

Guitar 1
A#-----------------------------------------------------------------|
F -----------------------------------------------------------------|
C#-----------------------------------------------------------------|
G#-0-------------------0---------------0---------------------------|
D#-0-------------------0---------------0---------------------------|
G#-0-------------------0---------------0-----------3-3-3-3-3---5---|

===================================================================

Guitar 1
A#-----------------------------------------------------------------|
F -----------------------------------------------------------------|
C#-----------------------------------------------------------------|
G#-0-------------------0---------------0---------------------------|
D#-0-------------------0---------------0---------------------------|
G#-0-------------------0---------------0-------10-10-10-10-10--12--|

===================================================================
===================================================================


Pre Chorus 1

Guitar 1
A#-----------------------------------------------------------------|
F -----------------------------------------------------------------|
C#-----------------------------------------------------------------|
G#-8~~~~-8~~~~-8~~~~-8-8---8~~~~-8~~~~-8~~~~-8~~~~-8---8-8-10~~~~~-|
D#-8~~~~-8~~~~-8~~~~-8-8---8~~~~-8~~~~-8~~~~-8~~~~-8---8-8-10~~~~~-|
G#-8~~~~-8~~~~-8~~~~-8-8---8~~~~-8~~~~-8~~~~-8~~~~-8---8-8-10~~~~~-|
Pm                   .                                 . .

===================================================================

Guitar 1
A#-----------------------------------------------------------------|
F -----------------------------------------------------------------|
C#-----------------------------------------------------------------|
G#-8~~~~-8~~~~-8~~~~-8-3~~~~-5---7---7\----------------------------|
D#-8~~~~-8~~~~-8~~~~-8-3~~~~-5---7---7\----------------------------|
G#-8~~~~-8~~~~-8~~~~-8-3~~~~-5---7---7\----------------------------|
Pm                   .

===================================================================
===================================================================


Chorus 1

Guitar 1
A#-----------------------------------------------------------------|
F -----------------------------------------------------------------|
C#-----------------------------------------------------------------|
G#-0---0---0---0---0---0---0---0---3---3---3---3---3---3---3---3---|
D#-0---0---0---0---0---0---0---0---3---3---3---3---3---3---3---3---|
G#-0---0---0---0---0---0---0---0---3---3---3---3---3---3---3---3---|

===================================================================

Guitar 1
A#-----------------------------------------------------------------|
F -----------------------------------------------------------------|
C#-5---5---5---5---5---5---5---5---5---5---5---5---5---5-----------|
G#-5---5---5---5---5---5---5---5---5---5---5---5---5---5---3-5-3-0-|
D#-3---3---3---3---3---3---3---3---3---3---3---3---3---3-----------|
G#-----------------------------------------------------------------|

===================================================================

Guitar 1
A#-----------------------------------------------------------------|
F -----------------------------------------------------------------|
C#-----------------------------------------------------------------|
G#-0---0---0---0---0---0---0---0---3---3---3---3---3---3---3---3---|
D#-0---0---0---0---0---0---0---0---3---3---3---3---3---3---3---3---|
G#-0---0---0---0---0---0---0---0---3---3---3---3---3---3---3---3---|

===================================================================

Guitar 1
A#-----------------------------------------------------------------|
F -----------------------------------------------------------------|
C#-5---5---5---5---5---5---5---5---5---5---5---5---5---5-----------|
G#-5---5---5---5---5---5---5---5---5---5---5---5---5---5---3-5-3-0-|
D#-3---3---3---3---3---3---3---3---3---3---3---3---3---3-----------|
G#-----------------------------------------------------------------|

===================================================================

Guitar 1
A#-----------------------------------------------------------------|
F -----------------------------------------------------------------|
C#-----------------------------------------------------------------|
G#-5---5---5---5---5---5---5---5---0---0---0---0---0---0---0---0---|
D#-5---5---5---5---5---5---5---5---0---0---0---0---0---0---0---0---|
G#-5---5---5---5---5---5---5---5---0---0---0---0---0---0---0---0---|

===================================================================

Guitar 1
A#-----------------------------------------------------------------|
F -----------------------------------------------------------------|
C#---------------------------------5---5---5---5---5---5---5---5---|
G#-3---3---3---3---3---3---3---3---5---5---5---5---5---5---5---5---|
D#-3---3---3---3---3---3---3---3---3---3---3---3---3---3---3---3---|
G#-3---3---3---3---3---3---3---3-----------------------------------|

===================================================================

Guitar 1
A#-----------------------------------------------------------------|
F -----------------------------------------------------------------|
C#-----------------------------------------------------------------|
G#-7~~~~-7-7~~~~-7-7-7-7~~~~-7-7-7-7~~~~-7-7~~~~-7-7\~~~-----------|
D#-7~~~~-7-7~~~~-7-7-7-7~~~~-7-7-7-7~~~~-7-7~~~~-7-7\~~~-----------|
G#-7~~~~-7-7~~~~-7-7-7-7~~~~-7-7-7-7~~~~-7-7~~~~-7-7\~~~-----------|

===================================================================
===================================================================


Guitar Solo

Guitar 1
A#-----------------------------------------------------------------|
F -------------------------------10-10-10-------8-8-8--------------|
C#-----------------------------------------------------------------|
G#-----------------------------0----------0-0-0--------0---5~~~~~~-|
D#---------------------3-5-3---0----------0-0-0--------0-----------|
G#-0~~~~~~-5-7-5---3-----------0----------0-0-0--------0-----------|
Pm                             .          . . .        .

===================================================================

Guitar 1
A#-----------------------------------------------------------------|
F -------------------------------10-10-10-------8-8-8--------------|
C#-----------------------------------------------------------------|
G#-----------------------------0----------0-0-0--------------------|
D#---------------------3~b~r~~-0----------0-0-0--------8---7-------|
G#-0~~~~~~-5-7-5---3-----------0----------0-0-0----------------10--|
Pm                             .          . . .

===================================================================

Guitar 1
A#-----------------------------------------------------------------|
F -----------------------------------------------------------------|
C#-----------------------------------------------------------------|
G#-8~~~~-8~~~~-8~~~~-8-7---8~~~~-8~~~~-8-8-8---8-8-10--10-10-12~~~-|
D#-8~~~~-8~~~~-8~~~~-8-7---8~~~~-8~~~~-8-8-8---8-8-10--10-10-12~~~-|
G#-8~~~~-8~~~~-8~~~~-8-7---8~~~~-8~~~~-8-8-8---8-8-10--10-10-12~~~-|
Pm                   .                 . .     . .     .  .

===================================================================

Guitar 1
A#-----------------------------------------------------------------|
F -----------------------------------------------------------------|
C#-----------------------------------------------------------------|
G#-8~~~~-8~~~~-8~~~~-8-7---8---8-8---------------------------------|
D#-8~~~~-8~~~~-8~~~~-8-7---8---8-8---------------------------------|
G#-8~~~~-8~~~~-8~~~~-8-7---8---8-8-7---7---7---7---7---5---2---3---|
Pm                   .         . .

===================================================================
===================================================================


Verse 2

(x2)

Guitar 1
A#-----------------------------------------------------------------|
F -----------------------------------------------------------------|
C#-----------------------------------------------------------------|
G#-0-------------------0---------------0---------------------------|
D#-0-------------------0---------------0---------------------------|
G#-0-------------------0---------------0-----------3-3-3-3-3---5---|

===================================================================

Guitar 1
A#-----------------------------------------------------------------|
F -----------------------------------------------------------------|
C#-----------------------------------------------------------------|
G#-0-------------------0---------------0---------------------------|
D#-0-------------------0---------------0---------------------------|
G#-0-------------------0---------------0-------10-10-10-10-10--12--|

===================================================================
===================================================================


Bridge

Guitar 1 (x3)
A#-----------------------------------------------------------------|
F -----------------------------------------------------------------|
C#-----------------------------------------------------------------|
G#-----------------------------------------------------------------|
D#-------------------------------------9b~~~-----------------------|
G#-3~b~r-0~~~~-7~~~~-6~~~~-3~b~r-0~~~~-------10~~~-8-8-8-8-8---7---|
Pm                                                 . . . .

===================================================================

Guitar 1
A#-----------------------------------------------------------------|
F -----------------------------------------------------------------|
C#-----------------------------------------------------------------|
G#-------------------------------------------------x-x-x-x-x-------|
D#-------------------------------------9b~~~-------x-x-x-x-x-------|
G#-3~b~r-0~~~~-7~~~~-6~~~~-3~b~r-0~~~~-------10~~~-x-x-x-x-x-------|
Pm

===================================================================
===================================================================


Breakdown 1

Guitar 1
A#-----------------------------------------------------------------|
F -----------------------------------------------------------------|
C#-----------------------------------------------------------------|
G#-0-----0-----0-----0---------------0---0-0-------0-0---0-0-------|
D#-0-----0-----0-----0---------------0---0-0-------0-0---0-0-------|
G#-0-----0-----0-----0---------------0---0-0-------0-0---0-0-------|
Pm                                   .   . .       . .   . .

===================================================================

Guitar 1
A#-----------------------------------------------------------------|
F -----------------------------------------------------------------|
C#-----------------------------------------------------------------|
G#-3~~~~-5~~~~-0-0-0-0---------------0---0-0-----------------------|
D#-3~~~~-5~~~~-0-0-0-0---------------0---0-0-------1---1---0-1-0---|
G#-3~~~~-5~~~~-0-0-0-0---------------0---0-0---------------------3-|
Pm             . .                   .   . .

===================================================================

Guitar 1
A#-----------------------------------------------------------------|
F -----------------------------------------------------------------|
C#-----------------------------------------------------------------|
G#-0-----0-----0-----0---------------0---0-0-------0-0---0-0-------|
D#-0-----0-----0-----0---------------0---0-0-------0-0---0-0-------|
G#-0-----0-----0-----0---------------0---0-0-------0-0---0-0-------|
Pm                                   .   . .       . .   . .

===================================================================

Guitar 1
A#-----------------------------------------------------------------|
F -----------------------------------------------------------------|
C#-----------------------------------------------------------------|
G#-5~~~----------3---5---7---7\------------------------------------|
D#-5~~~----------3---5---7---7\------------------------------------|
G#-5~~~----------3---5---7---7\------------------------------------|

===================================================================
===================================================================


Chorus 2

Guitar 1
A#-----------------------------------------------------------------|
F -----------------------------------------------------------------|
C#-----------------------------------------------------------------|
G#-0---0---0---0---0---0---0---0---3---3---3---3---3---3---3---3---|
D#-0---0---0---0---0---0---0---0---3---3---3---3---3---3---3---3---|
G#-0---0---0---0---0---0---0---0---3---3---3---3---3---3---3---3---|

===================================================================

Guitar 1
A#-----------------------------------------------------------------|
F -----------------------------------------------------------------|
C#-5---5---5---5---5---5---5---5---5---5---5---5---5---5-----------|
G#-5---5---5---5---5---5---5---5---5---5---5---5---5---5---3-5-3-0-|
D#-3---3---3---3---3---3---3---3---3---3---3---3---3---3-----------|
G#-----------------------------------------------------------------|

===================================================================

Guitar 1
A#-----------------------------------------------------------------|
F -----------------------------------------------------------------|
C#-----------------------------------------------------------------|
G#-0---0---0---0---0---0---0---0---3---3---3---3---3---3---3---3---|
D#-0---0---0---0---0---0---0---0---3---3---3---3---3---3---3---3---|
G#-0---0---0---0---0---0---0---0---3---3---3---3---3---3---3---3---|

===================================================================

Guitar 1
A#-----------------------------------------------------------------|
F -----------------------------------------------------------------|
C#-5---5---5---5---5---5---5---5---5---5---5---5---5---5-----------|
G#-5---5---5---5---5---5---5---5---5---5---5---5---5---5---3-5-3-0-|
D#-3---3---3---3---3---3---3---3---3---3---3---3---3---3-----------|
G#-----------------------------------------------------------------|

===================================================================

Guitar 1
A#-----------------------------------------------------------------|
F -----------------------------------------------------------------|
C#-----------------------------------------------------------------|
G#-5---5---5---5---5---5---5---5---0---0---0---0---0---0---0---0---|
D#-5---5---5---5---5---5---5---5---0---0---0---0---0---0---0---0---|
G#-5---5---5---5---5---5---5---5---0---0---0---0---0---0---0---0---|

===================================================================

Guitar 1
A#-----------------------------------------------------------------|
F -----------------------------------------------------------------|
C#---------------------------------5---5---5---5---5---5---5---5---|
G#-3---3---3---3---3---3---3---3---5---5---5---5---5---5---5---5---|
D#-3---3---3---3---3---3---3---3---3---3---3---3---3---3---3---3---|
G#-3---3---3---3---3---3---3---3-----------------------------------|

===================================================================

Guitar 1
A#-----------------------------------------------------------------|
F -----------------------------------------------------------------|
C#-----------------------------------------------------------------|
G#-7~~~~-7-7~~~~-7-7-7-7~~~~-7-7-7-7~~~~-7-7~~~~-7-7-7-7~~-7-7-7-7-|
D#-7~~~~-7-7~~~~-7-7-7-7~~~~-7-7-7-7~~~~-7-7~~~~-7-7-7-7~~-7-7-7-7-|
G#-7~~~~-7-7~~~~-7-7-7-7~~~~-7-7-7-7~~~~-7-7~~~~-7-7-7-7~~-7-7-7-7-|

===================================================================

Guitar 1
A#-----------------------------------------------------------------|
F -10~~~-10-10~~-10-10-10-10~~-10-10~-10~~-------------------------|
C#-9~~~~-9--9~~~-9--9--9--9~~~-9--9~~-9~~~-------------------------|
G#-7~~~~-7--7~~~-7--7--7--7~~~-7--7~~-7~~~-------------------------|
D#-7~~~~-7--7~~~-7--7--7--7~~~-7--7~~-7~~~-------------------------|
G#-7~~~~-7--7~~~-7--7--7--7~~~-7--7~~-7~~~-11-11-11-11-11-11-11-11-|

===================================================================
===================================================================


Interlude

Guitar 1
A#--------------------------------------------------------------------|
F --------------------------------------------------------------------|
C#--------------------------------------------------------------------|
G#--------------------------------------------------------------------|
D#--------------------------------------------------------------------|
G#-3p0---7p0---3p0-8p0---7p0---3p0-10p0--8p0---3p0-12p0-10p0-8-10-8-7-|

===================================================================

Guitar 1
A#-----------------------------------------------------------------------|
F -----------------------------------------------------------------------|
C#-----------------------------------------------------------------------|
G#-----------------------------------------------------------------------|
D#-----------------------------------------------------------------------|
G#-3p0---7p0---3p0-8p0---7p0---3p0-10p0--8p0---3p0-12p0-10p0-11-11-11-11-|

===================================================================

Guitar 1
A#--------------------------------------------------------------------|
F --------------------------------------------------------------------|
C#--------------------------------------------------------------------|
G#--------------------------------------------------------------------|
D#--------------------------------------------------------------------|
G#-3p0---7p0---3p0-8p0---7p0---3p0-10p0--8p0---3p0-12p0-10p0-8-10-8-7-|

===================================================================

Guitar 1
A#-------------------------------------------------------------------|
F -------------------------------------------------------------------|
C#-------------------------------------------------------------------|
G#-----------------------------------------------------------x-x-x-x-|
D#-----------------------------------------------------------x-x-x-x-|
G#-3p0---7p0---3p0-8p0---7p0---3p0-10p0--8p0---3p0-12p0-10p0-x-x-x-x-|

===================================================================
===================================================================


Breakdown 2

Guitar 1
A#-----------------------------------------------------------------|
F -----------------------------------------------------------------|
C#-----------------------------------------------------------------|
G#-0---0-------0---0-------0-0-0-0-0---0-------0-------0---0-------|
D#-0---0-------0---0-------0-0-0-0-0---0-------0-------0---0-------|
G#-0---0-------0---0-------0-0-0-0-0---0-------0-------0---0-------|
Pm .   .       .   .       . . . . .   .       .       .   .

===================================================================

Guitar 1
A#-----------------------------------------------------------------|
F -----------------------------------------------------------------|
C#-----------------------------------------------------------------|
G#-----0-------0-------0---0-------0---0---0-------0-0-0-0-0-------|
D#-----0-------0-------0---0-------0---0---0-------0-0-0-0-0-------|
G#-----0-------0-------0---0-------0---0---0-------0-0-0-0-0-------|
Pm     .       .       .   .       .   .   .       . . . . .

===================================================================

Guitar 1
A#-----------------------------------------------------------------|
F -----------------------------------------------------------------|
C#-----------------------------------------------------------------|
G#-0-0-0---0---0-0-0---0---0---0---0---0-----------0-0-0-0-0-------|
D#-0-0-0---0---0-0-0---0---0---0---0---0-----------0-0-0-0-0-------|
G#-0-0-0---0---0-0-0---0---0---0---0---0-----------0-0-0-0-0-------|
Pm . . .   .   . . .   .   .   .   .   .           . . . . .

===================================================================

Guitar 1
A#-----------------------------------------------------------------|
F -----------------15~~~~~-----------------------------------------|
C#-----------------------------------------------------------------|
G#-------------0---------------------------------------------------|
D#-------------0---------------------------------------------------|
G#-------------0-----------0~~~~~~-5---5---7---7---5---5---3---3---|
Pm             .                   .   .   .   .   .   .   .   .

===================================================================

Guitar 1
A#-----------------------------------------------------------------|
F -----------------------------------------------------------------|
C#-----------------------------------------------------------------|
G#-0---0-------0---0-------0-0-0-0-0---0-------0-------0---0-------|
D#-0---0-------0---0-------0-0-0-0-0---0-------0-------0---0-------|
G#-0---0-------0---0-------0-0-0-0-0---0-------0-------0---0-------|
Pm .   .       .   .       . . . . .   .       .       .   .

===================================================================

Guitar 1
A#-----------------------------------------------------------------|
F -----------------------------------------------------------------|
C#-----------------------------------------------------------------|
G#-----0---------------0---0-------0---0---0-------0-0-0-0-0-------|
D#-----0---------------0---0-------0---0---0-------0-0-0-0-0-------|
G#-----0---------------0---0-------0---0---0-------0-0-0-0-0-------|
Pm     .               .   .       .   .   .       . . . . .

===================================================================

Guitar 1
A#-----------------------------------------------------------------|
F -----------------------------------------------------------------|
C#-----------------------------------------------------------------|
G#-0---0---0---0---0---0---0---0---0---0-----------x---x---x---x---|
D#-0---0---0---0---0---0---0---0---0---0-----------x---x---x---x---|
G#-0---0---0---0---0---0---0---0---0---0-----------x---x---x---x---|
Pm .   .   .   .   .   .   .   .   .   .

===================================================================

Guitar 1
A#-----------------------------------------------------------------|
F -----------------------------------------------------------------|
C#-----------------------------------------------------------------|
G#-5---7~~~~~~-7---5~~~~~~-3~~~~~~-5~~~~~~-5~~~~~~-3~~~~~~-2~~~~~~-|
D#-5---7~~~~~~-7---5~~~~~~-3~~~~~~-5~~~~~~-5~~~~~~-3~~~~~~-2~~~~~~-|
G#-5---7~~~~~~-7---5~~~~~~-3~~~~~~-5~~~~~~-5~~~~~~-3~~~~~~-2~~~~~~-|

===================================================================
===================================================================


Pre Chorus 2

Guitar 1
A#-----------------------------------------------------------------|
F -----------------------------------------------------------------|
C#-----------------------------------------------------------------|
G#-0~~~~~~~~~~~~~~~~~~~~~~~~~~~~~~~~~~~~~~~~~~~~~~~~~~~~~~~~~~~~~~-
D#-0~~~~~~~~~~~~~~~~~~~~~~~~~~~~~~~~~~~~~~~~~~~~~~~~~~~~~~~~~~~~~~-
G#-0~~~~~~~~~~~~~~~~~~~~~~~~~~~~~~~~~~~~~~~~~~~~~~~~~~~~~~~~~~~~~~-

===================================================================

Guitar 1 (Fade In)
A#-----------------------------------------------------------------|
F -----------------------------------------------------------------|
C#-5~~~~~~~~~~~~~~~~~~~~~~~~~~~~~~~~~~~~~~~~~~~~~~~~~~~~~~~~~~~~~~-
G#-5~~~~~~~~~~~~~~~~~~~~~~~~~~~~~~~~~~~~~~~~~~~~~~~~~~~~~~~~~~~~~~-
D#-3~~~~~~~~~~~~~~~~~~~~~~~~~~~~~~~~~~~~~~~~~~~~~~~~~~~~~~~~~~~~~~-
G#-----------------------------------------------------------------

===================================================================
===================================================================

Guitar 1
A#-----------------------------------------------------------------|
F -----------------------------------------------------------------|
C#-----------------------------------------------------------------|
G#-0---0---0---0---0---0---0---0---3---3---3---3---3---3---3---3---|
D#-0---0---0---0---0---0---0---0---3---3---3---3---3---3---3---3---|
G#-0---0---0---0---0---0---0---0---3---3---3---3---3---3---3---3---|

===================================================================

Guitar 1
A#-----------------------------------------------------------------|
F -----------------------------------------------------------------|
C#-5---5---5---5---5---5---5---5---5---5---5---5---5---5-----------|
G#-5---5---5---5---5---5---5---5---5---5---5---5---5---5---3-5-3-0-|
D#-3---3---3---3---3---3---3---3---3---3---3---3---3---3-----------|
G#-----------------------------------------------------------------|

===================================================================

Guitar 1
A#-----------------------------------------------------------------|
F -----------------------------------------------------------------|
C#-----------------------------------------------------------------|
G#-0---0---0---0---0---0---0---0---3---3---3---3---3---3---3---3---|
D#-0---0---0---0---0---0---0---0---3---3---3---3---3---3---3---3---|
G#-0---0---0---0---0---0---0---0---3---3---3---3---3---3---3---3---|

===================================================================

Guitar 1
A#-----------------------------------------------------------------|
F -----------------------------------------------------------------|
C#-5---5---5---5---5---5---5---5---5---5---5---5---5---5-----------|
G#-5---5---5---5---5---5---5---5---5---5---5---5---5---5---3-5-3-0-|
D#-3---3---3---3---3---3---3---3---3---3---3---3---3---3-----------|
G#-----------------------------------------------------------------|

===================================================================

Guitar 1
A#-----------------------------------------------------------------|
F -----------------------------------------------------------------|
C#-----------------------------------------------------------------|
G#-5---5---5---5---5---5---5---5---0---0---0---0---0---0---0---0---|
D#-5---5---5---5---5---5---5---5---0---0---0---0---0---0---0---0---|
G#-5---5---5---5---5---5---5---5---0---0---0---0---0---0---0---0---|

===================================================================

Guitar 1
A#-----------------------------------------------------------------|
F -----------------------------------------------------------------|
C#---------------------------------5---5---5---5---5---5---5---5---|
G#-3---3---3---3---3---3---3---3---5---5---5---5---5---5---5---5---|
D#-3---3---3---3---3---3---3---3---3---3---3---3---3---3---3---3---|
G#-3---3---3---3---3---3---3---3-----------------------------------|

===================================================================
===================================================================


Outro

Guitar 1
A#-----------------------------------------------------------------|
F -----------------------------------------------------------------|
C#-----------------------------------------------------------------|
G#-7~~~~-7-7~~~~-7-7-7-7~~~~-7-7-7-7~~~~-7-7~~~~-7-7-7-7~~-7-7-7-7-|
D#-7~~~~-7-7~~~~-7-7-7-7~~~~-7-7-7-7~~~~-7-7~~~~-7-7-7-7~~-7-7-7-7-|
G#-7~~~~-7-7~~~~-7-7-7-7~~~~-7-7-7-7~~~~-7-7~~~~-7-7-7-7~~-7-7-7-7-|

===================================================================

Guitar 1
A#--------------------------------------------------------------------|
F -----------------------------------------------10-10-10-10~---------|
C#-----------------------------------------------9--9--9--9~~---------|
G#-7~~~~-7-7~~~~-7-7-7-7~~~~-7-7-7-7~~~~-7-7~~~~-7--7--7--7~~-2-3-2-0-|
D#-7~~~~-7-7~~~~-7-7-7-7~~~~-7-7-7-7~~~~-7-7~~~~-7--7--7--7~~---------|
G#-7~~~~-7-7~~~~-7-7-7-7~~~~-7-7-7-7~~~~-7-7~~~~-7--7--7--7~~---------|

===================================================================

Guitar 1
A#---------------------------------------------------------------15-13-12-|
F -10~~~-10-10~~-10-10-10-10~~-10-10-10-10~~-10-10~~-10-10-10-10----------|
C#-9~~~~-9--9~~~-9--9--9--9~~~-9--9--9--9~~~-9--9~~~-9--9--9--------------|
G#-7~~~~-7--7~~~-7--7--7--7~~~-7--7--7--7~~~-7--7~~~-7--7--7--------------|
D#-7~~~~-7--7~~~-7--7--7--7~~~-7--7--7--7~~~-7--7~~~-7--7--7--------------|
G#-7~~~~-7--7~~~-7--7--7--7~~~-7--7--7--7~~~-7--7~~~-7--7--7--------------|

===================================================================

Guitar 1
A#---------------------------------------------------------------------|
F -10~~~-10-10~~-10-10-10-10~~-10-10-10-10~~-10-10~~-------------------|
C#-9~~~~-9--9~~~-9--9--9--9~~~-9--9--9--9~~~-9--9~~~-------------------|
G#-7~~~~-7--7~~~-7--7--7--7~~~-7--7--7--7~~~-7--7~~~-------------------|
D#-7~~~~-7--7~~~-7--7--7--7~~~-7--7--7--7~~~-7--7~~~-------------------|
G#-7~~~~-7--7~~~-7--7--7--7~~~-7--7--7--7~~~-7--7~~~-0-7---5---3---2---|

===================================================================

Guitar 1
A#-----------------------------------------------------------------|
F -----------------------------------------------------------------|
C#-----------------------------------------------------------------|
G#-0~~~~~~~~~~~~~~~~~~~~~~~~~~~~~~~~~~~~~~~~~~~~~~~~~~~~~~~~~~~~~~-
D#-0~~~~~~~~~~~~~~~~~~~~~~~~~~~~~~~~~~~~~~~~~~~~~~~~~~~~~~~~~~~~~~-
G#-0~~~~~~~~~~~~~~~~~~~~~~~~~~~~~~~~~~~~~~~~~~~~~~~~~~~~~~~~~~~~~~-

===================================================================
===================================================================
===================================================================


===================================================================
Guitar 2
===================================================================


Intro

Guitar 2 (x2)
A#-----------------------------------------------------------------|
F -15--13-15-13------13--------------------------------------------|
C#---------------15------15--12--14~~~~~---------------------------|
G#---------------------------------------12~~~~~~~~~~~~~~~~~~~~~~~-|
D#-----------------------------------------------------------------|
G#-----------------------------------------------------------------|

===================================================================

Guitar 2 (x2)
A#-17~~~b~r~~-15------15--17~~~b~r~~-15------15--------------------|
F ----------------18---------------------18------17~~~~~~~~~~~-13--|
C#-----------------------------------------------------------------|
G#-----------------------------------------------------------------|
D#-----------------------------------------------------------------|
G#-----------------------------------------------------------------|

===================================================================
===================================================================


Verse 1

Guitar 2
A#-----------------------------------------------------------------
F -15~~~~~~~~~~~~~~~~~~~~~~~~~~~~~~~~~~~~~~~~~~~~~~~~~~~~~~~~~~~~~-
C#-----------------------------------------------------------------|
G#-----------------------------------------------------------------|
D#-----------------------------------------------------------------|
G#-----------------------------------------------------------------|

===================================================================

Rest

===================================================================

Guitar 2 (x2)
A#---------------------h18p17--17~~---------------------h18p17--17~~-|
F h20p18--h17h18--h20--------------h20p18--h17h18--h20---------------|
C#------t7------t7---t7------t7----------t7------t7---t7------t7-----|
G#-------------------------------------------------------------------|
D#-------------------------------------------------------------------|
G#-------------------------------------------------------------------|

===================================================================

Guitar 2
A#---------------------h18p17--17~~---------------------h18p17--17~~-|
F h20p18--h17h18--h20--------------h20p18--h17h18--h20---------------|
C#-------------------------------------------------------------------|
G#------t7------t7---t7------t7----------t7------t7---t7------t7-----|
D#-------------------------------------------------------------------|
G#-------------------------------------------------------------------|

===================================================================

Guitar 2
A#---------------------h18p17--17~~---------------------h18p17--17-18-|
F h20p18--h17h18--h20--------------h20p18--h17h18--h20----------------|
C#--------------------------------------------------------------------|
G#------t7------t7---t7------t7----------t7------t7---t7------t7------|
D#--------------------------------------------------------------------|
G#--------------------------------------------------------------------|

===================================================================
===================================================================


Pre Chorus 1

Guitar 2
A#-20~~~~~~~~~~~~~~~~~~~~~~~~~~~~~~~~~~~~~~~~~~~~~~~~~~~~~~~~~~~~~-
F -----------------------------------------------------------------|
C#-----------------------------------------------------------------|
G#-----------------------------------------------------------------|
D#-----------------------------------------------------------------|
G#-----------------------------------------------------------------|

===================================================================

Guitar 2
A#-----------------------------------------------------------------|
F -----------------------------------------------------------------|
C#-----------------------------------------------------------------|
G#-8~~~~-8~~~~-8~~~~-8-3~~~~-5---7---7\----------------------------|
D#-8~~~~-8~~~~-8~~~~-8-3~~~~-5---7---7\----------------------------|
G#-8~~~~-8~~~~-8~~~~-8-3~~~~-5---7---7\----------------------------|
Pm                   .

===================================================================
===================================================================


Chorus 1

Guitar 2
A#-----------------------------------------------------------------|
F ---------------------------------10--10--10--8---8---8---8---8---|
C#-9---9---9---10--10--10--10--10----------------------------------|
G#-----------------------------------------------------------------|
D#-----------------------------------------------------------------|
G#-----------------------------------------------------------------|

===================================================================

Guitar 2
A#-----------------------------------------------------------------|
F ---------------------------------10--10--10--8---8---10--10--10--|
C#-9---9---9---10--10--10--10--10----------------------------------|
G#-----------------------------------------------------------------|
D#-----------------------------------------------------------------|
G#-----------------------------------------------------------------|

===================================================================

Guitar 2
A#-----------------------------------------------------------------|
F ---------------------------------10--10--10--8---8---8---8---8---|
C#-9---9---9---10--10--10--10--10----------------------------------|
G#-----------------------------------------------------------------|
D#-----------------------------------------------------------------|
G#-----------------------------------------------------------------|

===================================================================

Guitar 2
A#-----------------------------------------------------------------|
F ---------------------------------10--10--10--8---8---8---8---8---|
C#-9---9---9---10--10--10--10--10----------------------------------|
G#-----------------------------------------------------------------|
D#-----------------------------------------------------------------|
G#-----------------------------------------------------------------|

===================================================================

Guitar 2
A#-----------------------------------------------------------------|
F -11--11--11--11--11--10--8---10--10------------------------------|
C#-------------------------------------10--9---10--7---7---7---7---|
G#-----------------------------------------------------------------|
D#-----------------------------------------------------------------|
G#-----------------------------------------------------------------|

===================================================================

Guitar 2
A#-----------------------------------------------------------------|
F -10--10--10--10--10--8-------8-----------------------------------|
C#-------------------------10------10--9---9---9---9---9---9---9---|
G#-----------------------------------------------------------------|
D#-----------------------------------------------------------------|
G#-----------------------------------------------------------------|

===================================================================

Guitar 2
A#--------------------------------------------------------------------|
F --------------------------------------------------------------------|
C#-9~~~b~r~~~~~b~r~~~~~b~r~b~r~b~r-9~~~b~r~~~~~b~r-14~---12---10-9----|
G#-----------------------------------------------------0----0------10-|
D#--------------------------------------------------------------------|
G#--------------------------------------------------------------------|

===================================================================
===================================================================


Guitar Solo

Guitar 2
A#-----------------------------------------------------------------|
F -------------------------------12~~b~~~~~~~~~~~~-----------------|
C#---------------------------12--12~~b~~~~~~~~~~~~-----------------|
G#-12~~~~~~~~~~~~~~~~~-12-15-----------------------15-12~~~~~~~~~~-|
D#-----------------------------------------------------------------|
G#-----------------------------------------------------------------|

===================================================================

Guitar 2
A#--------------------13-10~~~-15-16-15-17-16-15-----------------------|
F -----------------------------------------------18-15~~-------12--14--|
C#-10-7-10-12-9-12-14------------------------------------12-14---------|
G#---------------------------------------------------------------------|
D#---------------------------------------------------------------------|
G#---------------------------------------------------------------------|

===================================================================

Guitar 2
A#-----------------------------------------------16-15-------------|
F -17~~~b~r~~-15--17--15--17~~~b~r~~-15--17--15--------17-15~~~~~~-|
C#-----------------------------------------------------------------|
G#-----------------------------------------------------------------|
D#-----------------------------------------------------------------|
G#-----------------------------------------------------------------|

===================================================================

Guitar 2
A#-----------------------------------------------------------------|
F -17~~~b~r~~-15--17--15--13--13--14~~-----------------------------|
C#------------------------------------------------9-10-9-7-9-7-----|
G#-------------------------------------------------------------10--|
D#-----------------------------------------------------------------|
G#-----------------------------------------------------------------|

===================================================================
===================================================================


Verse 2

(x2)

Guitar 2
A#-----------------------------------------------------------------|
F -----------------------------------------------------------------|
C#-----------------------------------------------------------------|
G#-12~~~~~~\~~~--------0---------------0---------------------------|
D#-0-------------------0---------------0---------------------------|
G#-0-------------------0---------------0-----------3-3-3-3-3---5---|

===================================================================

Guitar 2
A#-----------------------------------------------------------------|
F -----------------------------------------------------------------|
C#-----------------------------------------------------------------|
G#-0-------------------0---------------0---------------------------|
D#-0-------------------0---------------0---------------------------|
G#-0-------------------0---------------0-------10-10-10-10-10--12--|

===================================================================

Guitar 2
A#-----------------------------------------------------------------|
F -----------------------------------------------------------------|
C#-----------------------------------------------------------------|
G#-0-------------------0---------------0---------------------------|
D#-0-------------------0---------------0---------------------------|
G#-0-------------------0---------------0-----------3-3-3-3-3---5---|

===================================================================

Guitar 2
A#-----------------------------------------------------------------|
F -----------------------------------------------------------------|
C#-----------------------------------------------------------------|
G#-0-------------------0---------------0---------------------------|
D#-0-------------------0---------------0---------------------------|
G#-0-------------------0---------------0-------10-10-10-10-10--12--|

===================================================================
===================================================================


Bridge

Guitar 2 (x3)
A#-----------------------------------------------------------------|
F -----------------------------------------------------------------|
C#-----------------------------------------------------------------|
G#-----------------------------------------------------------------|
D#-------------------------------------------------5-5-5-5-5---3---|
G#-3~b~r-0~~~~-7~~~~-6~~~~-3~b~r-0~~~~-5~~~~-7~~~~-----------------|
Pm                                                 . . . .

===================================================================

Guitar 2
A#-----------------------------------------------------------------|
F ---------------------------------------------------------17--18--|
C#-----------------------------------------------------------------|
G#-------------------------------------------------x-x-x-x---------|
D#-------------------------------------9b~~~-------x-x-x-x---------|
G#-3~b~r-0~~~~-7~~~~-6~~~~-3~b~r-0~~~~-------10~~~-x-x-x-x---------|
Pm

===================================================================
===================================================================


Breakdown 1

Guitar 2 (Fade Out)
A#-19---19-19--19--19--19--19--19--19--19--19--19--19--19--19--19-|
F ----------------------------------------------------------------|
C#----------------------------------------------------------------|
G#----------------------------------------------------------------|
D#----------------------------------------------------------------|
G#----------------------------------------------------------------|

==================================================================

Rest

==================================================================

Guitar 2 (Fade Out)
A#t17p5t17p15t16p4t15p3t14p2t13p1t12p0t12p0-----------------------|
F ----------------------------------------------------------------|
C#----------------------------------------------------------------|
G#----------------------------------------------------------------|
D#----------------------------------------------------------------|
G#----------------------------------------------------------------|

==================================================================

Guitar 2 (Fade In)
A#----------------------------19-19-19-19-19-19-19-19-19-19-19-19-|
F ----------------------------------------------------------------|
C#----------------------------------------------------------------|
G#----------------------------------------------------------------|
D#----------------------------------------------------------------|
G#----------------------------------------------------------------|

==================================================================
==================================================================


Chorus 2

Guitar 2
A#-----------------------------------------------------------------|
F ---------------------------------10--10--10--8---8---8---8---8---|
C#-9---9---9---10--10--10--10--10----------------------------------|
G#-----------------------------------------------------------------|
D#-----------------------------------------------------------------|
G#-----------------------------------------------------------------|

===================================================================

Guitar 2
A#-----------------------------------------------------------------|
F ---------------------------------10--10--10--8---8---10--10--10--|
C#-9---9---9---10--10--10--10--10----------------------------------|
G#-----------------------------------------------------------------|
D#-----------------------------------------------------------------|
G#-----------------------------------------------------------------|

===================================================================

Guitar 2
A#-----------------------------------------------------------------|
F ---------------------------------10--10--10--8---8---8---8---8---|
C#-9---9---9---10--10--10--10--10----------------------------------|
G#-----------------------------------------------------------------|
D#-----------------------------------------------------------------|
G#-----------------------------------------------------------------|

===================================================================

Guitar 2
A#-----------------------------------------------------------------|
F ---------------------------------10--10--10--8---8---8---8---8---|
C#-9---9---9---10--10--10--10--10----------------------------------|
G#-----------------------------------------------------------------|
D#-----------------------------------------------------------------|
G#-----------------------------------------------------------------|

===================================================================

Guitar 2
A#-----------------------------------------------------------------|
F -11--11--11--11--11--10--8---10--10------------------------------|
C#-------------------------------------10--9---10--7---7---7---7---|
G#-----------------------------------------------------------------|
D#-----------------------------------------------------------------|
G#-----------------------------------------------------------------|

===================================================================

Guitar 2
A#-----------------------------------------------------------------|
F -10--10--10--10--10--8-------8-----------------------------------|
C#-------------------------10------10--9---9---9---9---9---9---9---|
G#-----------------------------------------------------------------|
D#-----------------------------------------------------------------|
G#-----------------------------------------------------------------|

===================================================================

Guitar 2
A#-----------------------------------------------------------------|
F -----------------------------------------------------------------|
C#-9~~~b~r~~~~~b~r~~~~~b~r~b~r~b~r-9~~~b~r~~~~~b~r~~~~~b~r~b~r~b~r-
G#-----------------------------------------------------------------|
D#-----------------------------------------------------------------|
G#-----------------------------------------------------------------|

===================================================================

Guitar 2
A#-----------------------------------------------------------------|
F -------------------------------------------------11~~~~~~~~~~~~~-|
C#-9~~~b~r~~~~~b~r~~~~~b~r~b~r~b~r-9~~~b~r~~~~~b~r-----------------|
G#-----------------------------------------------------------------|
D#-----------------------------------------------------------------|
G#-----------------------------------------------------------------|

===================================================================
===================================================================


Interlude

Guitar 2
A#-----------------------------------------------------------------
F -10~~~~~~~~~~~~~~~~~~~~~~~~~~~~~~~~~~~~~~~~~~~~~~~~~~~~~~~~~~~~~-
C#-----------------------------------------------------------------|
G#-----------------------------------------------------------------|
D#-----------------------------------------------------------------|
G#-----------------------------------------------------------------|

===================================================================

Guitar 2
A#-----------------------------------------------------------------------|
F -----------------------------------------------------------------------|
C#-----------------------------------------------------------------------|
G#-----------------------------------------------------------------------|
D#-----------------------------------------------------------------------|
G#-3p0---7p0---3p0-8p0---7p0---3p0-10p0--8p0---3p0-12p0-10p0-11-11-11-11-|

===================================================================

Guitar 2
A#--------------------------------------------------------------------|
F --------------------------------------------------------------------|
C#--------------------------------------------------------------------|
G#--------------------------------------------------------------------|
D#--------------------------------------------------------------------|
G#-3p0---7p0---3p0-8p0---7p0---3p0-10p0--8p0---3p0-12p0-10p0-8-10-8-7-|

===================================================================

Guitar 2
A#-------------------------------------------------------------------|
F -------------------------------------------------------------------|
C#-------------------------------------------------------------------|
G#-----------------------------------------------------------x-x-x-x-|
D#-----------------------------------------------------------x-x-x-x-|
G#-3p0---7p0---3p0-8p0---7p0---3p0-10p0--8p0---3p0-12p0-10p0-x-x-x-x-|

===================================================================
===================================================================


Breakdown 2

Guitar 2
A#-----------------------------------------------------------------|
F -----------------------------------------------------------------|
C#-----------------------------------------------------------------|
G#-0---0-------0---0-------0-0-0-0-0---0-------0-------0---0-------|
D#-0---0-------0---0-------0-0-0-0-0---0-------0-------0---0-------|
G#-0---0-------0---0-------0-0-0-0-0---0-------0-------0---0-------|
Pm .   .       .   .       . . . . .   .       .       .   .

===================================================================

Guitar 2
A#-----------------------------------------------------------------|
F -----------------------------------------------------------------|
C#-----------------------------------------------------------------|
G#-----0-------0-------0---0-------0---0---0-------0-0-0-0-0-------|
D#-----0-------0-------0---0-------0---0---0-------0-0-0-0-0-------|
G#-----0-------0-------0---0-------0---0---0-------0-0-0-0-0-------|
Pm     .       .       .   .       .   .   .       . . . . .

===================================================================

Guitar 2
A#-----------------------------------------------------------------|
F -----------------------------------------------------------------|
C#-----------------------------------------------------------------|
G#-0-0-0---0---0-0-0---0---0---0---0---0-----------0-0-0-0-0-------|
D#-0-0-0---0---0-0-0---0---0---0---0---0-----------0-0-0-0-0-------|
G#-0-0-0---0---0-0-0---0---0---0---0---0-----------0-0-0-0-0-------|
Pm . . .   .   . . .   .   .   .   .   .           . . . . .

===================================================================

Guitar 2
A#-----------------------------------------------------------------|
F -----15~~~~~-----------------------------------------------------|
C#-----------------------------------------------------------------|
G#-0---------------------------------------------------------------|
D#-0---------------------------------------------------------------|
G#-0-----------------------0~~~~~~-5---5---7---7---5---5---3---3---|
Pm .                               .   .   .   .   .   .   .   .

===================================================================

Guitar 2
A#-----------------------------------------------------------------|
F -----------------------------------------------------------------|
C#-----------------------------------------------------------------|
G#-0---0-------0---0-------0-0-0-0-0---0-------0-------0---0-------|
D#-0---0-------0---0-------0-0-0-0-0---0-------0-------0---0-------|
G#-0---0-------0---0-------0-0-0-0-0---0-------0-------0---0-------|
Pm .   .       .   .       . . . . .   .       .       .   .

===================================================================

Guitar 2
A#-----------------------------------------------------------------|
F -----------------------------------------------------------------|
C#-----------------------------------------------------------------|
G#-----0-------0-------0---0-------0---0---0-------0-0-0-0-0-------|
D#-----0-------0-------0---0-------0---0---0-------0-0-0-0-0-------|
G#-----0-------0-------0---0-------0---0---0-------0-0-0-0-0-------|
Pm     .       .       .   .       .   .   .       . . . . .

===================================================================

Guitar 2
A#-----------------------------------------------------------------|
F -----------------------------------------------------------------|
C#-----------------------------------------------------------------|
G#-0---0-----------0---0-----------0---0-----------x---x---x---x---|
D#-0---0-----------0---0-----------0---0-----------x---x---x---x---|
G#-0---0-----------0---0-----------0---0-----------x---x---x---x---|
Pm .   .           .   .           .   .

===================================================================

Guitar 2
A#-----------------------------------------------------------------|
F -----------------------------------------------------------------|
C#-----------------------------------------------------------------|
G#-5---7~~~~~~-7---5~~~~~~-3~~~~~~-5~~~~~~-5~~~~~~-3~~~~~~-2~~~~~~-|
D#-5---7~~~~~~-7---5~~~~~~-3~~~~~~-5~~~~~~-5~~~~~~-3~~~~~~-2~~~~~~-|
G#-5---7~~~~~~-7---5~~~~~~-3~~~~~~-5~~~~~~-5~~~~~~-3~~~~~~-2~~~~~~-|

===================================================================
===================================================================


Pre Chorus 2

Guitar 2
A#-----------------17~~~~~~~~~~~~~---------------------------------|
F -17~~~~~-18~~~~~-17~~~~~-20~~~~~-17~~~~~-18~~~~~-----------------|
C#-17~~~~~~~~~~~~~-17~~~~~~~~~~~~~-17~~~~~~~~~~~~~-----------------|
G#-17~~~~~~~~~~~~~-----------------17~~~~~~~~~~~~~-17~~~~~-15~~~~~-|
D#-----------------------------------------------------------------|
G#-----------------------------------------------------------------|

===================================================================
===================================================================


Chorus 3

Guitar 2
A#-----------------------------------------------------------------|
F ---------------------------------10--10--10--8---8---8---8---8---|
C#-9---9---9---10--10--10--10--10----------------------------------|
G#-----------------------------------------------------------------|
D#-----------------------------------------------------------------|
G#-----------------------------------------------------------------|

===================================================================

Guitar 2
A#-----------------------------------------------------------------|
F ---------------------------------10--10--10--8---8---10--10--10--|
C#-9---9---9---10--10--10--10--10----------------------------------|
G#-----------------------------------------------------------------|
D#-----------------------------------------------------------------|
G#-----------------------------------------------------------------|

===================================================================

Guitar 2
A#-----------------------------------------------------------------|
F ---------------------------------10--10--10--8---8---8---8---8---|
C#-9---9---9---10--10--10--10--10----------------------------------|
G#-----------------------------------------------------------------|
D#-----------------------------------------------------------------|
G#-----------------------------------------------------------------|

===================================================================

Guitar 2
A#-----------------------------------------------------------------|
F ---------------------------------10--10--10--8---8---8---8---8---|
C#-9---9---9---10--10--10--10--10----------------------------------|
G#-----------------------------------------------------------------|
D#-----------------------------------------------------------------|
G#-----------------------------------------------------------------|

===================================================================

Guitar 2
A#-----------------------------------------------------------------|
F -11--11--11--11--11--10--8---10--10------------------------------|
C#-------------------------------------10--9---10--7---7---7---7---|
G#-----------------------------------------------------------------|
D#-----------------------------------------------------------------|
G#-----------------------------------------------------------------|

===================================================================

Guitar 2
A#-----------------------------------------------------------------|
F -10--10--10--10--10--8-------8-----------------------------------|
C#-------------------------10------10--9---9---9---9---9---9---9---|
G#-----------------------------------------------------------------|
D#-----------------------------------------------------------------|
G#-----------------------------------------------------------------|

===================================================================
===================================================================


Outro

Guitar 2 (x3)
A#-----------------------------------------------------------------|
F -----------------------------------------------------------------|
C#-9~~~b~r~~~~~b~r~~~~~b~r~b~r~b~r-9~~~b~r~~~~~b~r~~~~~b~r~b~r~b~r-
G#-----------------------------------------------------------------|
D#-----------------------------------------------------------------|
G#-----------------------------------------------------------------|

===================================================================

Guitar 2
A#-------10~~--------10~~~~~~~~~~~~~~~-13~~~~~-10~~~~~-9~~~~~~~~~~-|
F -----------------------------------------------------------------|
C#-9~~~b-----------------------------------------------------------|
G#-----------------------------------------------------------------|
D#-----------------------------------------------------------------|
G#-----------------------------------------------------------------|

===================================================================

Guitar 2
A#-10~~~~~~~~~~~~~~~~~~~~~~~~~~~~~~~~~~~~~~~~~~~~~~~~~~~~~~~~~~~~~-
F -----------------------------------------------------------------|
C#-----------------------------------------------------------------|
G#-----------------------------------------------------------------|
D#-----------------------------------------------------------------|
G#-----------------------------------------------------------------|

===================================================================
===================================================================
===================================================================


===================================================================
Guitar 3
===================================================================

(Harmony for Guitar in Intro and Guitar Solo)

Intro

(x2)

Guitar 3
A#-----------------------------------------------------------------|
F -----------------------------------------------------------------|
C#-------------------------------10-10-10-------9-9-9--------------|
G#---------------------2-3-2---0----------0-0-0--------0-----------|
D#-----------------------------0----------0-0-0--------0---3~~~~~~-|
G#-0~~~~~~-5-7-5---3-----------0----------0-0-0--------0-----------|
Pm                             .          . . .        .

===================================================================

Guitar 3
A#-----------------------------------------------------------------|
F -----------------------------------------------------------------|
C#-------------------------------10-10-10-------9-9-9--------------|
G#-----------------------------0----------0-0-0--------7---5-------|
D#---------------------3~b~r~~-0----------0-0-0----------------7---|
G#-0~~~~~~-5-7-5---3-----------0----------0-0-0--------------------|
Pm                             .          . . .

===================================================================

Guitar 3
A#-----------------------------------------------------------------|
F -----------------------------------------------------------------|
C#-----------------------------------------------------------------|
G#-----------------------------------------------------------------|
D#-5~~~~-5~~~~-5~~~~-5-3---5~~~~-5~~~~-5-5-5---5-5-7---7-7-8~~~~~~-|
G#-----------------------------------------------------------------|
Pm                   .                 . .     . .     .  .

===================================================================

Guitar 3
A#-----------------------------------------------------------------|
F -----------------------------------------------------------------|
C#-----------------------------------------------------------------|
G#-----------------------------------7\~~--------------------------|
D#-5~~~~-5~~~~-5~~~~-5-3---5~~~~-3-3-7\~~--------------------------|
G#-----------------------------------7\~~--------------------------|
Pm                   .           . .

===================================================================
===================================================================


Guitar Solo

Guitar 3
A#-----------------------------------------------------------------|
F -----------------------------------------------------------------|
C#-------------------------------10-10-10-------9-9-9--------------|
G#---------------------2-3-2---0----------0-0-0--------0-----------|
D#-----------------------------0----------0-0-0--------0---3~~~~~~-|
G#-0~~~~~~-5-7-5---3-----------0----------0-0-0--------0-----------|
Pm                             .          . . .        .

===================================================================

Guitar 3
A#-----------------------------------------------------------------|
F -----------------------------------------------------------------|
C#-------------------------------10-10-10-------9-9-9--------------|
G#-----------------------------0----------0-0-0--------7---5-------|
D#---------------------3~b~r~~-0----------0-0-0----------------7---|
G#-0~~~~~~-5-7-5---3-----------0----------0-0-0--------------------|
Pm                             .          . . .

===================================================================

Guitar 3
A#-----------------------------------------------------------------|
F -----------------------------------------------------------------|
C#-----------------------------------------------------------------|
G#-----------------------------------------------------------------|
D#-5~~~~-5~~~~-5~~~~-5-3---5~~~~-5~~~~-5-5-5---5-5-7---7-7-8~~~~~~-|
G#-----------------------------------------------------------------|
Pm                   .                 . .     . .     .  .

===================================================================

Guitar 3
A#-----------------------------------------------------------------|
F -----------------------------------------------------------------|
C#-----------------------------------------------------------------|
G#-----------------------------------7\~~--------------------------|
D#-5~~~~-5~~~~-5~~~~-5-3---5~~~~-3-3-7\~~--------------------------|
G#-----------------------------------7\~~--------------------------|
Pm                   .           . .

===================================================================
===================================================================


Tab Legend
h  - hammer-on
p  - pull-off
/  - slide up
\  - slide down
ps/- pickslide up
ps\- pickslide down
~  - let ring
pm.- palm mute
b  - bend
r  - return from bend
t  - finger tapping
*  - harmonic
x  - dead note
^  - Whammy bar
^\ - Whammy bar (hold down)

That is it! I hope this helped, and be sure to check out my cover if you are
having problems with the tab. Thanks, oh and one last thing... ROCK OUT!!!!
comments
We did not receive enough feedback on this tab! Please rate:
print report bad tab
1 2 3 4 5
I want to post or [tab]
guest
You may want to rate the tab now too:
select rating
Please do not post tabs as comments. Select "correction" instead!