Oops, an error
Loading. Please wait.

The Abandoned Drum Tab

1,197 views 90 this week
no commentswrite comment
1 2 3 4 5
excellent!
x 1
Autoscroll
+/-
esc
set tempo
stop
Contributor
WARNING: You are trying to view
                                    content from Ultimate-Guitar.com
                                    in an unauthorized application,
                                    which is prohibited.

                                    Please use an official Ultimate
                                    Guitar Tabs application for iPhone,
                                    iPad or Android to access legitimate
                                    chords, guitar, bass, and drum tabs
                                    from Ultimate-Guitar.com database.

                                    Type "ultimate guitar tabs" in Apple
                                    App Store's or Android Market's
                                    search to find the application.
Song: The Abandoned
Artist: Memphis May Fire
Album: The Hollow

Transcribed by Colton Wood

I can't believe I actually tabbed this... And with numbers (Which would be 
easier to understand if we all just used the MIDI codes!). But I was forced 
to do this, since there were no other drum tabs. There's gotta be some sort 
of starting part, am I right? Well... Good luck.

Check for the legend at the bottom of all the tablature.

-

Timing: 4/4, around 124 BPM.


Verse 1
    

      Q     Q     E   E   S  E   S     Q     Q     E   E   T  T  E   S  
C||--57----------------------------|-----------------------------------|
C||--49----49----49------49--------|--49----49----49------49-----------|
T||--------------------------------|-----------------------------------|
T||--------------------------------|-----------------------------------|
S||--------------40----------------|--------------40-------------------|
P||--35--------------35--35-35--35-|--35--------------35--35-35-35--35-|


   Q     Q     E   E   S  E   S     Q     Q     S  S  S  S  S  S  S  S  
--------------------------------|--------------------------------------|
--49----49----49------49--------|--49----49----46-46--L----------------|
--------------------------------|--------------------------45----------|
--------------------------------|--------------------------------------|
--------------40----------------|--------------40-40----------40-40-40-|
--35--------------35--35-35--35-|--35----------------35-35-------------|


   Q     Q     E   E   S  E   S     Q     Q     E   E   T  T  E   T  T  
--57----------------------------|--------------------------------------|
--------49----49------49--------|--49----49----49------49--------------|
--------------------------------|--------------------------------------|
--------------------------------|--------------------------------------|
--------------40----------------|--------------40----------------------|
--35--------------35--35-35--35-|--35--------------35--35-35-35--35-35-|


   Q     Q     E   E   S  E   S     E  S  S  S  S  S  S  S  E   S  S  S  T  T  T  T  
--------------------------------|---------------------------------------------------|
--49----49----49------49--------|--49-------49----------46-46---L-49----------------|
--------------------------------|---------------------------------------------------|
--------------------------------|---------------------------------------------------|
--------------40----------------|-----------------------40-40--40----40-------------|
--35--------------35--35-35--35-|--35----35----35-35-35-----------------35-35-35-35-|


   Q     Q     E   E   S  E   S     Q     Q     E   E   T  T  E   S  
--57----------------------------|-----------------------------------|
--------49----49------49--------|--49----49----49------49-----------|
--------------------------------|-----------------------------------|
--------------------------------|-----------------------------------|
--------------40----------------|--------------40-------------------|
--35--------------35--35-35--35-|--35--------------35--35-35-35--35-|


   Q     Q     E   E   S  E   S     Q     Q     S  S  S  S  S  S  S  S  
--------------------------------|--------------------------------------|
--49----49----49------49--------|--49----49----46-46-------------------|
--------------------------------|--------------------------45----------|
--------------------------------|--------------------------------------|
--------------40----------------|--------------40-40----------40-40-40-|
--35--------------35--35-35--35-|--35----------------35-35-------------|


   Q     Q     E   E   S  E   S     Q     Q     E   E   T  T  E   T  T  
--57----------------------------|--------------------------------------|
--------49----49------49--------|--49----49----49------49--------------|
--------------------------------|--------------------------------------|
--------------------------------|--------------------------------------|
--------------40----------------|--------------40----------------------|
--35--------------35--35-35--35-|--35--------------35--35-35-35--35-35-|


   Q     Q     E   E   S  E   S     E  S  S  S  S  S  S  S  S  S  S  S  S  S  S  
--------------------------------|-----------------------------------------------|
--49----49----49------49--------|--49-------49----------46-46-------49----------|
--------------------------------|-----------------------------------------45----|
--------------------------------|--------------------------------------------43-|
--------------40----------------|-----------------------40-40----40----40-------|
--35--------------35--35-35--35-|--35----35----35-35-35-35----35----------------|


Pre Chorus


   Q     E.   S  Q     S  E   E      Q     E.   S  Q     S  S  S  E   
--57-----------------------------|-----------------------------------|
--------49------49-------49------|--49----49------49-------49----46--|
---------------------------------|-----------------------------------|
---------------------------------|-----------------------------------|
----------------40---------------|----------------40-------------40--|
--35----35---35-------35-----35--|--35----35---35-------35----35-----|


   Q     E.   S  Q     S  E   E      Q     E   S  S  Q     S  S  S  E   
---------------------------------|-------------------------------------|
--49----49------49-------49------|--49----49--------49-------49-----L--|
---------------------------------|-------------------------------------|
---------------------------------|-------------------------------------|
--44------------40---------------|------------------40-------------40--|
--35----35---35-------35-----35--|--35----35--35-35-------35----35-----|


   E   S  S  S  S  S  S  Q     S  S  E.      E   S  S  S  S  S  S  Q     S  S  S  E   
-----------------------------------------|-------------------------------------------|
--49--------49----------49-------49------|--49--------49----------49-------49--------|
-----------------------------------------|-------------------------------------------|
-----------------------------------------|-------------------------------------------|
------------------------40---------------|------------------------40-------------40--|
--35--35-35----35-35-35-------35----35---|--35--35-35----35-35-35-------35----35-----|


   E   S  S  S  S  S  S  Q     S  S  S  S  S     Q     Q        S  S  S  S  Q     
---------------------------------------------|-----------------------------------|
--46--------49----------49-------49--------L-|--49----46-------------------------|
---------------------------------------------|-----------------------47----45----|
---------------------------------------------|-----------------------45----43----|
--40--------------------40-------------40-40-|--------------40g40----------------|
--35--35-35----35-35-35-------35----35-------|--35----------------35----35-35----|


Chorus


   S  S  S  S  E   S  S  E   S  S  S  E.      S  S  S  S  E   S  S  E   S  S  S  E   S  
--57--------------------------------------|--------------------------------------------|
--------------49--------49--------49------|--49----------49--------49--------49------L-|
------------------------------------------|--------------------------------------------|
------------------------------------------|--------------------------------------------|
------------------------40----------------|------------------------40---------------40-|
--35-35-35-35-----35-35-----35-35-35-35---|--35-35-35-35-----35-35-----35-35-35-35-----|


   S  S  S  S  E   S  S  E   S  S  S  E.      S  S  S  S  E   S  S  S  S  S  S  S  S  S  S  
------------------------------------------|------------------------------------------------|
--49----------49--------49--------49------|--49----------49--------------------------------|
------------------------------------------|---------------------------------47-------------|
------------------------------------------|---------------------------------------45----43-|
------------------------40----------------|------------------------40-40-------------------|
--35-35-35-35-----35-35-----35-35-35-35---|--35-35-35-35-----35-35-------35----35----35----|


   S  S  S  S  E   S  S  E   S  S  S  E.      S  S  S  S  E   S  S  E   S  S  S  E   S  
--57--------------------------------------|--------------------------------------------|
--------------49--------49--------49------|--49----------49--------49--------49------L-|
------------------------------------------|--------------------------------------------|
------------------------------------------|--------------------------------------------|
------------------------40----------------|------------------------40---------------40-|
--35-35-35-35-----35-35-----35-35-35-35---|--35-35-35-35-----35-35-----35-35-35-35-----|


   S  S  S  S  E   S  S  E   S  S  S  E.      S  S  S  S  E   S  S  S  S  S  S  S  S  S  S  
------------------------------------------|------------------------------------------------|
--49----------49--------49--------49------|--49----------49--------------------------------|
------------------------------------------|---------------------------------47-------------|
------------------------------------------|---------------------------------------45----43-|
------------------------40----------------|------------------------40-40-------------------|
--35-35-35-35-----35-35-----35-35-35-35---|--35-35-35-35-----35-35-------35----35----35----|


   E.   S  E   E   E.   S  E   E      E.   S  E   E   E.   S  S  S  S  S  
----------------------------------|--------------------------------------|
--49------49------49------49------|--49------49------49------49----------|
----------------------------------|--------------------------------------|
----------------------------------|--------------------------------------|
--40--------------40--------------|------------------40------------40-40-|
-------35-----35-------35-----35--|--35---35-----35-------35----35-------|


   S  S  S  S  E   S  S  E   S  S  S  E.      S  S  S  S  E   S  S  S  S  S  S  S  S  S  S  
------------------------------------------|------------------------------------------------|
--49----------49--------49--------49------|--49----------49--------------------------------|
------------------------------------------|---------------------------------47----45-------|
------------------------------------------|---------------------------------------------43-|
------------------------40----------------|------------------------40-40-------------------|
--35-35-35-35-----35-35-----35-35-35-35---|--35-35-35-35-----35-35-------35----35----35----|


   E.   S  E   E   E.   S  E   E      E.   S  E   E   E.   S  S  S  S  S  
----------------------------------|--------------------------------------|
--49------49------49------49------|--49------49------49------49----------|
----------------------------------|--------------------------------------|
----------------------------------|--------------------------------------|
--40--------------40--------------|------------------40------------40-40-|
--35---35-----35-------35-----35--|--35---35-----35-------35----35-------|


   S  S  S  S  E   S  S  E   S  S  S  E   S     S  S  S  S  E   S  S  S  S  S  S  S  S  S  S  
--------------------------------------------|------------------------------------------------|
--49----------49--------49--------49--------|--49----------49--------------------------------|
--------------------------------------------|---------------------------------47-------------|
--------------------------------------------|------------------------------------------40-40-|
------------------------40---------------40-|------------------------40-40-------------------|
--35-35-35-35-----35-35-----35-35-35-35-----|--35-35-35-35-----35-35-------35----35-35-------|


Interlude


   Q     Q     Q     S  S  E      Q     Q     Q     E   S  S     Q     Q     Q     S  S  E   
--52----52----52----52--------|--52----52----52----52--------|--52----52----52----52--------|
------------------------------|------------------------------|------------------------------|
------------------------------|------------------------------|------------------------------|
------------------------------|------------------------------|------------------------------|
--------------40--------------|--------------40--------------|--------------40--------------|
--35-------------------35-35--|--35--------------------35-35-|--35-------------------35-35--|


                           |--3--|  |--3--|                                 
   Q     Q     S  S  S  S  S  S  S  S  S  S     Q     Q     Q     S  S  E   
--52----52----52----------------------------|--57----52----52----52--------|
--------------------------------------------|------------------------------|
--------------------------------------------|------------------------------|
--------------------------------------------|------------------------------|
--------------40----------40-40-40----------|--------------40--------------|
--35----------35-35-35-35----------35-35-35-|--35-------------------35-35--|


   Q     Q     Q     E   S  S     Q     Q     E   E   S  S  E      E    E   H.            
--52----52----52----52--------|--52----52----52------52--------|-------------------------|
------------------------------|--------------------------------|--49----X-(Choke)--------|
------------------------------|--------------------------------|-------------------------|
------------------------------|--------------------------------|-------------------------|
--------------40--------------|--------------40----------------|-------------------------|
--35--------------------35-35-|--35--------------35-----35-35--|--35---------------------|


Verse 2


   Q     Q     E   E   S  E   S     Q     Q     E   E   T  T  E   S  
--57----------------------------|-----------------------------------|
--49----49----49------49--------|--49----49----49------49-----------|
--------------------------------|-----------------------------------|
--------------------------------|-----------------------------------|
--------------40----------------|--------------40-------------------|
--35--------------35--35-35--35-|--35--------------35--35-35-35--35-|


   Q     Q     E   E   S  E   S     Q     Q     S  S  S  S  S  S  S  S  
--------------------------------|--------------------------------------|
--49----49----49------49--------|--49----49----46-46--L----------------|
--------------------------------|--------------------------------------|
--------------------------------|--------------------------43----------|
--------------40----------------|--------------40-40----------40-40-40-|
--35--------------35--35-35--35-|--35----------------35-35-------------|


   Q     Q     E   E   S  E   S     Q     Q     E   E   T  T  E   T  T  
--57----------------------------|--------------------------------------|
--------49----49------49--------|--49----49----49------49--------------|
--------------------------------|--------------------------------------|
--------------------------------|--------------------------------------|
--------------40----------------|--------------40----------------------|
--35--------------35--35-35--35-|--35--------------35--35-35-35--35-35-|


                                                            |--3--|  |--3--|        
   Q     Q     E   E   S  E   S     S  S  S  S  S  S  S  S  S  S  S  S  S  S  Q     
--------------------------------|--------------------------------------------------|
--49----49----49------49--------|--49----------49----------------------------------|
--------------------------------|-----------------------------------47-------------|
--------------------------------|--------------------------------------------45----|
--------------40----------------|--------------------------40----------------40----|
--35--------------35--35-35--35-|--35-35-35-35-35-35-35-35----35-35----35-35-------|


Chorus


   S  S  S  S  E   S  S  E   S  S  S  E.      S  S  S  S  E   S  S  E   S  S  S  E   S  
--57--------------------------------------|--------------------------------------------|
--------------49--------49--------49------|--49----------49--------49--------49------L-|
------------------------------------------|--------------------------------------------|
------------------------------------------|--------------------------------------------|
------------------------40----------------|------------------------40---------------40-|
--35-35-35-35-----35-35-----35-35-35-35---|--35-35-35-35-----35-35-----35-35-35-35-----|


   S  S  S  S  E   S  S  E   S  S  S  E.      S  S  S  S  E   S  S  S  S  S  S  S  S  S  S  
------------------------------------------|------------------------------------------------|
--49----------49--------49--------49------|--49----------49--------------------------------|
------------------------------------------|---------------------------------47-------------|
------------------------------------------|---------------------------------------45----43-|
------------------------40----------------|------------------------40-40-------------------|
--35-35-35-35-----35-35-----35-35-35-35---|--35-35-35-35-----35-35-------35----35----35----|


   S  S  S  S  E   S  S  E   S  S  S  E.      S  S  S  S  E   S  S  E   S  S  S  E   S  
--57--------------------------------------|--------------------------------------------|
--------------49--------49--------49------|--49----------49--------49--------49------L-|
------------------------------------------|--------------------------------------------|
------------------------------------------|--------------------------------------------|
------------------------40----------------|------------------------40---------------40-|
--35-35-35-35-----35-35-----35-35-35-35---|--35-35-35-35-----35-35-----35-35-35-35-----|


   S  S  S  S  E   S  S  E   S  S  S  E.      S  S  S  S  E   S  S  S  S  S  S  S  S  S  S  
------------------------------------------|------------------------------------------------|
--49----------49--------49--------49------|--49----------49--------------------------------|
------------------------------------------|---------------------------------47-------------|
------------------------------------------|---------------------------------------45----43-|
------------------------40----------------|------------------------40-40-------------------|
--35-35-35-35-----35-35-----35-35-35-35---|--35-35-35-35-----35-35-------35----35----35----|


   E.   S  E   E   E.   S  E   E      E.   S  E   E   E.   S  S  S  S  S  
----------------------------------|--------------------------------------|
--49------49------49------49------|--49------49------49------49----------|
----------------------------------|--------------------------------------|
----------------------------------|--------------------------------------|
--40--------------40--------------|------------------40------------40-40-|
-------35-----35-------35-----35--|--35---35-----35-------35----35-------|


   S  S  S  S  E   S  S  E   S  S  S  E.      S  S  S  S  E   S  S  S  S  S  S  S  S  S  S  
------------------------------------------|------------------------------------------------|
--49----------49--------49--------49------|--49----------49--------------------------------|
------------------------------------------|---------------------------------47----45-------|
------------------------------------------|---------------------------------------------43-|
------------------------40----------------|------------------------40-40-------------------|
--35-35-35-35-----35-35-----35-35-35-35---|--35-35-35-35-----35-35-------35----35----35----|


   E.   S  E   E   E.   S  E   E      E.   S  E   E   E.   S  S  S  S  S  
----------------------------------|--------------------------------------|
--49------49------49------49------|--49------49------49------49----------|
----------------------------------|--------------------------------------|
----------------------------------|--------------------------------------|
--40--------------40--------------|------------------40------------40-40-|
--35---35-----35-------35-----35--|--35---35-----35-------35----35-------|


   S  S  S  S  E   S  S  E   S  S  S  E   S     S  S  S  S  E   S  S  S  S  S  S  S  S  S  S  
--------------------------------------------|------------------------------------------------|
--49----------49--------49--------49--------|--49----------49--------------------------------|
--------------------------------------------|---------------------------------47-------------|
--------------------------------------------|------------------------------------------40-40-|
------------------------40---------------40-|------------------------40-40-------------------|
--35-35-35-35-----35-35-----35-35-35-35-----|--35-35-35-35-----35-35-------35----35-35-------|


Breakdown


   S E   S  S  S  S  S  S  S  E   Q        E.   S  S  S  S  S  Q     S  S  S  S  S  
--57-----------------------------------|-------------------------------------------|
-----------49----------49--------49----|--49------49----------49-------49----------|
---------------------------------------|-------------------------------------------|
---------------------------------------|-------------------------------------------|
-----------------------40--------------|----------------------40-------------------|
--35----35-35-35-35-35-35-35-35--------|-------35-35-35-35-35-------35-35-35-35-35-|


   S E   S  S  S  S  S  S  S  E   Q        E.   S  S  S  S  S  Q     S  S  S     S  S  
--57-----------------------------------|----------------------------------------------|
-----------49----------49--------49----|--49------49----------49-------46-------------|
---------------------------------------|----------------------------------------------|
---------------------------------------|----------------------------------------------|
-----------------------40--------------|----------------------40-------------40g40----|
--35----35-35-35-35-35-35-35-35--------|-------35-35-35-35-35-------35----35-------35-|


   S E   S  S  S  S  S  S  S  S  S  Q        E.   S  S  S  S  S  Q     S  S  S  S  S  
--52-------52----------52----------52----|--52------52----------52-------52----------|
-----------------------------------------|-------------------------------------------|
-----------------------------------------|-------------------------------------------|
-----------------------------------------|-------------------------------------------|
-----------------------40----------------|----------------------40-------------------|
--35----35-35-35-35-35-35-35-35-35-------|-------35-35-35-35-35-------35-35-35-35-35-|


   S E   S  S  S  S  S  S  S  S  S  Q        E.   S  S  S  S  S  Q     S  S  S     S S  
--52-------52----------52----------52----|--52------52----------52---------------------|
-----------------------------------------|---------------------------------------------|
-----------------------------------------|-------------------------------47------------|
-----------------------------------------|-------------------------------45------------|
-----------------------40----------------|----------------------40-------------40g40---|
--35----35-35-35-35-35-35-35-35-35-------|-------35-35-35-35-35-------35----35---------|


Transition....               Final Chorus starts here


   E.   Q     S  E   E   E      S  S  S  S  E   S  S  E   S  S  S  E.   
----------------------------|--57--------------------------------------|
----------------------------|--------------49--------49--------49------|
----------------------------|------------------------------------------|
----------------------------|------------------------------------------|
----------------------------|------------------------40----------------|
--35---35----35-35--35--35--|--35-35-35-35-----35-35-----35-35-35-35---|


   S  S  S  S  E   S  S  E   S  S  S  E   S     S  S  S  S  E   S  S  E   S  S  S  E.   
--------------------------------------------|------------------------------------------|
--49----------49--------49--------49------L-|--49----------49--------49--------49------|
--------------------------------------------|------------------------------------------|
--------------------------------------------|------------------------------------------|
------------------------40---------------40-|------------------------40----------------|
--35-35-35-35-----35-35-----35-35-35-35-----|--35-35-35-35-----35-35-----35-35-35-35---|


   S  S  S  S  E   S  S  S  S  S  S  S  S  S  S     S  S  S  S  E   S  S  E   S  S  S  E.   
------------------------------------------------|--57--------------------------------------|
--49----------49--------------------------------|--------------49--------49--------49------|
---------------------------------47-------------|------------------------------------------|
---------------------------------------45----43-|------------------------------------------|
------------------------40-40-------------------|------------------------40----------------|
--35-35-35-35-----35-35-------35----35----35----|--35-35-35-35-----35-35-----35-35-35-35---|


   S  S  S  S  E   S  S  E   S  S  S  E   S     S  S  S  S  E   S  S  E   S  S  S  E.   
--------------------------------------------|------------------------------------------|
--49----------49--------49--------49------L-|--49----------49--------49--------49------|
--------------------------------------------|------------------------------------------|
--------------------------------------------|------------------------------------------|
------------------------40---------------40-|------------------------40----------------|
--35-35-35-35-----35-35-----35-35-35-35-----|--35-35-35-35-----35-35-----35-35-35-35---|


   S  S  S  S  E   S  S  S  S  S  S  S  S  S  S     E.   S  E   E   E.   S  E   E   
------------------------------------------------|----------------------------------|
--49----------49--------------------------------|--49------49------49------49------|
---------------------------------47-------------|----------------------------------|
---------------------------------------45----43-|----------------------------------|
------------------------40-40-------------------|--40--------------40--------------|
--35-35-35-35-----35-35-------35----35----35----|-------35-----35-------35-----35--|


   E.   S  E   E   E.   S  S  S  S  S     S  S  S  S  E   S  S  E   S  S  S  E.   
--------------------------------------|------------------------------------------|
--49------49------49------49----------|--49----------49--------49--------49------|
--------------------------------------|------------------------------------------|
--------------------------------------|------------------------------------------|
------------------40------------40-40-|------------------------40----------------|
--35---35-----35-------35----35-------|--35-35-35-35-----35-35-----35-35-35-35---|


   S  S  S  S  E   S  S  S  S  S  S  S  S  S  S     E.   S  E   E   E.   S  E   E   
------------------------------------------------|----------------------------------|
--49----------49--------------------------------|--49------49------49------49------|
---------------------------------47----45-------|----------------------------------|
---------------------------------------------43-|----------------------------------|
------------------------40-40-------------------|--40--------------40--------------|
--35-35-35-35-----35-35-------35----35----35----|--35---35-----35-------35-----35--|


   E.   S  E   E   E.   S  S  S  S  S     S  S  S  S  E   S  S  E   S  S  S  E   S  
--------------------------------------|--------------------------------------------|
--49------49------49------49----------|--49----------49--------49--------49--------|
--------------------------------------|--------------------------------------------|
--------------------------------------|--------------------------------------------|
------------------40------------40-40-|------------------------40---------------40-|
--35---35-----35-------35----35-------|--35-35-35-35-----35-35-----35-35-35-35-----|


   S  S  S  S  E   S  S  S  S  S  S  S  S  S  S     W                                  
------------------------------------------------|--57----------------|
--49----------49--------------------------------|--49----------------|
---------------------------------47-------------|--------------------|
------------------------------------------40-40-|--------------------|
------------------------40-40-------------------|--------------------|
--35-35-35-35-----35-35-------35----35-35-------|--35----------------|


Well, good luck! It can't be that hard to understand this kind of drum tablature, 
just refer to the legend!


Duration Legend
---------------
W - whole
H - half
Q - quarter
E - 8th
S - 16th
T - 32nd
X - 64th
. - note dotted
|-n-| - n-tuplets

MIDI #'s Legend
---------------
Line 1:
57 - High Crash
52 - China

Line 2:
49 - Low Crash
46 - Hi-hat (Open)

Line 3 & 4:
47 - High Tom
45 - Medium Tom
43 - Low Tom
41 - Floor Tom

Line 5:
40 - Snare
44 - Hi-hat (Pedal)

Line 6:
35 - Kick Drum
comments
We did not receive enough feedback on this tab! Please rate:
1 2 3 4 5
I want to post or [tab]
guest
You may want to rate the tab now too:
select rating
Please do not post tabs as comments. Select "correction" instead!