Oops, an error
Loading. Please wait.

The Sinner Tab

ver2
ver2

Whole song

More versions @911Tabs.com
1,179 views 3 this week
1 commentread comment
1 2 3 4 5
please rate
Autoscroll
+/-
esc
set tempo
stop
Contributor
Difficulty
Tuning
intermediate
C# G# C# F# A# D#
Hey! There's an official Ultimate Guitar app which is ideal
for learning songs when you're away from computer. Get the app
WARNING: You are trying to view
                                    content from Ultimate-Guitar.com
                                    in an unauthorized application,
                                    which is prohibited.

                                    Please use an official Ultimate
                                    Guitar Tabs application for iPhone,
                                    iPad or Android to access legitimate
                                    chords, guitar, bass, and drum tabs
                                    from Ultimate-Guitar.com database.

                                    Type "ultimate guitar tabs" in Apple
                                    App Store's or Android Market's
                                    search to find the application.
Legend
L - tied note
x - dead note
h - hammer on/pull off
b - bend
s - slide
~ - vibrato
g - ghost note
> - accentuated note
t - trill
M - palm mute
. - staccato
P - popping (bass)
S - slapping (bass)
+ - tapping
W - wide vibrato
< - fade in
w - whammy bar
= - tremolo picking
v - brush up
^ - brush down
V - pick stroke up
n - pick stroke down

Verse
D#|----------------|----------------------------------------------------|
A#|----------------|----------------------------------------------------|
F#|----------------|----------------------------------------------------|
C#|----------------|----------------------------------------------------|
G#|----------------|--8--------5----------------------------------------|
C#|----------------|--------0M-------0M-0-----0h-8h-7--0-----xM-0-------|


----------------------------------------------------|
----------------------------------------------------|
----------------------------------------------------|
----------------------------------------------------|
--4--------7-----------------------4--------4-------|
--------0M-------0M-0-----7-----0M-------0M---------|


----------------------------------------------------|
----------------------------------------------------|
----------------------------------------------------|
----------------------------------------------------|
--8-------------------------------------------------|
--------0M-0-----0M-0-----0h-8h-7--0-----xM-0-------|


----------------------------------------------------|
----------------------------------------------------|
----------------------------------------------------|
--------------------------5M-5M-5M-7M-7M-7M-7M-7M---|
--4M-4M-4M-7M-7M-7M-7M-7M---------------------------|
----------------------------------------------------|


----------------------------------------------------|
----------------------------------------------------|
----------------------------------------------------|
----------------------------------------------------|
--8--------5----------------------------------------|
--------0M-------0M-0-----0h-8h-7--0-----xM-0-------|


----------------------------------------------------|
----------------------------------------------------|
----------------------------------------------------|
----------------------------------------------------|
--4--------7-----------------------4--------4s------|
--------0M-------0M-0-----7-----0M-------0M---------|


----------------------------------------------------|
----------------------------------------------------|
----------------------------------------------------|
----------------------------------------------------|
--8-------------------------------------------------|
--------0M-0-----0M-0-----0h-8h-7--0-----xM-0-------|


----------------------------------------------------|
----------------------------------------------------|
----------------------------------------------------|
--------------------------5M-5M-5M-7M-7M-7M-7M-7M---|
--4M-4M-4M-7M-7M-7M-7M-7M---------------------------|
----------------------------------------------------|


----------------------------------------------------|
----------------------------------------------------|
----------------------------------------------------|
----------------------------------------------------|
--8-------------------------------------------------|
--------0M-0-----0M-0-----0h-8h-7--0-----xM-0-------|


----------------------------------------------------|
----------------------------------------------------|
----------------------------------------------------|
----------------------------------------------------|
--4--------7-----------------------4--------4-------|
--------0M-------0M-0-----7-----0M-------0M---------|


----------------------------------------------------|
----------------------------------------------------|
----------------------------------------------------|
----------------------------------------------------|
--8-------------------------------------------------|
--------0M-0-----0M-0-----0h-8h-7--0-----xM-0-------|


----------------------------------------------------|
----------------------------------------------------|
----------------------------------------------------|
--------------------------5M-5M-5M-7M-7M-7M-7M-7M---|
--4M-4M-4M-7M-7M-7M-7M-7M---------------------------|
----------------------------------------------------|


----------------------------------------------------|
----------------------------------------------------|
--------------------------6M-6M-6--6--6.------------|
--5M-5M-5M-7M-7M-7M-7M-7M---------------------------|
----------------------------------------------------|
----------------------------------------------------|

Pre-Chorus
----------------------------------------------------|
----------------------------------------------------|
----------------------------------------------------|
----------------------------------------------------|
--0--------0--------0--------------0--------0-------|
--0--------0--------0-----0M-0M-0M-0-----0M-0-------|


----------------------------------------------------|
----------------------------------------------------|
--------------------------------------------10------|
----------------------------------------------------|
--0--------0--------0--------------0----------------|
--0--------0--------0-----0M-0M-0M-0-----0M---------|


----------------------------------------------------|
----------------------------------------------------|
----------------------------------------------------|
----------------------------------------------------|
--0--------0--------0--------------0--------0-------|
--0--------0--------0-----0M-0M-0M-0-----0M-0-------|


--------------------------------------------3h-5----|
----------------------------------------------------|
--------------------------5h-7.---------------------|
-----------------------------------3h-5h-7----------|
--0--------0--------0-------------------------------|
--0--------0--------0-------------------------------|


----------------------------------------------------|
----------------------------------------------------|
----------------------------------------------------|
----------------------------------------------------|
--0--------0--------0--------------0--------0-------|
--0--------0--------0-----0M-0M-0M-0-----0M-0-------|


----------------------------------------------------|
----------------------------------------------------|
----------------------------------------------------|
----------------------------------------------------|
--0--------0--------0--------------0--------0-------|
--0--------0--------0-----0M-0M-0M-0-----0M-0-------|


----------------------------|----------------------------|
----------------------------|----------------------------|
----------------------------|----------------------------|
--8--8--8--8--8--8--8--8----|--7--7--7--7--11-11-11.-----|
--8--8--8--8--8--8--8--8----|--7--7--7--7--7--7--7.------|
--8--8--8--8--8--8--8--8----|--7--7--7--7--7--7--7.------|

Chorus
----------------------------------------------------|
----------------------------------------------------|
----------------------------------------------------|
--0--------0--------0-----5--------5--------5-------|
--0--------0--------0-----5--------5--------5-------|
--0--------0--------0-----5--------5--------5-------|


----------------------------------------------------|
----------------------------------------------------|
----------------------------------------------------|
--8--------8--------8-----8-----5--5--5-------------|
--8--------8--------8-----8-----5--5--5-------------|
--8--------8--------8-----8-----5--5--5-------------|


----------------------------------------------------|
----------------------------------------------------|
----------------------------------------------------|
--0--------0--------0-----5--------5--------5-------|
--0--------0--------0-----5--------5--------5-------|
--0--------0--------0-----5--------5--------5s------|


----------------------------------------------------|
----------------------------------------------------|
----------------------------------------------------|
----------------------------------------------------|
----------------------------------------------------|
--8>-------8>-------8>----7>-7>-7>-7>----7>-7>------|


----------------------------------------------------|
----------------------------------------------------|
----------------------------------------------------|
--0--------0--------0-----3--------3--------3-------|
--0--------0--------0-----3--------3--------3-------|
--0--------0--------0-----3--------3--------3-------|


----------------------------------------------------|
----------------------------------------------------|
----------------------------------------------------|
--5--------5--------5-----7-----------7-------------|
--5--------5--------5-----7-----------7-------------|
--5--------5--------5-----7-----------7s------------|


----------------------------------------------------|
----------------------------------------------------|
----------------------------------------------------|
----------------------------------------------------|
----------------------------------------------------|
--8>----8>-8>----8>-8>----8>----8>-8>----8>-8>------|


----------------------------------------------------|
----------------------------------------------------|
----------------------------------------------------|
----------------------------------------------------|
----------------------------------------------------|
--7>-7>-7>-7>-7>-7>-7>-7>-7>-7>-7>-7>-7>-7>-7>-7>---|

Verse
----------------------------------------------------|
----------------------------------------------------|
----------------------------------------------------|
----------------------------------------------------|
----------------------------------------------------|
----------------------------------------------------|


----------------------------------------------------|
----------------------------------------------------|
----------------------------------------------------|
----------------------------------------------------|
--8--------5----------------------------------------|
--------0M-------0M-0-----0h-8h-7--0-----xM-0-------|


----------------------------------------------------|
----------------------------------------------------|
----------------------------------------------------|
----------------------------------------------------|
--4--------7-----------------------4--------4-------|
--------0M-------0M-0-----7-----0M-------0M---------|


----------------------------------------------------|
----------------------------------------------------|
----------------------------------------------------|
----------------------------------------------------|
--8-------------------------------------------------|
--------0M-0-----0M-0-----0h-8h-7--0-----xM-0-------|


----------------------------------------------------|
----------------------------------------------------|
----------------------------------------------------|
--------------------------5M-5M-5M-7M-7M-7M-7M-7M---|
--4M-4M-4M-7M-7M-7M-7M-7M---------------------------|
----------------------------------------------------|


----------------------------------------------------|
----------------------------------------------------|
----------------------------------------------------|
----------------------------------------------------|
--8--------5----------------------------------------|
--------0M-------0M-0-----0h-8h-7--0-----xM-0-------|


----------------------------------------------------|
----------------------------------------------------|
----------------------------------------------------|
----------------------------------------------------|
--4--------7-----------------------4--------4s------|
--------0M-------0M-0-----7-----0M-------0M---------|


----------------------------------------------------|
----------------------------------------------------|
----------------------------------------------------|
----------------------------------------------------|
--8-------------------------------------------------|
--------0M-0-----0M-0-----0h-8h-7--0-----xM-0-------|


----------------------------------------------------|
----------------------------------------------------|
----------------------------------------------------|
--------------------------5M-5M-5M-7M-7M-7M-7M-7M---|
--4M-4M-4M-7M-7M-7M-7M-7M---------------------------|
----------------------------------------------------|


----------------------------------------------------|
----------------------------------------------------|
--------------------------6M-6M-6--6--6--6--6--6----|
--5M-5M-5M-7M-7M-7M-7M-7M---------------------------|
----------------------------------------------------|
----------------------------------------------------|

Interlude
----------------------------------------------------|
--18----------18-------18-18-------18-18-------18---|
----------------------------------------------------|
----------------------------------------------------|
----------------------------------------------------|
----------------------------------------------------|


----------------------------------------------------|
--18-------18-18-------18-18----17----------17------|
----------------------------------------------------|
----------------------------------------------------|
----------------------------------------------------|
----------------------------------------------------|


----------------------------------------------------|
--18----------18-------18-18-------18-18-------18---|
----------------------------------------------------|
----------------------------------------------------|
----------------------------------------------------|
----------------------------------------------------|


----------------------------------------------------|
--18-------18-18-------18-18----17----------17------|
----------------------------------------------------|
----------------------------------------------------|
----------------------------------------------------|
----------------------------------------------------|


----------------------------------------------------|
--18----------18-------18-18-------18-18-------18---|
----------------------------------------------------|
----------------------------------------------------|
----------------------------------------------------|
----------------------------------------------------|


----------------------------------------------------|
--18-------18-18-------18-18----17----------17------|
----------------------------------------------------|
----------------------------------------------------|
----------------------------------------------------|
----------------------------------------------------|


----------------------------------------------------|
--18----------18-------18-18-------18-18-------18---|
----------------------------------------------------|
----------------------------------------------------|
----------------------------------------------------|
----------------------------------------------------|


----------------------------------------------------|
--18-------18-18-------18-18----17----------17------|
----------------------------------------------------|
----------------------------------------------------|
----------------------------------------------------|
----------------------------------------------------|


----------------------------------------------------|
--18----------18-------18-18-------18-18-------18---|
----------------------------------------------------|
----------------------------------------------------|
----------------------------------------------------|
----------------------------------------------------|


----------------------------------------------------|
--18-------18-18-------18-18----17----------17------|
----------------------------------------------------|
----------------------------------------------------|
----------------------------------------------------|
----------------------------------------------------|


----------------------------------------------------|
--18----------18-------18-18-------18-18-------18---|
----------------------------------------------------|
----------------------------------------------------|
----------------------------------------------------|
----------------------------------------------------|


----------------------------------------------------|
--18-------18-18-------18-18----17----------17------|
----------------------------------------------------|
----------------------------------------------------|
----------------------------------------------------|
----------------------------------------------------|


----------------------------------------------------|
--18----------18-------18-18-------18-18-------18---|
----------------------------------------------------|
----------------------------------------------------|
----------------------------------------------------|
----------------------------------------------------|


----------------------------------------------------|
--18-------18-18-------18-18----17----------17------|
----------------------------------------------------|
----------------------------------------------------|
----------------------------------------------------|
----------------------------------------------------|


----------------------------------------------------|-------|
--18----------18-------18-18-------18-18-------18---|--18---|
----------------------------------------------------|-------|
----------------------------------------------------|-------|
----------------------------------------------------|-------|
----------------------------------------------------|-------|

Pre-Chorus
----------------------------------------------------|
----------------------------------------------------|
----------------------------------------------------|
----------------------------------------------------|
--0M----0M-0M-0M----0M----0M-0M-0M-0M----0M-0M-0M---|
--0M----0M-0M-0M----0M----0M-0M-0M-0M----0M-0M-0M---|


----------------------------------------------------------------------------|
----------------------------------------------------------------------------|
----------------------------------------------------------------------------|
----------------------------------------------------------------------------|
--0M-------0M-0M-0M-0M-------0M-------0M----0M----0M----0M------------------|
--0M-------0M-0M-0M-0M-------0M-------0M----0M----0M----0M------------------|


----------------------------------------------------|
----------------------------------------------------|
----------------------------------------------------|
----------------------------------------------------|
--0M----0M-0M-0M----0M----0M-0M-0M-0M----0M-0M-0M---|
--0M----0M-0M-0M----0M----0M-0M-0M-0M----0M-0M-0M---|


----------------------------------------------------------------------------|
----------------------------------------------------------------------------|
----------------------------------------------------------------------------|
----------------------------------------------------------------------------|
--0M-------0M-0M-0M-0M-------0M-------xM-xM-xM-xM---------------------------|
--0M-------0M-0M-0M-0M-------0M-------xM-xM-xM-xM---------------------------|


----------------------------------------------------|
----------------------------------------------------|
----------------------------------------------------|
----------------------------------------------------|
--0-----------0-----0-------------------------------|
--0-----0M-0M-0-----0-----0M-0M-0M-0>----0M-0M-0M---|


----------------------------------------------------------------------------|
----------------------------------------------------------------------------|
----------------------------------------------------------------------------|
----------------------------------------------------------------------------|
--0-----------------0--------0--------0-----0-----0-----0.------------------|
--0--------0M-0M-0M-0--------0--------0-----0-----0-----0.------------------|


----------------------------|----------------------------|
----------------------------|----------------------------|
----------------------------|----------------------------|
--8--8--8--8--8--8--8--8----|--7--7--7--7--11------------|
--8--8--8--8--8--8--8--8----|--7--7--7--7--7-------------|
--8--8--8--8--8--8--8--8----|--7--7--7--7--7-------------|

Chorus
----------------------------------------------------|
----------------------------------------------------|
----------------------------------------------------|
--0--------0--------0-----5--------5--------5-------|
--0--------0--------0-----5--------5--------5-------|
--0--------0--------0-----5--------5--------5-------|


----------------------------------------------------|
----------------------------------------------------|
----------------------------------------------------|
--8--------8--------8-----8-----5--5--5-------------|
--8--------8--------8-----8-----5--5--5-------------|
--8--------8--------8-----8-----5--5--5-------------|


----------------------------------------------------|
----------------------------------------------------|
----------------------------------------------------|
--0--------0--------0-----5--------5--------5-------|
--0--------0--------0-----5--------5--------5-------|
--0--------0--------0-----5--------5--------5s------|


----------------------------------------------------|
----------------------------------------------------|
----------------------------------------------------|
----------------------------------------------------|
----------------------------------------------------|
--8>-------8>-------8>----7>-7>-7>-7>----7>-7>------|


----------------------------------------------------|
----------------------------------------------------|
----------------------------------------------------|
--0--------0--------0-----3--------3--------3-------|
--0--------0--------0-----3--------3--------3-------|
--0--------0--------0-----3--------3--------3-------|


----------------------------------------------------|
----------------------------------------------------|
----------------------------------------------------|
--5--------5--------5-----7-----------7-------------|
--5--------5--------5-----7-----------7-------------|
--5--------5--------5-----7-----------7s------------|


----------------------------------------------------|
----------------------------------------------------|
----------------------------------------------------|
----------------------------------------------------|
----------------------------------------------------|
--8>----8>-8>----8>-8>----8>----8>-8>----8>-8>------|


----------------------------------------------------|
----------------------------------------------------|
----------------------------------------------------|
----------------------------------------------------|
----------------------------------------------------|
--7>-7>-7>-7>-7>-7>-7>-7>-7>-7>-7>-7>-7>-7>-7>-7>---|


----------------------------------------------------|
----------------------------------------------------|
----------------------------------------------------|
--0--------0--------0-----------3-----------3-------|
--0--------0--------0-----------3-----------3-------|
--0-----0M-0--------0-----------3-----3M-3M-3-------|


----------------------------------------------------|
----------------------------------------------------|
----------------------------------------------------|
--8--------8--------8-----------8-----------5-------|
--8--------8--------8-----------8-----------5-------|
--8-----8M-8--------8-----------8-----5M-5M-5-------|


----------------------------------------------------|
----------------------------------------------------|
----------------------------------------------------|
--0--------0--------0-----------3-----------3-------|
--0--------0--------0-----------3-----------3-------|
--0-----0M-0--------0-----------3-----3M-3M-3-------|


--------------------------0g----0g----0g----0g------|
--------------------------6g----6g----6g----6g------|
----------------------------------------------------|
--8--------8--------8-------------------------------|
--8--------8--------8-------------------------------|
--8-----8M-8--------8-------------------------------|


----------------------------------------------------|
----------------------------------------------------|
----------------------------------------------------|
--0--------0--------0-----3-----------3-----3-------|
--0--------0--------0-----3-----------3-----3-------|
--0-----0M-0--------0-----3-----3M-3M-3-----3-------|


----------------------------------------------------|
----------------------------------------------------|
----------------------------------------------------|
--5--------5--------5-----7-----------7-----7-------|
--5--------5--------5-----7-----------7-----7-------|
--5-----5M-5--------5-----7-----7M-7M-7-----7-------|


----------------------------|----------------------------|
----------------------------|----------------------------|
----------------------------|----------------------------|
--8--8--8--8--8--8--8--8----|--7--7--7--7--7--7--7--7----|
--8--8--8--8--8--8--8--8----|--7--7--7--7--7--7--7--7----|
--8--8--8--8--8--8--8--8----|--7--7--7--7--7--7--7--7----|

Bridge
----------------------------|----------------------------|
-----------------10M---10M--|--13M---11M---13M---11M10M--|
-----------9M-10M---10M-----|-----10M---10M---10M--------|
----------------------------|----------------------------|
-----7M-8M------------------|----------------------------|
--0g------------------------|----------------------------|


----------------------------|----------------------------|
-----------------10M---10M--|--13M---11M---13M---11M10M--|
-----------9M-10M---10M-----|-----10M---10M---10M--------|
----------------------------|----------------------------|
-----7M-8M------------------|----------------------------|
--0g------------------------|----------------------------|


----------------------------|----------------------------|
-----------------10M---10M--|--13M---11M---13M---11M10M--|
-----------9M-10M---10M-----|-----10M---10M---10M--------|
----------------------------|----------------------------|
-----7M-8M------------------|----------------------------|
--0g------------------------|----------------------------|


----------------------------|
-----------------5M---------|
--------------5M----5M------|
-----------------------5M---|
--------5M-8M---------------|
--0g-8M---------------------|


--------------------------------------5-----------------------5s-12--------------|
--6-----------------------6-----------------------6--------------------------13~-|
--------------7M-----------------------------------------------------------------|
---------------------------------------------------------------------------------|
---------------------------------------------------------------------------------|
---------------------------------------------------------------------------------|


-----------------------|----------------------------|
-----------------------|-----------------10M---10M--|
-----------------------|-----------9M-10M---10M-----|
-----------------------|----------------------------|
-----------------------|-----7M-8M------------------|
-----------------------|--0g------------------------|


----------------------------|----------------------------|
--13M---11M---13M---11M10M--|-----------------10M---10M--|
-----10M---10M---10M--------|-----------9M-10M---10M-----|
----------------------------|----------------------------|
----------------------------|-----7M-8M------------------|
----------------------------|--0g------------------------|


----------------------------|----------------------------|
--13M---11M---13M---11M10M--|-----------------10M---10M--|
-----10M---10M---10M--------|-----------9M-10M---10M-----|
----------------------------|----------------------------|
----------------------------|-----7M-8M------------------|
----------------------------|--0g------------------------|


----------------------------|----------------------------|
--13M---11M---13M---11M10M--|-----------------5M---------|
-----10M---10M---10M--------|--------------5M----5M------|
----------------------------|-----------------------5M---|
----------------------------|--------5M-8M---------------|
----------------------------|--0g-8M---------------------|


--------------------------------------5-----------------------5s-12--------------|
--6-----------------------6-----------------------6--------------------------13~-|
--------------7M-----------------------------------------------------------------|
---------------------------------------------------------------------------------|
---------------------------------------------------------------------------------|
---------------------------------------------------------------------------------|

                       Break-Down
-----------------------|----------------------------------------------------|
-----------------------|----------------------------------------------------|
-----------------------|----------------------------------------------------|
-----------------------|----------------------------------------------------|
-----------------------|--0M-0M-0M-0M-0M----------0M-0M-0M----0M-0M----0M---|
-----------------------|--0M-0M-0M-0M-0M----------0M-0M-0M----0M-0M----0M---|


----------------------------------------------------|
----------------------------------------------------|
----------------------------------------------------|
----------------------------------------------------|
--0M----0M-0M-0M------------------------------------|
--0M----0M-0M-0M------------------------------------|


----------------------------------------------------|
----------------------------------------------------|
----------------------------------------------------|
----------------------------------------------------|
--0M-0M-0M-0M-0M----------0M-0M-0M----0M-0M----0M---|
--0M-0M-0M-0M-0M----------0M-0M-0M----0M-0M----0M---|


----------------------------------------------------|
----------------------------------------------------|
----------------------------------------------------|
----------------------------------------------------|
--0M----0M-0M-0M------------------------------------|
--0M----0M-0M-0M------------------------------------|

Pre-Chorus
----------------------------------------------------|
----------------------------------------------------|
----------------------------------------------------|
----------------------------------------------------|
--0M-0M-0M-0M-0M----------0M-0M-0M-------------0M---|
--0M-0M-0M-0M-0M----------0M-0M-0M----0--0-----0M---|


----------------------------------------------------|
----------------------------------------------------|
----------------------------------------------------|
----------------------------------------------------|
--0M------------------------------------------------|
--0M----0--0--0-------------------------------------|


--8--8--8--8--8--8--8--8----|
--6--6--6--6--6--6--6--6----|
--7--7--7--7--7--7--7--7----|
----------------------------|
----------------------------|
----------------------------|


-----------------------------------------------------9h----10h---9---------------|
--8--------------------------10h---11h---10----------------------------11----10--|h
--6-----------6s-9h----10----------------------12--------------------------------|
---------------------------------------------------------------------------------|
---------------------------------------------------------------------------------|
---------------------------------------------------------------------------------|

                        Chorus
-----------------------|----------------------------------------------------|
---11h---10------------|----------------------------------------------------|
---------------12------|----------------------------------------------------|
-----------------------|--0--------0--------0-----5--------5--------5-------|
-----------------------|--0--------0--------0-----5--------5--------5-------|
-----------------------|--0--------0--------0-----5--------5--------5-------|


----------------------------------------------------|
----------------------------------------------------|
----------------------------------------------------|
--8--------8--------8-----8-----5--5--5-------------|
--8--------8--------8-----8-----5--5--5-------------|
--8--------8--------8-----8-----5--5--5-------------|


----------------------------------------------------|
----------------------------------------------------|
----------------------------------------------------|
--0--------0--------0-----5--------5--------5-------|
--0--------0--------0-----5--------5--------5-------|
--0--------0--------0-----5--------5--------5s------|


----------------------------------------------------|
----------------------------------------------------|
----------------------------------------------------|
----------------------------------------------------|
----------------------------------------------------|
--8>-------8>-------8>----7>-7>-7>-7>----7>-7>------|


----------------------------------------------------|
----------------------------------------------------|
----------------------------------------------------|
--0--------0--------0-----3--------3--------3-------|
--0--------0--------0-----3--------3--------3-------|
--0--------0--------0-----3--------3--------3-------|


----------------------------------------------------|
----------------------------------------------------|
----------------------------------------------------|
--5--------5--------5-----7-----------7-------------|
--5--------5--------5-----7-----------7-------------|
--5--------5--------5-----7-----------7s------------|


----------------------------------------------------|
----------------------------------------------------|
----------------------------------------------------|
----------------------------------------------------|
----------------------------------------------------|
--8>----8>-8>----8>-8>----8>----8>-8>----8>-8>------|


----------------------------------------------------|
----------------------------------------------------|
----------------------------------------------------|
----------------------------------------------------|
----------------------------------------------------|
--7>-7>-7>-7>-7>-7>-7>-7>-7>-7>-7>-7>-7>-7>-7>-7>---|


----------------------------------------------------|
----------------------------------------------------|
----------------------------------------------------|
--0--------0--------0-----------3-----------3-------|
--0--------0--------0-----------3-----------3-------|
--0-----0M-0--------0-----------3-----3M-3M-3-------|


----------------------------------------------------|
----------------------------------------------------|
----------------------------------------------------|
--8--------8--------8-----------8-----------5-------|
--8--------8--------8-----------8-----------5-------|
--8-----8M-8--------8-----------8-----5M-5M-5-------|


----------------------------------------------------|
----------------------------------------------------|
----------------------------------------------------|
--0--------0--------0-----------3-----------3-------|
--0--------0--------0-----------3-----------3-------|
--0-----0M-0--------0-----------3-----3M-3M-3-------|


----------------------------------------------------|
----------------------------------------------------|
----------------------------------------------------|
--8--------8--------8-------------------------------|
--8--------8--------8-----7-----7-----7-----7-------|
--8-----8M-8--------8-----7-----7-----7-----7-------|


----------------------------------------------------|
----------------------------------------------------|
----------------------------------------------------|
--0--------0--------0-----3--------3--------3-------|
--0--------0--------0-----3--------3--------3-------|
--0-----0M-0--------0-----3-----3M-3--------3-------|


----------------------------------------------------|
----------------------------------------------------|
----------------------------------------------------|
--5--------5--------5-----7--------7--------7-------|
--5--------5--------5-----7--------7--------7-------|
--5-----5M-5--------5-----7-----7M-7--------7-------|


----------------------------|
----------------------------|
----------------------------|
--8--8--8--8--8--8--8--8----|
--8--8--8--8--8--8--8--8----|
--8--8--8--8--8--8--8--8----|

Outro/Ending
----------------------------------------------------|
----------------------------------------------------|
----------------------------------------------------|
--7-----7-----7-----7-------------------------------|
--7-----7-----7-----7-----0M-0M-0M-0.----0----------|
--7-----7-----7-----7-----0M-0M-0M-0.----0----------|
comments
We did not receive enough feedback on this tab! Please rate:
print report bad tab
1 2 3 4 5
1 comment total.
0 reply
brandon_81 wrote on July 28 2014, 05:51 pm

Whats with everyone using M for palm mutes... Use * please...

I want to post or [tab]
guest
You may want to rate the tab now too:
select rating
Please do not post tabs as comments. Select "correction" instead!