Oops, an error
Loading. Please wait.

The Sinner Tab

ver3
ver3

Whole song

More versions @911Tabs.com
16,353 views 88 this week
7 commentsread comments
1 2 3 4 5
excellent!
x 9
Autoscroll
+/-
esc
set tempo
stop
Contributor
Difficulty
Tuning
intermediate
C# G# C# F# A# D#
WARNING: You are trying to view
                                    content from Ultimate-Guitar.com
                                    in an unauthorized application,
                                    which is prohibited.

                                    Please use an official Ultimate
                                    Guitar Tabs application for iPhone,
                                    iPad or Android to access legitimate
                                    chords, guitar, bass, and drum tabs
                                    from Ultimate-Guitar.com database.

                                    Type "ultimate guitar tabs" in Apple
                                    App Store's or Android Market's
                                    search to find the application.
--------------------------------------------------------------------------------------------------
                                   THE SINNER - Memphis May Fire
--------------------------------------------------------------------------------------------------

Tabbed by: AsILayDying504
E-mail: mattack_mattack@aol.com

Tuning: Drop C# (C# G# C# F# A# D#) - Half step up from Drop C / Half step down from Drop D
                (Db Ab Db Gb Bb Eb)
                 


[0:14-0:28]

D#|------------------------------------------------|---------------------------------------------|
A#|------------------------------------------------|---------------------------------------------|
F#|------------------------------------------------|---------------------------------------------|
C#|------------------------------------------------|-----------------------------------55557777--|
G#|--8---5--------------------4---7---------4---4--|--8---5--------------------44447777----------|
C#|----0---0-0--8p5p0-0--0-0----0---0-3-5-0---0----|----0---0-0--8p5p0-0--0-0--------------------|
       .   .             .      .   .     .   .         .   .             .

D#|------------------------------------------------|---------------------------------------------|
A#|------------------------------------------------|---------------------------------------------|
F#|------------------------------------------------|---------------------------------------------|
C#|------------------------------------------------|-----------------------------------55557777--|
G#|--8---5--------------------4---7---------4---4--|--8---5--------------------44447777----------|
C#|----0---0-0--8p5p0-0--0-0----0---0-3-5-0---0----|----0---0-0--8p5p0-0--0-0--------------------|
       .   .             .      .   .     .   .         .   .             .



[0:29-0:38]

  | Guitar 1
D#|------------------------------------------------|---------------------------------------------|
A#|------------------------------------------------|---------------------------------------------|
F#|------------------------------------------------|---------------------------------------------|
C#|------------------------------------------------|-----------------------------------55557777--|
G#|--8---5--------------------4---7---------4---4--|--8---5--------------------44447777----------|
C#|----0---0-0--8p5p0-0--0-0----0---0-3-5-0---0----|----0---0-0--8p5p0-0--0-0--------------------|
  |    .   .             .      .   .     .   .         .   .             .
  |
  | Guitar 2
D#|-------------------------------------------------|---------------------------------------------|
A#|-------------------------------------------------|---------------------------------------------|
F#|-------------------------------------------------|---------------------------------------------|
C#|-------------------------------------------------|------------------------------------55557777-|
G#|--12---8--------------------4---7---------4---4--|--12---8--------------------44447777---------|
C#|-----0---0-0--8p5p0-0--0-0----0---0-3-5-0---0----|-----0---0-0--8p5p0-0--0-0-------------------|
        .   .             .      .   .     .   .          .   .             .

  | Guitar 1
D#|----------99999--|
A#|----------xxxxx--|
F#|----------66666--|
C#|--55557777-------|
G#|-----------------|
C#|-----------------|
  |
  | Guitar 2
D#|------------------99999--|
A#|--8p6p5-----------xxxxx--|
F#|--------7p6-------66666--|
C#|------------7p5h7--------|
G#|-------------------------|
C#|-------------------------|



[0:38-0:53]

D#|-----------------------------------------------|
A#|------------------------------------------10---|
F#|------------------------------------------13b--|
C#|--0--0--0--000--0-0-0---0--0--0--000--0-0------|
G#|--0--0--0--000--0-0-0---0--0--0--000--0-0------|
C#|--0--0--0--000--0-0-0---0--0--0--000--0-0------|
              ...    .              ...    .

D#|---------------------------------------------------|
A#|---------------------------------5h6p5-------8h10--|
F#|---------------------------------------7p6---------|
C#|--0--0--0--000--0-0-0---0--0--0------------7-------|
G#|--0--0--0--000--0-0-0---0--0--0--------------------|
C#|--0--0--0--000--0-0-0---0--0--0--------------------|
              ...    .

D#|---------------------------------------------|
A#|---------------------------------------------|
F#|---------------------------------------------|
C#|--0--0--0--000--0-0-0---0--0--0--000--0-0-0--|
G#|--0--0--0--000--0-0-0---0--0--0--000--0-0-0--|
C#|--0--0--0--000--0-0-0---0--0--0--000--0-0-0--|
              ...    .              ...    .

  | Guitar 1
D#|---------------------------------|
A#|---------------------------------|
F#|---------------------------------|
C#|--8-8-8-8-8-8-8-8-7-7-7-7-7-7-7--|
G#|--8-8-8-8-8-8-8-8-7-7-7-7-7-7-7--|
C#|--8-8-8-8-8-8-8-8-7-7-7-7-7-7-7--|
  |
  | Guitar 2
D#|--8-8-8-8-8-8-8-8----------------|
A#|--6-6-6-6-6-6-6-6-8-8-8-8-8-8-8--|
F#|--7-7-7-7-7-7-7-7-6-6-6-6-6-6-6--|
C#|------------------7-7-7-7-7-7-7--|
G#|---------------------------------|
C#|---------------------------------|



[0:53-1:08]

D#|------------------------------------|------------------------------------|
A#|------------------------------------|------------------------------------|
F#|------------------------------------|------------------------------------|
C#|--0-0-0---3-3-3---8-8-8---8-555555--|--0-0-0---3-3-3---8-8-8---77777777--|
G#|--0-0-0---3-3-3---8-8-8---8-555555--|--0-0-0---3-3-3---8-8-8---77777777--|
C#|--0-0-0---3-3-3---8-8-8---8-555555--|--0-0-0---3-3-3---8-8-8---77777777--|

                                       | Guitar 1
D#|------------------------------------|----------------------------------------|
A#|------------------------------------|----------------------------------------|
F#|------------------------------------|----------------------------------------|
C#|--0-0-0---3-3-3---5-5-5---77777777--|--8-88-88---8-88-88---7777777777777777--|
G#|--0-0-0---3-3-3---5-5-5---77777777--|--8-88-88---8-88-88---7777777777777777--|
C#|--0-0-0---3-3-3---5-5-5---77777777--|--8-88-88---8-88-88---7777777777777777--|
                                       |
                                       | Guitar 2
                                       |--8-88-88---8-88-88---------------------|
                                       |--6-66-66---6-66-66---8888888888888888--|
                                       |--7-77-77---7-77-77---6666666666666666--|
                                       |----------------------7777777777777777--|
                                       |----------------------------------------|
                                       |----------------------------------------|



[1:10-1:27]

D#|------------------------------------------------|---------------------------------------------|
A#|------------------------------------------------|---------------------------------------------|
F#|------------------------------------------------|---------------------------------------------|
C#|------------------------------------------------|-----------------------------------55557777--|
G#|--8---5--------------------4---7---------4---4--|--8---5--------------------44447777----------|
C#|----0---0-0--8p5p0-0--0-0----0---0-3-5-0---0----|----0---0-0--8p5p0-0--0-0--------------------|
       .   .             .      .   .     .   .         .   .             .

D#|------------------------------------------------|---------------------------------------------|
A#|------------------------------------------------|---------------------------------------------|
F#|------------------------------------------------|---------------------------------------------|
C#|------------------------------------------------|-----------------------------------55557777--|
G#|--8---5--------------------4---7---------4---4--|--8---5--------------------44447777----------|
C#|----0---0-0--8p5p0-0--0-0----0---0-3-5-0---0----|----0---0-0--8p5p0-0--0-0--------------------|
       .   .             .      .   .     .   .         .   .             .

D#|----------9999999--|
A#|----------xxxxxxx--|
F#|----------6666666--|
C#|--55557777---------|
G#|-------------------|
C#|-------------------|



[1:27-1:55]

D#|---------------------------------------------------|
A#|---------------------------------------------------|
F#|--10h12-10h12-10h12-10h12-10h12-10h12-10h12p10-----|
C#|-----------------------------------------------12--|
G#|---------------------------------------------------|
C#|---------------------------------------------------|

D#|---------------------------------------------------------|
A#|-----------------------------------------11p10-----------|
F#|--10h12-10h12-10h12-10h12-10h12-10h12-10-------12p10-----|
C#|-----------------------------------------------------12--|  
G#|---------------------------------------------------------|
C#|---------------------------------------------------------|

D#|---------------------------------------------------|
A#|---------------------------------------------------|
F#|--10h12-10h12-10h12-10h12-10h12-10h12-10h12p10-----|
C#|-----------------------------------------------12--|
G#|---------------------------------------------------|
C#|---------------------------------------------------|

D#|-----------------------------------------------------------------------------|
A#|-----------------------------11p10-------------------------------------------|
F#|--10h12-10h12-10h12-10h12-10-------12p10-------------12p10-------------------|
C#|-----------------------------------------12p10-------------12p10-------------|
G#|-----------------------------------------------12p10-------------12p10-------|
C#|----------------------------------------------------------------------12p10--|

D#|---------------------------------------------------|
A#|---------------------------------------------------|
F#|--10h12-10h12-10h12-10h12-10h12-10h12-10h12p10-----|
C#|-----------------------------------------------12--|
G#|---------------------------------------------------|
C#|---------------------------------------------------|

D#|---------------------------------------------------------|
A#|-----------------------------------------11p10-----------|
F#|--10h12-10h12-10h12-10h12-10h12-10h12-10-------12p10-----|
C#|-----------------------------------------------------12--|  
G#|---------------------------------------------------------|
C#|---------------------------------------------------------|

D#|---------------------------------------------------|
A#|---------------------------------------------------|
F#|--10h12-10h12-10h12-10h12-10h12-10h12-10h12p10-----|
C#|-----------------------------------------------12--|
G#|---------------------------------------------------|
C#|---------------------------------------------------|

D#|------------------------------------|
A#|------------------------------------|
F#|--10h12-10h12-10h12-10h12-10h12brb--|
C#|------------------------------------|
G#|------------------------------------|
C#|------------------------------------|



[1:57-2:11]

D#|-------------------------------------|-------------------------------------|
A#|-------------------------------------|-------------------------------------|
F#|-------------------------------------|-------------------------------------|
C#|--0-000-0-0000-0000-0000-0--0-0-0-0--|--0-000-0-0000-0000-0000-0--0-0-0-0--|
G#|--0-000-0-0000-0000-0000-0--0-0-0-0--|--0-000-0-0000-0000-0000-0--0-0-0-0--|
C#|--0-000-0-0000-0000-0000-0--0-0-0-0--|--0-000-0-0000-0000-0000-0--0-0-0-0--|
     . ... . .... .... .... .  . . . .     . ... . .... .... .... .  . . . .

D#|-------------------------------------|
A#|-------------------------------------|
F#|-------------------------------------|
C#|-------------------------------------|
G#|--0-000-0-0000-0000-0000-0--0-0-0-0--|
C#|--0-000-0-0000-0000-0000-0--0-0-0-0--|
       ..    ...  ...  ...

  | Guitar 1
D#|------------------------------|
A#|------------------------------|
F#|------------------------------|
C#|--8-8-8--5-5-5--7-7-7--7-7-7--|
G#|--8-8-8--5-5-5--7-7-7--7-7-7--|
C#|--8-8-8--5-5-5--7-7-7--7-7-7--|
  |
  | Guitar 2
D#|--8-8-8--8-8-8----------------|
A#|--6-6-6--6-6-6--8-8-8--8-8-8--|
F#|--7-7-7--7-7-7--6-6-6--6-6-6--|
C#|----------------7-7-7--7-7-7--|
G#|------------------------------|
C#|------------------------------|



[2:12-2:27]

D#|------------------------------------|------------------------------------|
A#|------------------------------------|------------------------------------|
F#|------------------------------------|------------------------------------|
C#|--0-0-0---3-3-3---8-8-8---8-555555--|--0-0-0---3-3-3---8-8-8---77777777--|
G#|--0-0-0---3-3-3---8-8-8---8-555555--|--0-0-0---3-3-3---8-8-8---77777777--|
C#|--0-0-0---3-3-3---8-8-8---8-555555--|--0-0-0---3-3-3---8-8-8---77777777--|

                                       | Guitar 1
D#|------------------------------------|----------------------------------------|
A#|------------------------------------|----------------------------------------|
F#|------------------------------------|----------------------------------------|
C#|--0-0-0---3-3-3---5-5-5---77777777--|--8-88-88---8-88-88---7777777777777777--|
G#|--0-0-0---3-3-3---5-5-5---77777777--|--8-88-88---8-88-88---7777777777777777--|
C#|--0-0-0---3-3-3---5-5-5---77777777--|--8-88-88---8-88-88---7777777777777777--|
                                       |
                                       | Guitar 2
                                       |--8-88-88---8-88-88---------------------|
                                       |--6-66-66---6-66-66---8888888888888888--|
                                       |--7-77-77---7-77-77---6666666666666666--|
                                       |----------------------7777777777777777--|
                                       |----------------------------------------|
                                       |----------------------------------------|



[2:27-2:42]

  | Guitar 1
D#|-----------------------------------|
A#|-----------------------------------|
F#|-----------------------------------|
C#|--0-00-0---3-333---8-88-8---8-555--|
G#|--0-00-0---3-333---8-88-8---8-555--|
C#|--0-00-0---3-333---8-88-8---8-555--|
  |    .        ..      .        ..
  |
  | Guitar 2
D#|--t12-p5-t12-t13-p5-h8-t10-p8--|--t15-p8-t15-t17-p8------------|
A#|-------------------------------|--------------------t8-h10-p8--|
F#|-------------------------------|-------------------------------|
C#|-------------------------------|-------------------------------|
G#|-------------------------------|-------------------------------|
C#|-------------------------------|-------------------------------|


  | Guitar 1
D#|--------------------------------------|
A#|--------------------------------------|
F#|--------------------------------------|
C#|--0-00-0---3-333---8-88-8---77777777--|
G#|--0-00-0---3-333---8-88-8---77777777--|
C#|--0-00-0---3-333---8-88-8---77777777--|
  |    .        ..      .      ........
  |
  | Guitar 2
D#|--t12-p5-t12-t13-p5-h8-t10-p8--|--t15-p8-t15-t17-p8------------|
A#|-------------------------------|--------------------t8-h10-p8--|
F#|-------------------------------|-------------------------------|
C#|-------------------------------|-------------------------------|
G#|-------------------------------|-------------------------------|
C#|-------------------------------|-------------------------------|


  | Guitar 1
D#|---------------------------------------|
A#|---------------------------------------|
F#|---------------------------------------|
C#|--0-00-0---3-33-3---5-55-5---77777777--|
G#|--0-00-0---3-33-3---5-55-5---77777777--|
C#|--0-00-0---3-33-3---5-55-5---77777777--|
  |    .        .        .      ........
  |
  | Guitar 2
D#|--t12-p5-t12-t13-p5-h8-t10-p8--|--t15-p8-t15-t17-p8------------|
A#|-------------------------------|--------------------t8-h10-p8--|
F#|-------------------------------|-------------------------------|
C#|-------------------------------|-------------------------------|
G#|-------------------------------|-------------------------------|
C#|-------------------------------|-------------------------------|


  | Guitar 1
D#|--------------------------------------|
A#|--------------------8888888888888888--|
F#|--------------------6666666666666666--|
C#|--8-88-8---5-55-5---7777777777777777--|
G#|--8-88-8---5-55-5---------------------|
C#|--8-88-8---5-55-5---------------------|
  |    .        .
  |
  | Guitar 2
D#|-------------------------------|--t13-p5-t13-t12-p5-t9-p5-t9-t10~--|
A#|--t11-p6-t11-t10-p6-h8-t10-p6--|-----------------------------------|
F#|-------------------------------|-----------------------------------|
C#|-------------------------------|-----------------------------------|
G#|-------------------------------|-----------------------------------|
C#|-------------------------------|-----------------------------------|



[2:42-3:10]

  | Guitar 1
D#|------------------5-------5--------|------------------5-------5--------|
A#|------------6---------8-------8----|------------6---------8-------8----|
F#|--------5-7---7-5---5-5-5---5-5-5--|--------5-7---7-5---5-5-5---5-5-5--|
C#|-----------------------------------|-----------------------------------|
G#|--5-3-5----------------------------|--5-3-5----------------------------|
C#|-----------------------------------|-----------------------------------|
  |  . . . . . . . .   .   .   .   .
  |
  | Guitar 2
D#|------------5-----8---6---8---6----|------------5-----8---6---8---6----|
A#|--------6-8---8-6---6-8-6---6-8-6--|--------6-8---8-6---6-8-6---6-8-6--|
F#|------2----------------------------|------2----------------------------|
C#|--3-5------------------------------|--3-5------------------------------|
G#|-----------------------------------|-----------------------------------|
C#|-----------------------------------|-----------------------------------|
     . . . . . . . .   .   .   .   .     . . . . . . . .   .   .   .   .

  | Guitar 1
D#|------------------5-------5--------|-------------------------------------|
A#|------------6---------8-------8----|------------------------6---6/13-----|
F#|--------5-7---7-5---5-5-5---5-5-5--|------------5-----7-------7------14--|
C#|-----------------------------------|--7-5-7-5-7---7-5---7-5--------------|
G#|--5-3-5----------------------------|-------------------------------------|
C#|-----------------------------------|-------------------------------------|
  |  . . . . . . . .   .   .   .   .     . . . . . . . .   . .
  |
  | Guitar 2
D#|------------5-----8---6---8---6----|------------------------5---5/12-----|
A#|--------6-8---8-6---6-8-6---6-8-6--|------------6-----8-------4------13--|
F#|------2----------------------------|--7-5-7-5-7---7-5---7-5--------------|
C#|--3-5------------------------------|-------------------------------------|
G#|-----------------------------------|-------------------------------------|
C#|-----------------------------------|-------------------------------------|
     . . . . . . . .   .   .   .   .     . . . . . . . .   . .

  | Guitar 1
D#|------------------5-------5--------|------------------5-------5--------|
A#|------------6---------8-------8----|------------6---------8-------8----|
F#|--------5-7---7-5---5-5-5---5-5-5--|--------5-7---7-5---5-5-5---5-5-5--|
C#|-----------------------------------|-----------------------------------|
G#|--5-3-5----------------------------|--5-3-5----------------------------|
C#|-----------------------------------|-----------------------------------|
  |  . . . . . . . .   .   .   .   .
  |
  | Guitar 2
D#|------------5-----8---6---8---6----|------------5-----8---6---8---6----|
A#|--------6-8---8-6---6-8-6---6-8-6--|--------6-8---8-6---6-8-6---6-8-6--|
F#|------2----------------------------|------2----------------------------|
C#|--3-5------------------------------|--3-5------------------------------|
G#|-----------------------------------|-----------------------------------|
C#|-----------------------------------|-----------------------------------|
     . . . . . . . .   .   .   .   .     . . . . . . . .   .   .   .   .

  | Guitar 1
D#|------------------5-------5--------|-------------------------------------|
A#|------------6---------8-------8----|------------------------6---6/13-----|
F#|--------5-7---7-5---5-5-5---5-5-5--|------------5-----7-------7------14--|
C#|-----------------------------------|--7-5-7-5-7---7-5---7-5--------------|
G#|--5-3-5----------------------------|-------------------------------------|
C#|-----------------------------------|-------------------------------------|
  |  . . . . . . . .   .   .   .   .     . . . . . . . .   . .
  |
  | Guitar 2
D#|------------5-----8---6---8---6----|------------------------5---5/12-----|
A#|--------6-8---8-6---6-8-6---6-8-6--|------------6-----8-------4------13--|
F#|------2----------------------------|--7-5-7-5-7---7-5---7-5--------------|
C#|--3-5------------------------------|-------------------------------------|
G#|-----------------------------------|-------------------------------------|
C#|-----------------------------------|-------------------------------------|
     . . . . . . . .   .   .   .   .     . . . . . . . .   . .



[3:10-3:24]

D#|-----------------------|-----------------------|-----------------------|
A#|-----------------------|-----------------------|-----------------------|
F#|-----------------------|-----------------------|-----------------------|
C#|--00000-000-00-00-000--|--00000-000-00-00-000--|--00000-000------------|
G#|--00000-000-00-00-000--|--00000-000-00-00-000--|--00000-000------------|
C#|--00000-000-00-00-000--|--00000-000-00-00-000--|--00000-000-00-00-000--|
     ..... ... .. .. ...     ..... ... .. .. ...     ..... ...

D#|--8-8-8-8-8-8-8-8------------------------9h10p9----------------------|
A#|--6-6-6-6-6-6-6-6------------10h11p10-----------11p10h11p10----------|
F#|--7-7-7-7-7-7-7-7-------9h10----------12--------------------12-------| 
C#|-------------------7h11----------------------------------------------|
G#|---------------------------------------------------------------------|
C#|---------------------------------------------------------------------|



[3:25-3:40]

D#|------------------------------------|------------------------------------|
A#|------------------------------------|------------------------------------|
F#|------------------------------------|------------------------------------|
C#|--0-0-0---3-3-3---8-8-8---8-555555--|--0-0-0---3-3-3---8-8-8---77777777--|
G#|--0-0-0---3-3-3---8-8-8---8-555555--|--0-0-0---3-3-3---8-8-8---77777777--|
C#|--0-0-0---3-3-3---8-8-8---8-555555--|--0-0-0---3-3-3---8-8-8---77777777--|

                                       | Guitar 1
D#|------------------------------------|----------------------------------------|
A#|------------------------------------|----------------------------------------|
F#|------------------------------------|----------------------------------------|
C#|--0-0-0---3-3-3---5-5-5---77777777--|--8-88-88---8-88-88---7777777777777777--|
G#|--0-0-0---3-3-3---5-5-5---77777777--|--8-88-88---8-88-88---7777777777777777--|
C#|--0-0-0---3-3-3---5-5-5---77777777--|--8-88-88---8-88-88---7777777777777777--|
                                       |
                                       | Guitar 2
                                       |--8-88-88---8-88-88---------------------|
                                       |--6-66-66---6-66-66---8888888888888888--|
                                       |--7-77-77---7-77-77---6666666666666666--|
                                       |----------------------7777777777777777--|
                                       |----------------------------------------|
                                       |----------------------------------------|



[3:40-4:02]

  | Guitar 1
D#|-----------------------------------|
A#|-----------------------------------|
F#|-----------------------------------|
C#|--0-00-0---3-333---8-88-8---8-555--|
G#|--0-00-0---3-333---8-88-8---8-555--|
C#|--0-00-0---3-333---8-88-8---8-555--|
  |    .        ..      .        ..
  |
  | Guitar 2
D#|--t12-p5-t12-t13-p5-h8-t10-p8--|--t15-p8-t15-t17-p8------------|
A#|-------------------------------|--------------------t8-h10-p8--|
F#|-------------------------------|-------------------------------|
C#|-------------------------------|-------------------------------|
G#|-------------------------------|-------------------------------|
C#|-------------------------------|-------------------------------|


  | Guitar 1
D#|--------------------------------------|
A#|--------------------------------------|
F#|--------------------------------------|
C#|--0-00-0---3-333---8-88-8---77777777--|
G#|--0-00-0---3-333---8-88-8---77777777--|
C#|--0-00-0---3-333---8-88-8---77777777--|
  |    .        ..      .      ........
  |
  | Guitar 2
D#|--t12-p5-t12-t13-p5-h8-t10-p8--|--t15-p8-t15-t17-p8------------|
A#|-------------------------------|--------------------t8-h10-p8--|
F#|-------------------------------|-------------------------------|
C#|-------------------------------|-------------------------------|
G#|-------------------------------|-------------------------------|
C#|-------------------------------|-------------------------------|


  | Guitar 1
D#|---------------------------------------|
A#|---------------------------------------|
F#|---------------------------------------|
C#|--0-00-0---3-33-3---5-55-5---77777777--|
G#|--0-00-0---3-33-3---5-55-5---77777777--|
C#|--0-00-0---3-33-3---5-55-5---77777777--|
  |    .        .        .      ........
  |
  | Guitar 2
D#|--t12-p5-t12-t13-p5-h8-t10-p8--|--t15-p8-t15-t17-p8------------|
A#|-------------------------------|--------------------t8-h10-p8--|
F#|-------------------------------|-------------------------------|
C#|-------------------------------|-------------------------------|
G#|-------------------------------|-------------------------------|
C#|-------------------------------|-------------------------------|


  | Guitar 1
D#|-------------------------------------|
A#|--------------------88888888---------|
F#|--------------------66666666---------|
C#|--8-88-8---5-55-5---77777777-0000-0--|
G#|--8-88-8---5-55-5------------0000-0--|
C#|--8-88-8---5-55-5------------0000-0--|
  |    .        .               .... .
  |
  | Guitar 2
D#|-------------------------------|--t13-p5-t13-t12-p5-t9-p5-t9-t10~--|
A#|--t11-p6-t11-t10-p6-h8-t10-p6--|-----------------------------------|
F#|-------------------------------|-----------------------------------|
C#|-------------------------------|-----------------------------------|
G#|-------------------------------|-----------------------------------|
C#|-------------------------------|-----------------------------------|



[END]



I have two notes to add before ending this tab:

                                        *** [Note #1] ***

When Memphis May Fire plays live, the lead guitar that comes in during the second half of the chorus
is played with the tapping technique in this tab. If you can't play this tap section, there's an
alternate way of playing it which I will post below:

D#|--12----12h13----8h10p8--15----15h17--------------|
A#|-----10-------10------------13-------13-----------|
F#|----------------------------------------12h14p12--|  x3
C#|--------------------------------------------------|
G#|--------------------------------------------------|
C#|--------------------------------------------------|

D#|-------------------------13----13-12----9----9-10~--|
A#|--11----11-10----8-10-------10-------10---10--------|
F#|-----10-------10------10----------------------------|
C#|----------------------------------------------------|
G#|----------------------------------------------------|
C#|----------------------------------------------------|


                                        *** [Note #2] ***

There is a third guitar part for the first part of the chorus that can be faintly heard and goes
like this (I put the open notes in parentheses to give you an idea of where the third guitar
comes in):

D#|-----------------------------------------------------------------|
A#|-----------------------------------------------------------------|
F#|-----------------------------------------------------------------|
C#|--(0-0)--3h5-7-5-3~----2h3p2p0--(0-0)--3h5-7-5-3-10-8-7~--7h8----|
G#|--(0-0)-------------------------(0-0)-------------------------8--|
C#|--(0-0)-------------------------(0-0)----------------------------|

D#|--------------------------------------------------|
A#|--------------------------------------------------|
F#|------------------------------------7~---7/10-9~--|
C#|--(0-0)--3h5-7-5-3-8-7-5-10-8-7~----x----x/x--x---|
G#|--(0-0)-----------------------------5~---5/8--7~--|
C#|--(0-0)-------------------------------------------|



************************************

| .   palm mute
| p   pull-off
| x   Mute note
| h   hammer-on
| b   Bend
| brb Bend release bend (used as a vibrato in this tab)
| t   Tap
| ~   held note
| /   slide up

************************************
comments
print report bad tab
7 comments total. Showing first comments.
+1 reply
x504x wrote on October 4 2012, 07:17 pm

In the verse I have:

D#|------------------------------------------------|
A#|------------------------------------------------|
F#|------------------------------------------------|
C#|------------------------------------------------|
G#|--8---5--------------------4---7---------4---4--|
C#|----0---0-0--8p5p0-0--0-0----0---0-3-5-0---0----|

But it should be:

D#|------------------------------------------------|
A#|------------------------------------------------|
F#|------------------------------------------------|
C#|------------------------------------------------|
G#|--8---5--------------------4---7---------4---4--|
C#|----0---0-0--8p5p0-0--0-0----0---0-5-7-0---0----|

Thanks c:

0 reply
AsILayDying504 wrote on October 5 2012, 04:51 pm

Lol did you mean to say "you have"? But yeah I meant to put that in the original version but I guess I just messed up :P

Btw, do you live in the Louisiana area? Or is 504 just a random number?

0 reply
MySoulMetalhead wrote on July 2 2013, 11:50 am

.........................:)

I want to post or [tab]
guest
You may want to rate the tab now too:
select rating
Please do not post tabs as comments. Select "correction" instead!