Oops, an error
Loading. Please wait.

The Unfaithful Bass Tab

ver1
ver1

Whole song

Interactive

More versions @911Tabs.com
1,400 views 1 this week
no commentswrite comment
1 2 3 4 5
please rate
Autoscroll
+/-
esc
set tempo
stop
Contributor
Difficulty
Tuning
intermediate
C# G# C# F# A# D#
Hey! There's an official Ultimate Guitar app which is ideal
for learning songs when you're away from computer. Get the app
WARNING: You are trying to view
                                    content from Ultimate-Guitar.com
                                    in an unauthorized application,
                                    which is prohibited.

                                    Please use an official Ultimate
                                    Guitar Tabs application for iPhone,
                                    iPad or Android to access legitimate
                                    chords, guitar, bass, and drum tabs
                                    from Ultimate-Guitar.com database.

                                    Type "ultimate guitar tabs" in Apple
                                    App Store's or Android Market's
                                    search to find the application.
Title: The Unfaithful
Artist: Memphis May Fire
Album: The Hollow
Words: Memphis May Fire
Music: Memphis May Fire
Copyright: Memphis May Fire

Legend
L - tied note
x - dead note
h - hammer on/pull off
b - bend
s - slide
~ - vibrato
g - ghost note
> - accentuated note
t - trill
M - palm mute
. - staccato
P - popping (bass)
S - slapping (bass)
+ - tapping
W - wide vibrato
< - fade in
w - whammy bar
= - tremolo picking
v - brush up
^ - brush down
V - pick stroke up
n - pick stroke down


F#|-------|----------------------------|----------------------------|
C#|-------|----------------------------|----------------------------|
G#|-------|----------------------------|--0--0--0--0--0--0--0--0----|
C#|-------|--3--3--3--3--3--3--3--3----|----------------------------|


----------------------------|----------------------------|
----------------------------|----------------------------|
--3--3--3--3--3--3--3--3----|----------------------------|
----------------------------|--5--5--5--5--5--5--5--5----|


----------------------------|----------------------------|
----------------------------|----------------------------|
----------------------------|--0--0--0--0--0--0--0--0----|
--3--3--3--3--3--3--3--3----|----------------------------|


----------------------------|----------------------------|
----------------------------|----------------------------|
--3--3--3--3--3--3--3--3----|----------------------------|
----------------------------|--5--5--5--5--5--5--5--5----|


----------------------------|----------------------------|
----------------------------|----------------------------|
--0--0--0--0--0--3--0-------|--------------3--0----------|
-----------------------6----|--7--3--2--0--------6-------|


----------------------------------------------------|
----------------------------------------------------|
--0-----------------------------0-----0--0----------|
----------------------------------------------------|


----------------------------|----------------------------|----------------|
----------------------------|----------------------------|----------------|
----------------------------|--0--0--0--0--0--3--0-------|----------------|
--------3--3--3--3--3--3----|-----------------------6----|--7--3--2--0----|


----------------------------|----------------------------|
-----------------3-----2----|----------------------------|
--3--------3----------------|--0-----0-----0--0----------|
-----6----------------------|----------------------------|


----------------------------|
----------------------------|
-----0----------------------|
--------5h-0--3--3--2--2----|


----------------------------------------------------|
----------------------------------------------------|
--0-----0-----0--0--0--0----------------------------|
--------------------------2-----5-----2-----5-------|


----------------------------|
----------------------------|
--0-------------------------|
-----3--2--0--2--3--3--3----|


----------------------------------------------------|
----------------------------------------------------|
--0--0--0-----0-----0-----0-----0--0--0-----0-------|
----------------------------------------------------|


----------------------------|----------------------------|
----------------------------|----------------------------|
--0--0--0-------------------|--8--0--0--8--0--0--0--7----|
-----------5----------------|----------------------------|


----------------------------------------|----------------------------|
----------------------------------------|----------------------------|
--0-----0-----3h-5--0-----3-----0-------|--5--0--0--5--0--0--0--3----|
----------------------------------------|----------------------------|


----------------------------------------------------------|
----------------------------------------------------------|
--0--------0--------2h----3h----2-----0-------------------|
----------------------------------------------------------|


----------------------------|----------------------------------------|
----------------------------|----------------------------------------|
--8--0--0--8--0--0--0--7----|--0-----0-----3h-5--0-----3-----0-------|
----------------------------|----------------------------------------|


----------------------|
----------------------|
--5--0--0--5--0--0----|
----------------------|


----------------------------------------------------------|-------|
----------------------------------------------------------|-------|
--0--------3--------0--------0--------2h----3h----2-------|-------|
----------------------------------------------------------|-------|


----------------------------|----------------------------|
----------------------------|----------------------------|
----------------------------|--0--0--0--0--0--0--0--0----|
--3--3--3--3--3--3--3--3----|----------------------------|


----------------------------|----------------------------|
----------------------------|----------------------------|
--3--3--3--3--3--3--3--3----|----------------------------|
----------------------------|--5--5--5--5--5--5--5--5----|


----------------------------|----------------------------|
----------------------------|----------------------------|
----------------------------|--0--0--0--0--0--0--0--0----|
--3--3--3--3--3--3--3--3----|----------------------------|


----------------------------|----------------------------|
----------------------------|----------------------------|
--3--3--3--3--3--3--3--3----|----------------------------|
----------------------------|--5--5--5--5--5--5--5--5----|


----------------------------|----------------------------|
----------------------------|----------------------------|
----------------------------|--0--0--0--0--0--0--0--0----|
--3--3--3--3--3--3--3--3----|----------------------------|


----------------------------|----------------------------|
----------------------------|----------------------------|
--3--3--3--3--3--3--3--3----|----------------------------|
----------------------------|--5--5--5--5--5--5--5--5----|


----------------------------|----------------------------|
----------------------------|----------------------------|
----------------------------|----------------------------|
--3--3--3--3--3--3--3--3----|--3--3--3--3--3--3--3--3----|


----------------------------|----------------------------|-------|-------|
----------------------------|----------------------------|-------|-------|
--0--0--0--0--0--0--0--0----|--0-------------------------|-------|-------|
----------------------------|-----0--0--0--0--2--2--2----|-------|-------|


----------------------------|----------------------------|
----------------------------|----------------------------|
--12s0--0--0-----0--0--0----|-----0--0.------------------|
----------------------------|----------------------------|


----------------------------------------------------|
----------------------------------------------------|
----------------------------------------------------|
--------------------------------------10-10-10------|


----------------------------------------------------|
--------------------------------------3--3--3-------|
--------------------------3--3--3-------------------|
--7--7--7-----6--6--6-------------------------------|


----------------------------|----------------------------|
----------------------------|----------------------------|
-----0--0--0-----0--0--0----|-----0--0.------------------|
----------------------------|----------------------------|


----------------------------------------------------|
----------------------------------------------------|
----------------------------------------------------|
--------------------------------------10-10-10------|


----------------------------------------------------|
--------------------------------------3--3--3-------|
--------------------------3--3--3-------------------|
--7--7--7-----6--6--6-------------------------------|


----------------------------------------------------|
----------------------------------------------------|
--0-----0-----0--0--0-----0--0--0-----0-----0--0----|
----------------------------------------------------|


----------------------------------------------------------------------------|
----------------------------------------------------------------------------|
--0--------------------------0--0--0--0.------------------------------------|
----------------------------------------------------------------------------|


----------------------------------------------------|
----------------------------------------------------|
--------0-----0--0--0-------------------------------|
----------------------------------------------------|


----------------------------------------------------------------------------|
----------------------------------------------------------------------------|
-----------0--------0--------0--0--0--0--------2--------3-------------------|
-----------------------------------------------------------------3L---------|


----------------------------------------------------|
----------------------------------------------------|
--------0-----0--0--0-----0--0--0-----0-----0--0----|
--3-------------------------------------------------|


----------------------------------------------------------------------------|
----------------------------------------------------------------------------|
--0--------------------------0--0--0--0.------------------------------------|
----------------------------------------------------------------------------|


----------------------------------------------------|
----------------------------------------------------|
----------------------------------------------------|
----------------------------------------------------|


----------------------------------------------------|
----------------------------------------------------|
--------------------------------------3-------------|
--7-----6h-7--2-----------0-------------------------|


----------------------------------------------------|
----------------------------------------------------|
--0-----0-----0--0--0-----0--0--0-----0-----0--0----|
----------------------------------------------------|


----------------------------------------------------------------------------|
----------------------------------------------------------------------------|
--0--------------------------0--0--0--0.------------------------------------|
----------------------------------------------------------------------------|


----------------------------------------------------|
----------------------------------------------------|
--------0-----0--0--0-------------------------------|
----------------------------------------------------|


----------------------------------------------------------------------------|
----------------------------------------------------------------------------|
-----------0--------0--------0--0--0--0--------2--------3-------------------|
-----------------------------------------------------------------3L---------|


----------------------------------------------------|
----------------------------------------------------|
--------0-----0--0--0-----0--0--0-----0-----0--0----|
--3-------------------------------------------------|


----------------------------------------------------------------------------|
----------------------------------------------------------------------------|
--0--------------------------0--0--0--0.------------------------------------|
----------------------------------------------------------------------------|


----------------------------------------------------|----------------|-------|
----------------------------------------------------|----------------|-------|
--------0-----0--0--0-------------------------------|--0--2--3-------|-------|
----------------------------------------------------|-----------5----|-------|


-------|----------------------------|----------------------------|
-------|----------------------------|----------------------------|
-------|--3--3--3--3--3--3--3--3----|----------------------------|
-------|----------------------------|--5--5--5--5--5--5--5--5----|


----------------------------|----------------------------|
----------------------------|----------------------------|
----------------------------|--0--0--0--0--0--0--0--0----|
--3--3--3--3--3--3--3--3----|----------------------------|


----------------------------|----------------------------|
----------------------------|----------------------------|
--3--3--3--3--3--3--3--3----|----------------------------|
----------------------------|--5--5--5--5--5--5--5--5----|


----------------------------|----------------------------|
----------------------------|----------------------------|
----------------------------|--0--0--0--0--0--0--0--0----|
--3--3--3--3--3--3--3--3----|----------------------------|


----------------------------|----------------------------|
----------------------------|----------------------------|
--3--3--3--3--3--3--3--3----|----------------------------|
----------------------------|--5--5--5--5--5--5--5--5----|


----------------------------|----------------------------|
----------------------------|----------------------------|
----------------------------|----------------------------|
--3--3--3--3--3--3--3--3----|--3--3--3--3--3--3--3--3----|


----------------------------|----------------------------|-------|
----------------------------|----------------------------|-------|
--0--0--0--0--0--0--0--0----|--0-------------------------|--0----|
----------------------------|-----0--0--0--0--2--2--2----|-------|


----------------------------|----------------------------|
----------------------------|----------------------------|
----------------------------|----------------------------|
--7--7--7--7--7--7--5--5----|--5--5--5--5----------------|


----------------------------|----------------------------|
----------------------------|----------------------------|
----------------------------|----------------------------|
--0--0--0--0--0--0--2--2----|--2--2--2--2--2--2--2--2----|


----------------------------|----------------------------|
----------------------------|----------------------------|
----------------------------|----------------------------|
--7--7--7--7--7--7--5--5----|--5--5--5--5----------------|


----------------------------|----------------------------|
----------------------------|----------------------------|
----------------------------|----------------------------|
--0--0--0--0--0--0--2--2----|--2--2--2--2--2--5--5--5----|


----------------------------|----------------------------|
----------------------------|----------------------------|
----------------------------|----------------------------|
--7--7--7--7--7--7--5--5----|--5--5--5--5----------------|


----------------------------|----------------------------|
----------------------------|----------------------------|
----------------------------|----------------------------|
--0--0--0--0--0--0--2--2----|--2--2--2--2--2--5--5--5----|


----------------------------|----------------------------|
----------------------------|----------------------------|
----------------------------|----------------------------|
--7--7--7--7--7--7--5--5----|--5--5--5--5----------------|


----------------------------|----------|
----------------------------|----------|
----------------------------|----------|
--0--0--0--0--0--0----------|----------|


----------------------------------------------------|
----------------------------------------------------|
--7-----0--0--0-----0--0--0-----------------0--0----|
----------------------------------------------------|


----------------------------------------------------|
----------------------------------------------------|
--0-----------------0--0----------------------------|
--------------------------2-----5--5--5-------------|


----------------------------------------------------|
----------------------------------------------------|
--------0--0--0-----0--0--0-----------------0--0----|
----------------------------------------------------|


----------------------------------------------------|
----------------------------------------------------|
--0-----------------0--0--0-----7s-5--7-------------|
--------------------------------------------2-------|


----------------------------------------------------|
----------------------------------------------------|
--7-----0--0--0-----0--0--0-----------------0--0----|
----------------------------------------------------|


----------------------------------------------------|
----------------------------------------------------|
--0-----------------0--0----------------------------|
--------------------------2-----5--5--5-------------|


----------------------------------------------------|----------------|
----------------------------------------------------|----------------|
--------0--0--0-----0--0--0-----------------0--0----|--0.------------|
----------------------------------------------------|----------------|


----------------------------|----------------------------|----------------|
----------------------------|----------------------------|----------------|
--0--0--0-----0L------------|--0-----------0--0--0-------|----------------|
----------------------------|-----------------------3L---|--3--3--3-------|


----------------------------|----------------|----------------------------|
----------------------------|----------------|----------------------------|
----------------------------|----------------|----------------------------|
--------------2--2--2--0L---|--0--0--0L------|--0-----------0--0--0--2L---|


----------------|----------------------------|----------------------------|
----------------|----------------------------|----------------------------|
----------------|-----------------------0L---|--0--0--0-----0L------------|
--2--2--2L------|--2-----------2--5----------|----------------------------|


----------------------------|----------------|----------------------------|
----------------------------|----------------|----------------------------|
--0-----------0--0--0-------|----------------|----------------------------|
-----------------------3L---|--3--3--3L------|--3-----------2--2--2--0L---|


----------------|----------------------------|----------------|
----------------|----------------------------|----------------|
----------------|----------------------------|----------------|
--0--0--0L------|--0-----------0--0--0--2L---|--2--2--2L------|


----------------------------|----------------------------|
----------------------------|----------------------------|
--------------0--3--2--0----|--0--0--0--0--0--0--0--0----|
--2-------------------------|----------------------------|


----------------------------|----------------------------|
----------------------------|----------------------------|
--0--0--0--0--0--0--0--0----|----------------------------|
----------------------------|--3--3--3--3--3--3--3--3----|


----------------------------|----------------------------|
----------------------------|----------------------------|
--------------------3--2----|----------------------------|
--3--3--2--0--2--0----------|--0--0--0--0--0--0--0--0----|


----------------------------|----------------------------|
----------------------------|----------------------------|
----------------------------|----------------------------|
--0--0--0--0--0--0--0--0----|--2--2--2--2--2--2--2--2----|


----------------------------|-------|-------|-------|-------|-------|-------|
----------------------------|-------|-------|-------|-------|-------|-------|
-----------------------0L---|--0L---|--0L---|--0L---|--0L---|--0----|-------|
--2--2--2--2--2--2--2-------|-------|-------|-------|-------|-------|-------|


-------|-------|-------|-------||
-------|-------|-------|-------||
-------|-------|-------|-------||
-------|-------|-------|-------||
comments
We did not receive enough feedback on this tab! Please rate:
print report bad tab
1 2 3 4 5
I want to post or [tab]
guest
You may want to rate the tab now too:
select rating
Please do not post tabs as comments. Select "correction" instead!